  0
SECTION
  2
HEADER
  9
$ACADVER
  1
AC1015
  9
$ACADMAINTVER
 70
     6
  9
$DWGCODEPAGE
  3
ANSI_1252
  9
$INSBASE
 10
0.0
 20
0.0
 30
0.0
  9
$EXTMIN
 10
0.0
 20
0.0
 30
0.0
  9
$EXTMAX
 10
431.8
 20
279.4
 30
0.0
  9
$LIMMIN
 10
0.0
 20
0.0
  9
$LIMMAX
 10
431.8
 20
279.4
  9
$ORTHOMODE
 70
     0
  9
$REGENMODE
 70
     1
  9
$FILLMODE
 70
     1
  9
$QTEXTMODE
 70
     0
  9
$MIRRTEXT
 70
     1
  9
$LTSCALE
 40
1.0
  9
$ATTMODE
 70
     1
  9
$TEXTSIZE
 40
4.9388888889
  9
$TRACEWID
 40
1.0
  9
$TEXTSTYLE
  7
Standard
  9
$CLAYER
  8
0
  9
$CELTYPE
  6
ByLayer
  9
$CECOLOR
 62
   256
  9
$CELTSCALE
 40
1.0
  9
$DISPSILH
 70
     0
  9
$DIMSCALE
 40
1.0
  9
$DIMASZ
 40
5.1366373698
  9
$DIMEXO
 40
2.0
  9
$DIMDLI
 40
3.75
  9
$DIMRND
 40
0.0
  9
$DIMDLE
 40
0.0
  9
$DIMEXE
 40
2.0
  9
$DIMTP
 40
0.0
  9
$DIMTM
 40
0.0
  9
$DIMTXT
 40
7.0555555556
  9
$DIMCEN
 40
2.5
  9
$DIMTSZ
 40
0.0
  9
$DIMTOL
 70
     0
  9
$DIMLIM
 70
     0
  9
$DIMTIH
 70
     1
  9
$DIMTOH
 70
     1
  9
$DIMSE1
 70
     0
  9
$DIMSE2
 70
     0
  9
$DIMTAD
 70
     1
  9
$DIMZIN
 70
     0
  9
$DIMBLK
  1

  9
$DIMASO
 70
     1
  9
$DIMSHO
 70
     1
  9
$DIMPOST
  1

  9
$DIMAPOST
  1

  9
$DIMALT
 70
     0
  9
$DIMALTD
 70
     3
  9
$DIMALTF
 40
0.0393700787
  9
$DIMLFAC
 40
1.0
  9
$DIMTOFL
 70
     1
  9
$DIMTVP
 40
0.0
  9
$DIMTIX
 70
     0
  9
$DIMSOXD
 70
     0
  9
$DIMSAH
 70
     0
  9
$DIMBLK1
  1

  9
$DIMBLK2
  1

  9
$DIMSTYLE
  2
ISO-25
  9
$DIMCLRD
 70
     0
  9
$DIMCLRE
 70
     0
  9
$DIMCLRT
 70
     0
  9
$DIMTFAC
 40
1.0
  9
$DIMGAP
 40
2.0
  9
$DIMJUST
 70
     0
  9
$DIMSD1
 70
     0
  9
$DIMSD2
 70
     0
  9
$DIMTOLJ
 70
     0
  9
$DIMTZIN
 70
     0
  9
$DIMALTZ
 70
     0
  9
$DIMALTTZ
 70
     0
  9
$DIMUPT
 70
     0
  9
$DIMDEC
 70
     2
  9
$DIMTDEC
 70
     2
  9
$DIMALTU
 70
     2
  9
$DIMALTTD
 70
     3
  9
$DIMTXSTY
  7
Standard
  9
$DIMAUNIT
 70
     0
  9
$DIMADEC
 70
     2
  9
$DIMALTRND
 40
0.0
  9
$DIMAZIN
 70
     0
  9
$DIMDSEP
 70
    44
  9
$DIMATFIT
 70
     3
  9
$DIMFRAC
 70
     0
  9
$DIMLDRBLK
  1

  9
$DIMLUNIT
 70
     2
  9
$DIMLWD
 70
    -2
  9
$DIMLWE
 70
    -2
  9
$DIMTMOVE
 70
     0
  9
$LUNITS
 70
     2
  9
$LUPREC
 70
     2
  9
$SKETCHINC
 40
1.0
  9
$FILLETRAD
 40
10.0
  9
$AUNITS
 70
     0
  9
$AUPREC
 70
     2
  9
$MENU
  1
.
  9
$ELEVATION
 40
0.0
  9
$PELEVATION
 40
0.0
  9
$THICKNESS
 40
0.0
  9
$LIMCHECK
 70
     0
  9
$CHAMFERA
 40
0.0
  9
$CHAMFERB
 40
0.0
  9
$CHAMFERC
 40
0.0
  9
$CHAMFERD
 40
0.0
  9
$SKPOLY
 70
     0
  9
$TDCREATE
 40
2457688.599670752
  9
$TDUCREATE
 40
2457688.516337419
  9
$TDUPDATE
 40
2457688.599671308
  9
$TDUUPDATE
 40
2457688.516337974
  9
$TDINDWG
 40
0.0000000116
  9
$TDUSRTIMER
 40
0.0000000116
  9
$USRTIMER
 70
     1
  9
$ANGBASE
 50
0.0
  9
$ANGDIR
 70
     0
  9
$PDMODE
 70
     0
  9
$PDSIZE
 40
-1.0
  9
$PLINEWID
 40
0.0
  9
$SPLFRAME
 70
     0
  9
$SPLINETYPE
 70
     6
  9
$SPLINESEGS
 70
     8
  9
$HANDSEED
  5
49F
  9
$SURFTAB1
 70
     6
  9
$SURFTAB2
 70
     6
  9
$SURFTYPE
 70
     6
  9
$SURFU
 70
     6
  9
$SURFV
 70
     6
  9
$UCSBASE
  2

  9
$UCSNAME
  2

  9
$UCSORG
 10
0.0
 20
0.0
 30
0.0
  9
$UCSXDIR
 10
1.0
 20
0.0
 30
0.0
  9
$UCSYDIR
 10
0.0
 20
1.0
 30
0.0
  9
$UCSORTHOREF
  2

  9
$UCSORTHOVIEW
 70
     0
  9
$UCSORGTOP
 10
0.0
 20
0.0
 30
0.0
  9
$UCSORGBOTTOM
 10
0.0
 20
0.0
 30
0.0
  9
$UCSORGLEFT
 10
0.0
 20
0.0
 30
0.0
  9
$UCSORGRIGHT
 10
0.0
 20
0.0
 30
0.0
  9
$UCSORGFRONT
 10
0.0
 20
0.0
 30
0.0
  9
$UCSORGBACK
 10
0.0
 20
0.0
 30
0.0
  9
$PUCSBASE
  2

  9
$PUCSNAME
  2

  9
$PUCSORG
 10
0.0
 20
0.0
 30
0.0
  9
$PUCSXDIR
 10
1.0
 20
0.0
 30
0.0
  9
$PUCSYDIR
 10
0.0
 20
1.0
 30
0.0
  9
$PUCSORTHOREF
  2

  9
$PUCSORTHOVIEW
 70
     0
  9
$PUCSORGTOP
 10
0.0
 20
0.0
 30
0.0
  9
$PUCSORGBOTTOM
 10
0.0
 20
0.0
 30
0.0
  9
$PUCSORGLEFT
 10
0.0
 20
0.0
 30
0.0
  9
$PUCSORGRIGHT
 10
0.0
 20
0.0
 30
0.0
  9
$PUCSORGFRONT
 10
0.0
 20
0.0
 30
0.0
  9
$PUCSORGBACK
 10
0.0
 20
0.0
 30
0.0
  9
$USERI1
 70
     0
  9
$USERI2
 70
     0
  9
$USERI3
 70
     0
  9
$USERI4
 70
     0
  9
$USERI5
 70
     0
  9
$USERR1
 40
0.0
  9
$USERR2
 40
0.0
  9
$USERR3
 40
0.0
  9
$USERR4
 40
0.0
  9
$USERR5
 40
0.0
  9
$WORLDVIEW
 70
     1
  9
$SHADEDGE
 70
     3
  9
$SHADEDIF
 70
    70
  9
$TILEMODE
 70
     1
  9
$MAXACTVP
 70
    64
  9
$PINSBASE
 10
0.0
 20
0.0
 30
0.0
  9
$PLIMCHECK
 70
     0
  9
$PEXTMIN
 10
1.0000000000E+20
 20
1.0000000000E+20
 30
1.0000000000E+20
  9
$PEXTMAX
 10
-1.0000000000E+20
 20
-1.0000000000E+20
 30
-1.0000000000E+20
  9
$PLIMMIN
 10
0.0
 20
0.0
  9
$PLIMMAX
 10
420.0
 20
297.0
  9
$UNITMODE
 70
     0
  9
$VISRETAIN
 70
     1
  9
$PLINEGEN
 70
     0
  9
$PSLTSCALE
 70
     1
  9
$TREEDEPTH
 70
  3020
  9
$CMLSTYLE
  2
Standard
  9
$CMLJUST
 70
     0
  9
$CMLSCALE
 40
20.0
  9
$PROXYGRAPHICS
 70
     1
  9
$MEASUREMENT
 70
     1
  9
$CELWEIGHT
370
    -1
  9
$ENDCAPS
280
     0
  9
$JOINSTYLE
280
     0
  9
$LWDISPLAY
290
     1
  9
$INSUNITS
 70
     4
  9
$HYPERLINKBASE
  1

  9
$STYLESHEET
  1

  9
$XEDIT
290
     1
  9
$CEPSNTYPE
380
     0
  9
$PSTYLEMODE
290
     1
  9
$FINGERPRINTGUID
  2
{EDB854E7-93B0-4586-AC40-F16C8454913C}
  9
$VERSIONGUID
  2
{FAEB1C32-E019-11D5-929B-00C0DF256EC4}
  9
$EXTNAMES
290
     1
  9
$PSVPSCALE
 40
0.0
  9
$OLESTARTUP
290
     0
  0
ENDSEC
  0
SECTION
  2
CLASSES
  0
CLASS
  1
ACDBDICTIONARYWDFLT
  2
AcDbDictionaryWithDefault
  3
ObjectDBX Classes
 90
        0
280
     0
281
     0
  0
CLASS
  1
VISUALSTYLE
  2
AcDbVisualStyle
  3
ObjectDBX Classes
 90
     4095
280
     0
281
     0
  0
CLASS
  1
MATERIAL
  2
AcDbMaterial
  3
ObjectDBX Classes
 90
     1153
280
     0
281
     0
  0
CLASS
  1
SCALE
  2
AcDbScale
  3
ObjectDBX Classes
 90
     1153
280
     0
281
     0
  0
CLASS
  1
TABLESTYLE
  2
AcDbTableStyle
  3
ObjectDBX Classes
 90
     4095
280
     0
281
     0
  0
CLASS
  1
MLEADERSTYLE
  2
AcDbMLeaderStyle
  3
ACDB_MLEADERSTYLE_CLASS
 90
     4095
280
     0
281
     0
  0
CLASS
  1
SUN
  2
AcDbSun
  3
SCENEOE
 90
     1153
280
     0
281
     0
  0
CLASS
  1
ACDBPLACEHOLDER
  2
AcDbPlaceHolder
  3
ObjectDBX Classes
 90
        0
280
     0
281
     0
  0
CLASS
  1
LAYOUT
  2
AcDbLayout
  3
ObjectDBX Classes
 90
        0
280
     0
281
     0
  0
ENDSEC
  0
SECTION
  2
TABLES
  0
TABLE
  2
VPORT
  5
8
330
0
100
AcDbSymbolTable
 70
     1
  0
VPORT
  5
29
330
8
100
AcDbSymbolTableRecord
100
AcDbViewportTableRecord
  2
*Active
 70
     0
 10
0.0
 20
0.0
 11
1.0
 21
1.0
 12
215.9
 22
139.7
 13
0.0
 23
0.0
 14
10.0
 24
10.0
 15
10.0
 25
10.0
 16
0.0
 26
0.0
 36
1.0
 17
0.0
 27
0.0
 37
0.0
 40
279.4
 41
1.5454545455
 42
50.0
 43
0.0
 44
0.0
 50
0.0
 51
0.0
 71
     0
 72
  2000
 73
     1
 74
     3
 75
     0
 76
     0
 77
     0
 78
     0
281
     0
 65
     1
110
0.0
120
0.0
130
0.0
111
1.0
121
0.0
131
0.0
112
0.0
122
1.0
132
0.0
 79
     0
146
0.0
  0
ENDTAB
  0
TABLE
  2
LTYPE
  5
5
330
0
100
AcDbSymbolTable
 70
     6
  0
LTYPE
  5
14
330
5
100
AcDbSymbolTableRecord
100
AcDbLinetypeTableRecord
  2
ByBlock
 70
     0
  3

 72
    65
 73
     0
 40
0.0
  0
LTYPE
  5
15
330
5
100
AcDbSymbolTableRecord
100
AcDbLinetypeTableRecord
  2
ByLayer
 70
     0
  3

 72
    65
 73
     0
 40
0.0
  0
LTYPE
  5
16
330
5
100
AcDbSymbolTableRecord
100
AcDbLinetypeTableRecord
  2
Continuous
 70
     0
  3
Solid line
 72
    65
 73
     0
 40
0.0
  0
LTYPE
  5
6E
330
5
100
AcDbSymbolTableRecord
100
AcDbLinetypeTableRecord
  2
HIDDEN
 70
     0
  3
Hidden __ __ __ __ __ __ __ __ __ __ __ __ __ __
 72
    65
 73
     2
 40
1.905
 49
1.27
 74
     0
 49
-0.635
 74
     0
  0
LTYPE
  5
6F
330
5
100
AcDbSymbolTableRecord
100
AcDbLinetypeTableRecord
  2
PHANTOM
 70
     0
  3
Phantom ______  __  __  ______  __  __  ______
 72
    65
 73
     6
 40
12.7
 49
6.35
 74
     0
 49
-1.27
 74
     0
 49
1.27
 74
     0
 49
-1.27
 74
     0
 49
1.27
 74
     0
 49
-1.27
 74
     0
  0
LTYPE
  5
70
330
5
100
AcDbSymbolTableRecord
100
AcDbLinetypeTableRecord
  2
CENTER
 70
     0
  3
Center ____ _ ____ _ ____ _ ____ _ ____ _ ____
 72
    65
 73
     4
 40
10.16
 49
6.35
 74
     0
 49
-1.27
 74
     0
 49
1.27
 74
     0
 49
-1.27
 74
     0
  0
LTYPE
  5
71
330
5
100
AcDbSymbolTableRecord
100
AcDbLinetypeTableRecord
  2
CENTERX2
 70
     0
  3
Center (2x) ________  __  ________  __  _____
 72
    65
 73
     4
 40
20.32
 49
12.7
 74
     0
 49
-2.54
 74
     0
 49
2.54
 74
     0
 49
-2.54
 74
     0
  0
LTYPE
  5
72
330
5
100
AcDbSymbolTableRecord
100
AcDbLinetypeTableRecord
  2
DOT2
 70
     0
  3
Dot (.5x) ........................................
 72
    65
 73
     2
 40
0.635
 49
0.0
 74
     0
 49
-0.635
 74
     0
  0
ENDTAB
  0
TABLE
  2
LAYER
  5
2
330
0
100
AcDbSymbolTable
 70
     3
  0
LAYER
  5
10
330
2
100
AcDbSymbolTableRecord
100
AcDbLayerTableRecord
  2
0
 70
     0
 62
     7
  6
Continuous
370
    -3
390
F
  0
LAYER
  5
73
330
2
100
AcDbSymbolTableRecord
100
AcDbLayerTableRecord
  2
SLD-0
 70
     0
 62
   179
  6
Continuous
370
    -3
390
F
  0
LAYER
  5
74
330
2
100
AcDbSymbolTableRecord
100
AcDbLayerTableRecord
  2
EBENE_1
 70
     0
 62
   179
  6
Continuous
370
    -3
390
F
  0
ENDTAB
  0
TABLE
  2
STYLE
  5
3
330
0
100
AcDbSymbolTable
 70
     3
  0
STYLE
  5
11
330
3
100
AcDbSymbolTableRecord
100
AcDbTextStyleTableRecord
  2
Standard
 70
     0
 40
0.0
 41
1.0
 50
0.0
 71
     0
 42
4.9388888889
  3
txt
  4

  0
STYLE
  5
96
330
3
100
AcDbSymbolTableRecord
100
AcDbTextStyleTableRecord
  2
SLDTEXTSTYLE0
 70
     0
 40
0.0
 41
0.605
 50
0.0
 71
     0
 42
4.9388888889
  3
TXT
  4

  0
STYLE
  5
16E
330
3
100
AcDbSymbolTableRecord
100
AcDbTextStyleTableRecord
  2
SLDTEXTSTYLE1
 70
     0
 40
0.0
 41
0.75
 50
0.0
 71
     0
 42
4.9388888889
  3
TXT
  4

  0
ENDTAB
  0
TABLE
  2
VIEW
  5
6
330
0
100
AcDbSymbolTable
 70
     0
  0
ENDTAB
  0
TABLE
  2
UCS
  5
7
330
0
100
AcDbSymbolTable
 70
     0
  0
ENDTAB
  0
TABLE
  2
APPID
  5
9
330
0
100
AcDbSymbolTable
 70
     1
  0
APPID
  5
12
330
9
100
AcDbSymbolTableRecord
100
AcDbRegAppTableRecord
  2
ACAD
 70
     0
  0
ENDTAB
  0
TABLE
  2
DIMSTYLE
  5
A
330
0
100
AcDbSymbolTable
 70
     1
100
AcDbDimStyleTable
  0
DIMSTYLE
105
27
330
A
100
AcDbSymbolTableRecord
100
AcDbDimStyleTableRecord
  2
ISO-25
 70
     0
 41
2.5
 42
0.625
 43
3.75
 44
1.25
 73
     0
 74
     0
 77
     1
 78
     8
140
2.5
141
2.5
143
0.0393700787
147
0.625
171
     3
172
     1
178
     0
271
     2
272
     2
274
     3
278
    44
283
     0
284
     8
340
11
  0
ENDTAB
  0
TABLE
  2
BLOCK_RECORD
  5
1
330
0
100
AcDbSymbolTable
 70
    25
  0
BLOCK_RECORD
  5
1F
330
1
100
AcDbSymbolTableRecord
100
AcDbBlockTableRecord
  2
*Model_Space
340
22
  0
BLOCK_RECORD
  5
1B
330
1
100
AcDbSymbolTableRecord
100
AcDbBlockTableRecord
  2
*Paper_Space
340
1E
  0
BLOCK_RECORD
  5
23
330
1
100
AcDbSymbolTableRecord
100
AcDbBlockTableRecord
  2
*Paper_Space0
340
26
  0
BLOCK_RECORD
  5
75
330
1
100
AcDbSymbolTableRecord
100
AcDbBlockTableRecord
  2
Block1
340
0
102
{BLKREFS
331
16D
102
}
  0
BLOCK_RECORD
  5
8C
330
1
100
AcDbSymbolTableRecord
100
AcDbBlockTableRecord
  2
SW_BLOCK_DIMENSION_0
340
0
102
{BLKREFS
331
98
102
}
  0
BLOCK_RECORD
  5
8F
330
1
100
AcDbSymbolTableRecord
100
AcDbBlockTableRecord
  2
_ORIGIN
340
0
102
{BLKREFS
331
94
331
104
102
}
  0
BLOCK_RECORD
  5
99
330
1
100
AcDbSymbolTableRecord
100
AcDbBlockTableRecord
  2
SW_BLOCK_DIMENSION_1
340
0
102
{BLKREFS
331
A0
102
}
  0
BLOCK_RECORD
  5
A1
330
1
100
AcDbSymbolTableRecord
100
AcDbBlockTableRecord
  2
SW_BLOCK_DIMENSION_2
340
0
102
{BLKREFS
331
A8
102
}
  0
BLOCK_RECORD
  5
A9
330
1
100
AcDbSymbolTableRecord
100
AcDbBlockTableRecord
  2
SW_BLOCK_DIMENSION_3
340
0
102
{BLKREFS
331
B0
102
}
  0
BLOCK_RECORD
  5
B1
330
1
100
AcDbSymbolTableRecord
100
AcDbBlockTableRecord
  2
SW_BLOCK_DIMENSION_4
340
0
102
{BLKREFS
331
B8
102
}
  0
BLOCK_RECORD
  5
B9
330
1
100
AcDbSymbolTableRecord
100
AcDbBlockTableRecord
  2
SW_BLOCK_DIMENSION_5
340
0
102
{BLKREFS
331
C0
102
}
  0
BLOCK_RECORD
  5
C1
330
1
100
AcDbSymbolTableRecord
100
AcDbBlockTableRecord
  2
SW_BLOCK_DIMENSION_6
340
0
102
{BLKREFS
331
C8
102
}
  0
BLOCK_RECORD
  5
C9
330
1
100
AcDbSymbolTableRecord
100
AcDbBlockTableRecord
  2
SW_BLOCK_DIMENSION_7
340
0
102
{BLKREFS
331
D0
102
}
  0
BLOCK_RECORD
  5
D1
330
1
100
AcDbSymbolTableRecord
100
AcDbBlockTableRecord
  2
SW_BLOCK_DIMENSION_8
340
0
102
{BLKREFS
331
D8
102
}
  0
BLOCK_RECORD
  5
D9
330
1
100
AcDbSymbolTableRecord
100
AcDbBlockTableRecord
  2
SW_BLOCK_DIMENSION_9
340
0
102
{BLKREFS
331
E0
102
}
  0
BLOCK_RECORD
  5
E1
330
1
100
AcDbSymbolTableRecord
100
AcDbBlockTableRecord
  2
SW_BLOCK_DIMENSION_10
340
0
102
{BLKREFS
331
E8
102
}
  0
BLOCK_RECORD
  5
E9
330
1
100
AcDbSymbolTableRecord
100
AcDbBlockTableRecord
  2
SW_BLOCK_DIMENSION_11
340
0
102
{BLKREFS
331
F0
102
}
  0
BLOCK_RECORD
  5
F1
330
1
100
AcDbSymbolTableRecord
100
AcDbBlockTableRecord
  2
SW_BLOCK_DIMENSION_12
340
0
102
{BLKREFS
331
F8
102
}
  0
BLOCK_RECORD
  5
F9
330
1
100
AcDbSymbolTableRecord
100
AcDbBlockTableRecord
  2
SW_BLOCK_DIMENSION_13
340
0
102
{BLKREFS
331
100
102
}
  0
BLOCK_RECORD
  5
101
330
1
100
AcDbSymbolTableRecord
100
AcDbBlockTableRecord
  2
SW_BLOCK_DIMENSION_14
340
0
102
{BLKREFS
331
110
102
}
  0
BLOCK_RECORD
  5
111
330
1
100
AcDbSymbolTableRecord
100
AcDbBlockTableRecord
  2
SW_BLOCK_DIMENSION_15
340
0
102
{BLKREFS
331
121
102
}
  0
BLOCK_RECORD
  5
122
330
1
100
AcDbSymbolTableRecord
100
AcDbBlockTableRecord
  2
SW_BLOCK_DIMENSION_16
340
0
102
{BLKREFS
331
132
102
}
  0
BLOCK_RECORD
  5
133
330
1
100
AcDbSymbolTableRecord
100
AcDbBlockTableRecord
  2
SW_BLOCK_DIMENSION_17
340
0
102
{BLKREFS
331
143
102
}
  0
BLOCK_RECORD
  5
144
330
1
100
AcDbSymbolTableRecord
100
AcDbBlockTableRecord
  2
SW_BLOCK_DIMENSION_18
340
0
102
{BLKREFS
331
154
102
}
  0
BLOCK_RECORD
  5
155
330
1
100
AcDbSymbolTableRecord
100
AcDbBlockTableRecord
  2
SW_BLOCK_DIMENSION_19
340
0
102
{BLKREFS
331
165
102
}
  0
BLOCK_RECORD
  5
166
330
1
100
AcDbSymbolTableRecord
100
AcDbBlockTableRecord
  2
SW_NOTE_0
340
0
102
{BLKREFS
331
16B
102
}
  0
BLOCK_RECORD
  5
171
330
1
100
AcDbSymbolTableRecord
100
AcDbBlockTableRecord
  2
SW_NOTE_1
340
0
102
{BLKREFS
331
178
102
}
  0
ENDTAB
  0
ENDSEC
  0
SECTION
  2
BLOCKS
  0
BLOCK
  5
20
330
1F
100
AcDbEntity
  8
0
100
AcDbBlockBegin
  2
*Model_Space
 70
     0
 10
0.0
 20
0.0
 30
0.0
  3
*Model_Space
  1

  0
ENDBLK
  5
21
330
1F
100
AcDbEntity
  8
0
100
AcDbBlockEnd
  0
BLOCK
  5
1C
330
1B
100
AcDbEntity
 67
     1
  8
0
100
AcDbBlockBegin
  2
*Paper_Space
 70
     0
 10
0.0
 20
0.0
 30
0.0
  3
*Paper_Space
  1

  0
ENDBLK
  5
1D
330
1B
100
AcDbEntity
 67
     1
  8
0
100
AcDbBlockEnd
  0
BLOCK
  5
24
330
23
100
AcDbEntity
  8
0
100
AcDbBlockBegin
  2
*Paper_Space0
 70
     0
 10
0.0
 20
0.0
 30
0.0
  3
*Paper_Space0
  1

  0
ENDBLK
  5
25
330
23
100
AcDbEntity
  8
0
100
AcDbBlockEnd
  0
BLOCK
  5
76
330
75
100
AcDbEntity
  8
0
100
AcDbBlockBegin
  2
Block1
 70
     0
 10
0.0
 20
0.0
 30
0.0
  3
Block1
  1

  0
LINE
  5
78
330
75
100
AcDbEntity
  8
EBENE_1
100
AcDbLine
 10
363.6834285714
 20
41.3579706949
 30
0.0
 11
388.6834285714
 21
41.3579706949
 31
0.0
  0
LINE
  5
79
330
75
100
AcDbEntity
  8
EBENE_1
100
AcDbLine
 10
374.9034285714
 20
41.3579706949
 30
0.0
 11
374.9034285714
 21
171.3579706949
 31
0.0
  0
LINE
  5
7A
330
75
100
AcDbEntity
  8
EBENE_1
100
AcDbLine
 10
374.9034285714
 20
51.3579706949
 30
0.0
 11
384.9034285714
 21
51.3579706949
 31
0.0
  0
LINE
  5
7B
330
75
100
AcDbEntity
  8
EBENE_1
100
AcDbLine
 10
374.9034285714
 20
61.3579706949
 30
0.0
 11
384.9034285714
 21
61.3579706949
 31
0.0
  0
LINE
  5
7C
330
75
100
AcDbEntity
  8
EBENE_1
100
AcDbLine
 10
374.9034285714
 20
71.3579706949
 30
0.0
 11
384.9034285714
 21
71.3579706949
 31
0.0
  0
LINE
  5
7D
330
75
100
AcDbEntity
  8
EBENE_1
100
AcDbLine
 10
374.9034285714
 20
81.3579706949
 30
0.0
 11
384.9034285714
 21
81.3579706949
 31
0.0
  0
LINE
  5
7E
330
75
100
AcDbEntity
  8
EBENE_1
100
AcDbLine
 10
374.9034285714
 20
91.3579706949
 30
0.0
 11
384.9034285714
 21
91.3579706949
 31
0.0
  0
LINE
  5
7F
330
75
100
AcDbEntity
  8
EBENE_1
100
AcDbLine
 10
374.9034285714
 20
101.3579706949
 30
0.0
 11
384.9034285714
 21
101.3579706949
 31
0.0
  0
LINE
  5
80
330
75
100
AcDbEntity
  8
EBENE_1
100
AcDbLine
 10
374.9034285714
 20
111.3579706949
 30
0.0
 11
384.9034285714
 21
111.3579706949
 31
0.0
  0
LINE
  5
81
330
75
100
AcDbEntity
  8
EBENE_1
100
AcDbLine
 10
374.9034285714
 20
121.3579706949
 30
0.0
 11
384.9034285714
 21
121.3579706949
 31
0.0
  0
LINE
  5
82
330
75
100
AcDbEntity
  8
EBENE_1
100
AcDbLine
 10
374.9034285714
 20
131.3579706949
 30
0.0
 11
384.9034285714
 21
131.3579706949
 31
0.0
  0
LINE
  5
83
330
75
100
AcDbEntity
  8
EBENE_1
100
AcDbLine
 10
374.9034285714
 20
141.3579706949
 30
0.0
 11
384.9034285714
 21
141.3579706949
 31
0.0
  0
LINE
  5
84
330
75
100
AcDbEntity
  8
EBENE_1
100
AcDbLine
 10
374.9034285714
 20
151.3579706949
 30
0.0
 11
384.9034285714
 21
151.3579706949
 31
0.0
  0
LINE
  5
85
330
75
100
AcDbEntity
  8
EBENE_1
100
AcDbLine
 10
374.9034285714
 20
161.3579706949
 30
0.0
 11
384.9034285714
 21
161.3579706949
 31
0.0
  0
LINE
  5
86
330
75
100
AcDbEntity
  8
EBENE_1
100
AcDbLine
 10
374.9034285714
 20
171.3579706949
 30
0.0
 11
384.9034285714
 21
171.3579706949
 31
0.0
  0
LINE
  5
87
330
75
100
AcDbEntity
  8
EBENE_1
100
AcDbLine
 10
374.9034285714
 20
66.7579706949
 30
0.0
 11
362.9034285714
 21
66.7579706949
 31
0.0
  0
LINE
  5
88
330
75
100
AcDbEntity
  8
EBENE_1
100
AcDbLine
 10
374.9034285714
 20
92.1579706949
 30
0.0
 11
362.9034285714
 21
92.1579706949
 31
0.0
  0
LINE
  5
89
330
75
100
AcDbEntity
  8
EBENE_1
100
AcDbLine
 10
374.9034285714
 20
117.5579706949
 30
0.0
 11
362.9034285714
 21
117.5579706949
 31
0.0
  0
LINE
  5
8A
330
75
100
AcDbEntity
  8
EBENE_1
100
AcDbLine
 10
374.9034285714
 20
142.9579706949
 30
0.0
 11
362.9034285714
 21
142.9579706949
 31
0.0
  0
LINE
  5
8B
330
75
100
AcDbEntity
  8
EBENE_1
100
AcDbLine
 10
374.9034285714
 20
168.3579706949
 30
0.0
 11
362.9034285714
 21
168.3579706949
 31
0.0
  0
INSERT
  5
98
330
75
100
AcDbEntity
  8
EBENE_1
100
AcDbBlockReference
  2
SW_BLOCK_DIMENSION_0
 10
397.2096946378
 20
38.9914197296
 30
0.0
  0
INSERT
  5
A0
330
75
100
AcDbEntity
  8
EBENE_1
100
AcDbBlockReference
  2
SW_BLOCK_DIMENSION_1
 10
397.2096946378
 20
48.9914197296
 30
0.0
  0
INSERT
  5
A8
330
75
100
AcDbEntity
  8
EBENE_1
100
AcDbBlockReference
  2
SW_BLOCK_DIMENSION_2
 10
397.2096946378
 20
58.9914197296
 30
0.0
  0
INSERT
  5
B0
330
75
100
AcDbEntity
  8
EBENE_1
100
AcDbBlockReference
  2
SW_BLOCK_DIMENSION_3
 10
397.2096946378
 20
68.9914197296
 30
0.0
  0
INSERT
  5
B8
330
75
100
AcDbEntity
  8
EBENE_1
100
AcDbBlockReference
  2
SW_BLOCK_DIMENSION_4
 10
397.2096946378
 20
78.9914197296
 30
0.0
  0
INSERT
  5
C0
330
75
100
AcDbEntity
  8
EBENE_1
100
AcDbBlockReference
  2
SW_BLOCK_DIMENSION_5
 10
397.2096946378
 20
88.9914197296
 30
0.0
  0
INSERT
  5
C8
330
75
100
AcDbEntity
  8
EBENE_1
100
AcDbBlockReference
  2
SW_BLOCK_DIMENSION_6
 10
397.2096946378
 20
98.9914197296
 30
0.0
  0
INSERT
  5
D0
330
75
100
AcDbEntity
  8
EBENE_1
100
AcDbBlockReference
  2
SW_BLOCK_DIMENSION_7
 10
397.2096946378
 20
108.9914197296
 30
0.0
  0
INSERT
  5
D8
330
75
100
AcDbEntity
  8
EBENE_1
100
AcDbBlockReference
  2
SW_BLOCK_DIMENSION_8
 10
397.2096946378
 20
118.9914197296
 30
0.0
  0
INSERT
  5
E0
330
75
100
AcDbEntity
  8
EBENE_1
100
AcDbBlockReference
  2
SW_BLOCK_DIMENSION_9
 10
397.2096946378
 20
128.9914197296
 30
0.0
  0
INSERT
  5
E8
330
75
100
AcDbEntity
  8
EBENE_1
100
AcDbBlockReference
  2
SW_BLOCK_DIMENSION_10
 10
397.2096946378
 20
138.9914197296
 30
0.0
  0
INSERT
  5
F0
330
75
100
AcDbEntity
  8
EBENE_1
100
AcDbBlockReference
  2
SW_BLOCK_DIMENSION_11
 10
397.2096946378
 20
148.9914197296
 30
0.0
  0
INSERT
  5
F8
330
75
100
AcDbEntity
  8
EBENE_1
100
AcDbBlockReference
  2
SW_BLOCK_DIMENSION_12
 10
397.2096946378
 20
158.9914197296
 30
0.0
  0
INSERT
  5
100
330
75
100
AcDbEntity
  8
EBENE_1
100
AcDbBlockReference
  2
SW_BLOCK_DIMENSION_13
 10
397.2096946378
 20
168.9914197296
 30
0.0
  0
INSERT
  5
110
330
75
100
AcDbEntity
  8
EBENE_1
100
AcDbBlockReference
  2
SW_BLOCK_DIMENSION_14
 10
337.2987953614
 20
36.1691980072
 30
0.0
  0
INSERT
  5
121
330
75
100
AcDbEntity
  8
EBENE_1
100
AcDbBlockReference
  2
SW_BLOCK_DIMENSION_15
 10
337.2987953614
 20
61.5691980072
 30
0.0
  0
INSERT
  5
132
330
75
100
AcDbEntity
  8
EBENE_1
100
AcDbBlockReference
  2
SW_BLOCK_DIMENSION_16
 10
337.2987953614
 20
86.9691980072
 30
0.0
  0
INSERT
  5
143
330
75
100
AcDbEntity
  8
EBENE_1
100
AcDbBlockReference
  2
SW_BLOCK_DIMENSION_17
 10
337.2987953614
 20
112.3691980072
 30
0.0
  0
INSERT
  5
154
330
75
100
AcDbEntity
  8
EBENE_1
100
AcDbBlockReference
  2
SW_BLOCK_DIMENSION_18
 10
336.8284243759
 20
137.7691980072
 30
0.0
  0
INSERT
  5
165
330
75
100
AcDbEntity
  8
EBENE_1
100
AcDbBlockReference
  2
SW_BLOCK_DIMENSION_19
 10
337.2987953614
 20
163.1691980072
 30
0.0
  0
INSERT
  5
16B
330
75
100
AcDbEntity
  8
EBENE_1
 62
   179
100
AcDbBlockReference
  2
SW_NOTE_0
 10
337.5586028241
 20
28.8175207347
 30
0.0
  0
MTEXT
  5
16C
330
75
100
AcDbEntity
  8
EBENE_1
100
AcDbMText
 10
393.160738319
 20
33.5924424874
 30
0.0
 40
3.7041666667
 41
0.0
 71
     1
 72
     1
  1
mm
  7
SLDTEXTSTYLE0
 73
     1
 44
1.0
  0
ENDBLK
  5
77
330
75
100
AcDbEntity
  8
0
100
AcDbBlockEnd
  0
BLOCK
  5
8D
330
8C
100
AcDbEntity
  8
0
100
AcDbBlockBegin
  2
SW_BLOCK_DIMENSION_0
 70
     0
 10
0.0
 20
0.0
 30
0.0
  3
SW_BLOCK_DIMENSION_0
  1

  0
INSERT
  5
94
330
8C
100
AcDbEntity
  8
EBENE_1
 62
     0
100
AcDbBlockReference
  2
_ORIGIN
 10
-1.5805038061
 20
2.3665509652
 30
0.0
 41
0.9483022837
 42
0.9483022837
 50
0.0
  0
LINE
  5
95
330
8C
100
AcDbEntity
  8
EBENE_1
 62
     0
100
AcDbLine
 10
-6.5262660664
 20
2.3665509652
 30
0.0
 11
0.0
 21
2.3665509652
 31
0.0
  0
MTEXT
  5
97
330
8C
100
AcDbEntity
  8
EBENE_1
 62
     0
100
AcDbMText
 10
0.0
 20
4.0927900738
 30
0.0
 40
3.175
 41
0.0
 71
     1
 72
     1
  1
0
  7
SLDTEXTSTYLE0
 73
     1
 44
1.0
  0
ENDBLK
  5
8E
330
8C
100
AcDbEntity
  8
0
100
AcDbBlockEnd
  0
BLOCK
  5
90
330
8F
100
AcDbEntity
  8
0
100
AcDbBlockBegin
  2
_ORIGIN
 70
     0
 10
0.0
 20
0.0
 30
0.0
  3
_ORIGIN
  1

  0
CIRCLE
  5
92
330
8F
100
AcDbEntity
  8
0
  6
ByBlock
 62
     0
370
    -2
100
AcDbCircle
 10
0.0
 20
0.0
 30
0.0
 40
0.5
  0
LINE
  5
93
330
8F
100
AcDbEntity
  8
0
  6
ByBlock
 62
     0
370
    -2
100
AcDbLine
 10
0.0
 20
0.0
 30
0.0
 11
-1.0
 21
0.0
 31
0.0
  0
ENDBLK
  5
91
330
8F
100
AcDbEntity
  8
0
100
AcDbBlockEnd
  0
BLOCK
  5
9A
330
99
100
AcDbEntity
  8
0
100
AcDbBlockBegin
  2
SW_BLOCK_DIMENSION_1
 70
     0
 10
0.0
 20
0.0
 30
0.0
  3
SW_BLOCK_DIMENSION_1
  1

  0
SOLID
  5
9C
330
99
100
AcDbEntity
  8
EBENE_1
 62
     0
100
AcDbTrace
 10
-1.5805038061
 20
2.3665509652
 30
0.0
 11
-2.0546549479
 21
-0.7154314566
 31
0.0
 12
-1.1063526643
 22
-0.7154314566
 32
0.0
 13
-1.1063526643
 23
-0.7154314566
 33
0.0
  0
LINE
  5
9D
330
99
100
AcDbEntity
  8
EBENE_1
 62
     0
100
AcDbLine
 10
-10.3062660664
 20
2.3665509652
 30
0.0
 11
0.0
 21
2.3665509652
 31
0.0
  0
LINE
  5
9E
330
99
100
AcDbEntity
  8
EBENE_1
 62
     0
100
AcDbLine
 10
-1.5805038061
 20
-7.6334490348
 30
0.0
 11
-1.5805038061
 21
2.3665509652
 31
0.0
  0
MTEXT
  5
9F
330
99
100
AcDbEntity
  8
EBENE_1
 62
     0
100
AcDbMText
 10
0.0
 20
4.0927900738
 30
0.0
 40
3.175
 41
0.0
 71
     1
 72
     1
  1
10
  7
SLDTEXTSTYLE0
 73
     1
 44
1.0
  0
ENDBLK
  5
9B
330
99
100
AcDbEntity
  8
0
100
AcDbBlockEnd
  0
BLOCK
  5
A2
330
A1
100
AcDbEntity
  8
0
100
AcDbBlockBegin
  2
SW_BLOCK_DIMENSION_2
 70
     0
 10
0.0
 20
0.0
 30
0.0
  3
SW_BLOCK_DIMENSION_2
  1

  0
SOLID
  5
A4
330
A1
100
AcDbEntity
  8
EBENE_1
 62
     0
100
AcDbTrace
 10
-1.5805038061
 20
2.3665509652
 30
0.0
 11
-2.0546549479
 21
-0.7154314566
 31
0.0
 12
-1.1063526643
 22
-0.7154314566
 32
0.0
 13
-1.1063526643
 23
-0.7154314566
 33
0.0
  0
LINE
  5
A5
330
A1
100
AcDbEntity
  8
EBENE_1
 62
     0
100
AcDbLine
 10
-10.3062660664
 20
2.3665509652
 30
0.0
 11
0.0
 21
2.3665509652
 31
0.0
  0
LINE
  5
A6
330
A1
100
AcDbEntity
  8
EBENE_1
 62
     0
100
AcDbLine
 10
-1.5805038061
 20
-7.6334490348
 30
0.0
 11
-1.5805038061
 21
2.3665509652
 31
0.0
  0
MTEXT
  5
A7
330
A1
100
AcDbEntity
  8
EBENE_1
 62
     0
100
AcDbMText
 10
0.0
 20
4.0927900738
 30
0.0
 40
3.175
 41
0.0
 71
     1
 72
     1
  1
20
  7
SLDTEXTSTYLE0
 73
     1
 44
1.0
  0
ENDBLK
  5
A3
330
A1
100
AcDbEntity
  8
0
100
AcDbBlockEnd
  0
BLOCK
  5
AA
330
A9
100
AcDbEntity
  8
0
100
AcDbBlockBegin
  2
SW_BLOCK_DIMENSION_3
 70
     0
 10
0.0
 20
0.0
 30
0.0
  3
SW_BLOCK_DIMENSION_3
  1

  0
SOLID
  5
AC
330
A9
100
AcDbEntity
  8
EBENE_1
 62
     0
100
AcDbTrace
 10
-1.5805038061
 20
2.3665509652
 30
0.0
 11
-2.0546549479
 21
-0.7154314566
 31
0.0
 12
-1.1063526643
 22
-0.7154314566
 32
0.0
 13
-1.1063526643
 23
-0.7154314566
 33
0.0
  0
LINE
  5
AD
330
A9
100
AcDbEntity
  8
EBENE_1
 62
     0
100
AcDbLine
 10
-10.3062660664
 20
2.3665509652
 30
0.0
 11
0.0
 21
2.3665509652
 31
0.0
  0
LINE
  5
AE
330
A9
100
AcDbEntity
  8
EBENE_1
 62
     0
100
AcDbLine
 10
-1.5805038061
 20
-7.6334490348
 30
0.0
 11
-1.5805038061
 21
2.3665509652
 31
0.0
  0
MTEXT
  5
AF
330
A9
100
AcDbEntity
  8
EBENE_1
 62
     0
100
AcDbMText
 10
0.0
 20
4.0927900738
 30
0.0
 40
3.175
 41
0.0
 71
     1
 72
     1
  1
30
  7
SLDTEXTSTYLE0
 73
     1
 44
1.0
  0
ENDBLK
  5
AB
330
A9
100
AcDbEntity
  8
0
100
AcDbBlockEnd
  0
BLOCK
  5
B2
330
B1
100
AcDbEntity
  8
0
100
AcDbBlockBegin
  2
SW_BLOCK_DIMENSION_4
 70
     0
 10
0.0
 20
0.0
 30
0.0
  3
SW_BLOCK_DIMENSION_4
  1

  0
SOLID
  5
B4
330
B1
100
AcDbEntity
  8
EBENE_1
 62
     0
100
AcDbTrace
 10
-1.5805038061
 20
2.3665509652
 30
0.0
 11
-2.0546549479
 21
-0.7154314566
 31
0.0
 12
-1.1063526643
 22
-0.7154314566
 32
0.0
 13
-1.1063526643
 23
-0.7154314566
 33
0.0
  0
LINE
  5
B5
330
B1
100
AcDbEntity
  8
EBENE_1
 62
     0
100
AcDbLine
 10
-10.3062660664
 20
2.3665509652
 30
0.0
 11
0.0
 21
2.3665509652
 31
0.0
  0
LINE
  5
B6
330
B1
100
AcDbEntity
  8
EBENE_1
 62
     0
100
AcDbLine
 10
-1.5805038061
 20
-7.6334490348
 30
0.0
 11
-1.5805038061
 21
2.3665509652
 31
0.0
  0
MTEXT
  5
B7
330
B1
100
AcDbEntity
  8
EBENE_1
 62
     0
100
AcDbMText
 10
0.0
 20
4.0927900738
 30
0.0
 40
3.175
 41
0.0
 71
     1
 72
     1
  1
40
  7
SLDTEXTSTYLE0
 73
     1
 44
1.0
  0
ENDBLK
  5
B3
330
B1
100
AcDbEntity
  8
0
100
AcDbBlockEnd
  0
BLOCK
  5
BA
330
B9
100
AcDbEntity
  8
0
100
AcDbBlockBegin
  2
SW_BLOCK_DIMENSION_5
 70
     0
 10
0.0
 20
0.0
 30
0.0
  3
SW_BLOCK_DIMENSION_5
  1

  0
SOLID
  5
BC
330
B9
100
AcDbEntity
  8
EBENE_1
 62
     0
100
AcDbTrace
 10
-1.5805038061
 20
2.3665509652
 30
0.0
 11
-2.0546549479
 21
-0.7154314566
 31
0.0
 12
-1.1063526643
 22
-0.7154314566
 32
0.0
 13
-1.1063526643
 23
-0.7154314566
 33
0.0
  0
LINE
  5
BD
330
B9
100
AcDbEntity
  8
EBENE_1
 62
     0
100
AcDbLine
 10
-10.3062660664
 20
2.3665509652
 30
0.0
 11
0.0
 21
2.3665509652
 31
0.0
  0
LINE
  5
BE
330
B9
100
AcDbEntity
  8
EBENE_1
 62
     0
100
AcDbLine
 10
-1.5805038061
 20
-7.6334490348
 30
0.0
 11
-1.5805038061
 21
2.3665509652
 31
0.0
  0
MTEXT
  5
BF
330
B9
100
AcDbEntity
  8
EBENE_1
 62
     0
100
AcDbMText
 10
0.0
 20
4.0927900738
 30
0.0
 40
3.175
 41
0.0
 71
     1
 72
     1
  1
50
  7
SLDTEXTSTYLE0
 73
     1
 44
1.0
  0
ENDBLK
  5
BB
330
B9
100
AcDbEntity
  8
0
100
AcDbBlockEnd
  0
BLOCK
  5
C2
330
C1
100
AcDbEntity
  8
0
100
AcDbBlockBegin
  2
SW_BLOCK_DIMENSION_6
 70
     0
 10
0.0
 20
0.0
 30
0.0
  3
SW_BLOCK_DIMENSION_6
  1

  0
SOLID
  5
C4
330
C1
100
AcDbEntity
  8
EBENE_1
 62
     0
100
AcDbTrace
 10
-1.5805038061
 20
2.3665509652
 30
0.0
 11
-2.0546549479
 21
-0.7154314566
 31
0.0
 12
-1.1063526643
 22
-0.7154314566
 32
0.0
 13
-1.1063526643
 23
-0.7154314566
 33
0.0
  0
LINE
  5
C5
330
C1
100
AcDbEntity
  8
EBENE_1
 62
     0
100
AcDbLine
 10
-10.3062660664
 20
2.3665509652
 30
0.0
 11
0.0
 21
2.3665509652
 31
0.0
  0
LINE
  5
C6
330
C1
100
AcDbEntity
  8
EBENE_1
 62
     0
100
AcDbLine
 10
-1.5805038061
 20
-7.6334490348
 30
0.0
 11
-1.5805038061
 21
2.3665509652
 31
0.0
  0
MTEXT
  5
C7
330
C1
100
AcDbEntity
  8
EBENE_1
 62
     0
100
AcDbMText
 10
0.0
 20
4.0927900738
 30
0.0
 40
3.175
 41
0.0
 71
     1
 72
     1
  1
60
  7
SLDTEXTSTYLE0
 73
     1
 44
1.0
  0
ENDBLK
  5
C3
330
C1
100
AcDbEntity
  8
0
100
AcDbBlockEnd
  0
BLOCK
  5
CA
330
C9
100
AcDbEntity
  8
0
100
AcDbBlockBegin
  2
SW_BLOCK_DIMENSION_7
 70
     0
 10
0.0
 20
0.0
 30
0.0
  3
SW_BLOCK_DIMENSION_7
  1

  0
SOLID
  5
CC
330
C9
100
AcDbEntity
  8
EBENE_1
 62
     0
100
AcDbTrace
 10
-1.5805038061
 20
2.3665509652
 30
0.0
 11
-2.0546549479
 21
-0.7154314566
 31
0.0
 12
-1.1063526643
 22
-0.7154314566
 32
0.0
 13
-1.1063526643
 23
-0.7154314566
 33
0.0
  0
LINE
  5
CD
330
C9
100
AcDbEntity
  8
EBENE_1
 62
     0
100
AcDbLine
 10
-10.3062660664
 20
2.3665509652
 30
0.0
 11
0.0
 21
2.3665509652
 31
0.0
  0
LINE
  5
CE
330
C9
100
AcDbEntity
  8
EBENE_1
 62
     0
100
AcDbLine
 10
-1.5805038061
 20
-7.6334490348
 30
0.0
 11
-1.5805038061
 21
2.3665509652
 31
0.0
  0
MTEXT
  5
CF
330
C9
100
AcDbEntity
  8
EBENE_1
 62
     0
100
AcDbMText
 10
0.0
 20
4.0927900738
 30
0.0
 40
3.175
 41
0.0
 71
     1
 72
     1
  1
70
  7
SLDTEXTSTYLE0
 73
     1
 44
1.0
  0
ENDBLK
  5
CB
330
C9
100
AcDbEntity
  8
0
100
AcDbBlockEnd
  0
BLOCK
  5
D2
330
D1
100
AcDbEntity
  8
0
100
AcDbBlockBegin
  2
SW_BLOCK_DIMENSION_8
 70
     0
 10
0.0
 20
0.0
 30
0.0
  3
SW_BLOCK_DIMENSION_8
  1

  0
SOLID
  5
D4
330
D1
100
AcDbEntity
  8
EBENE_1
 62
     0
100
AcDbTrace
 10
-1.5805038061
 20
2.3665509652
 30
0.0
 11
-2.0546549479
 21
-0.7154314566
 31
0.0
 12
-1.1063526643
 22
-0.7154314566
 32
0.0
 13
-1.1063526643
 23
-0.7154314566
 33
0.0
  0
LINE
  5
D5
330
D1
100
AcDbEntity
  8
EBENE_1
 62
     0
100
AcDbLine
 10
-10.3062660664
 20
2.3665509652
 30
0.0
 11
0.0
 21
2.3665509652
 31
0.0
  0
LINE
  5
D6
330
D1
100
AcDbEntity
  8
EBENE_1
 62
     0
100
AcDbLine
 10
-1.5805038061
 20
-7.6334490348
 30
0.0
 11
-1.5805038061
 21
2.3665509652
 31
0.0
  0
MTEXT
  5
D7
330
D1
100
AcDbEntity
  8
EBENE_1
 62
     0
100
AcDbMText
 10
0.0
 20
4.0927900738
 30
0.0
 40
3.175
 41
0.0
 71
     1
 72
     1
  1
80
  7
SLDTEXTSTYLE0
 73
     1
 44
1.0
  0
ENDBLK
  5
D3
330
D1
100
AcDbEntity
  8
0
100
AcDbBlockEnd
  0
BLOCK
  5
DA
330
D9
100
AcDbEntity
  8
0
100
AcDbBlockBegin
  2
SW_BLOCK_DIMENSION_9
 70
     0
 10
0.0
 20
0.0
 30
0.0
  3
SW_BLOCK_DIMENSION_9
  1

  0
SOLID
  5
DC
330
D9
100
AcDbEntity
  8
EBENE_1
 62
     0
100
AcDbTrace
 10
-1.5805038061
 20
2.3665509652
 30
0.0
 11
-2.0546549479
 21
-0.7154314566
 31
0.0
 12
-1.1063526643
 22
-0.7154314566
 32
0.0
 13
-1.1063526643
 23
-0.7154314566
 33
0.0
  0
LINE
  5
DD
330
D9
100
AcDbEntity
  8
EBENE_1
 62
     0
100
AcDbLine
 10
-10.3062660664
 20
2.3665509652
 30
0.0
 11
0.0
 21
2.3665509652
 31
0.0
  0
LINE
  5
DE
330
D9
100
AcDbEntity
  8
EBENE_1
 62
     0
100
AcDbLine
 10
-1.5805038061
 20
-7.6334490348
 30
0.0
 11
-1.5805038061
 21
2.3665509652
 31
0.0
  0
MTEXT
  5
DF
330
D9
100
AcDbEntity
  8
EBENE_1
 62
     0
100
AcDbMText
 10
0.0
 20
4.0927900738
 30
0.0
 40
3.175
 41
0.0
 71
     1
 72
     1
  1
90
  7
SLDTEXTSTYLE0
 73
     1
 44
1.0
  0
ENDBLK
  5
DB
330
D9
100
AcDbEntity
  8
0
100
AcDbBlockEnd
  0
BLOCK
  5
E2
330
E1
100
AcDbEntity
  8
0
100
AcDbBlockBegin
  2
SW_BLOCK_DIMENSION_10
 70
     0
 10
0.0
 20
0.0
 30
0.0
  3
SW_BLOCK_DIMENSION_10
  1

  0
SOLID
  5
E4
330
E1
100
AcDbEntity
  8
EBENE_1
 62
     0
100
AcDbTrace
 10
-1.5805038061
 20
2.3665509652
 30
0.0
 11
-2.0546549479
 21
-0.7154314566
 31
0.0
 12
-1.1063526643
 22
-0.7154314566
 32
0.0
 13
-1.1063526643
 23
-0.7154314566
 33
0.0
  0
LINE
  5
E5
330
E1
100
AcDbEntity
  8
EBENE_1
 62
     0
100
AcDbLine
 10
-10.3062660664
 20
2.3665509652
 30
0.0
 11
0.0
 21
2.3665509652
 31
0.0
  0
LINE
  5
E6
330
E1
100
AcDbEntity
  8
EBENE_1
 62
     0
100
AcDbLine
 10
-1.5805038061
 20
-7.6334490348
 30
0.0
 11
-1.5805038061
 21
2.3665509652
 31
0.0
  0
MTEXT
  5
E7
330
E1
100
AcDbEntity
  8
EBENE_1
 62
     0
100
AcDbMText
 10
0.0
 20
4.0927900738
 30
0.0
 40
3.175
 41
0.0
 71
     1
 72
     1
  1
100
  7
SLDTEXTSTYLE0
 73
     1
 44
1.0
  0
ENDBLK
  5
E3
330
E1
100
AcDbEntity
  8
0
100
AcDbBlockEnd
  0
BLOCK
  5
EA
330
E9
100
AcDbEntity
  8
0
100
AcDbBlockBegin
  2
SW_BLOCK_DIMENSION_11
 70
     0
 10
0.0
 20
0.0
 30
0.0
  3
SW_BLOCK_DIMENSION_11
  1

  0
SOLID
  5
EC
330
E9
100
AcDbEntity
  8
EBENE_1
 62
     0
100
AcDbTrace
 10
-1.5805038061
 20
2.3665509652
 30
0.0
 11
-2.0546549479
 21
-0.7154314566
 31
0.0
 12
-1.1063526643
 22
-0.7154314566
 32
0.0
 13
-1.1063526643
 23
-0.7154314566
 33
0.0
  0
LINE
  5
ED
330
E9
100
AcDbEntity
  8
EBENE_1
 62
     0
100
AcDbLine
 10
-10.3062660664
 20
2.3665509652
 30
0.0
 11
0.0
 21
2.3665509652
 31
0.0
  0
LINE
  5
EE
330
E9
100
AcDbEntity
  8
EBENE_1
 62
     0
100
AcDbLine
 10
-1.5805038061
 20
-7.6334490348
 30
0.0
 11
-1.5805038061
 21
2.3665509652
 31
0.0
  0
MTEXT
  5
EF
330
E9
100
AcDbEntity
  8
EBENE_1
 62
     0
100
AcDbMText
 10
0.0
 20
4.0927900738
 30
0.0
 40
3.175
 41
0.0
 71
     1
 72
     1
  1
110
  7
SLDTEXTSTYLE0
 73
     1
 44
1.0
  0
ENDBLK
  5
EB
330
E9
100
AcDbEntity
  8
0
100
AcDbBlockEnd
  0
BLOCK
  5
F2
330
F1
100
AcDbEntity
  8
0
100
AcDbBlockBegin
  2
SW_BLOCK_DIMENSION_12
 70
     0
 10
0.0
 20
0.0
 30
0.0
  3
SW_BLOCK_DIMENSION_12
  1

  0
SOLID
  5
F4
330
F1
100
AcDbEntity
  8
EBENE_1
 62
     0
100
AcDbTrace
 10
-1.5805038061
 20
2.3665509652
 30
0.0
 11
-2.0546549479
 21
-0.7154314566
 31
0.0
 12
-1.1063526643
 22
-0.7154314566
 32
0.0
 13
-1.1063526643
 23
-0.7154314566
 33
0.0
  0
LINE
  5
F5
330
F1
100
AcDbEntity
  8
EBENE_1
 62
     0
100
AcDbLine
 10
-10.3062660664
 20
2.3665509652
 30
0.0
 11
0.0
 21
2.3665509652
 31
0.0
  0
LINE
  5
F6
330
F1
100
AcDbEntity
  8
EBENE_1
 62
     0
100
AcDbLine
 10
-1.5805038061
 20
-7.6334490348
 30
0.0
 11
-1.5805038061
 21
2.3665509652
 31
0.0
  0
MTEXT
  5
F7
330
F1
100
AcDbEntity
  8
EBENE_1
 62
     0
100
AcDbMText
 10
0.0
 20
4.0927900738
 30
0.0
 40
3.175
 41
0.0
 71
     1
 72
     1
  1
120
  7
SLDTEXTSTYLE0
 73
     1
 44
1.0
  0
ENDBLK
  5
F3
330
F1
100
AcDbEntity
  8
0
100
AcDbBlockEnd
  0
BLOCK
  5
FA
330
F9
100
AcDbEntity
  8
0
100
AcDbBlockBegin
  2
SW_BLOCK_DIMENSION_13
 70
     0
 10
0.0
 20
0.0
 30
0.0
  3
SW_BLOCK_DIMENSION_13
  1

  0
SOLID
  5
FC
330
F9
100
AcDbEntity
  8
EBENE_1
 62
     0
100
AcDbTrace
 10
-1.5805038061
 20
2.3665509652
 30
0.0
 11
-2.0546549479
 21
-0.7154314566
 31
0.0
 12
-1.1063526643
 22
-0.7154314566
 32
0.0
 13
-1.1063526643
 23
-0.7154314566
 33
0.0
  0
LINE
  5
FD
330
F9
100
AcDbEntity
  8
EBENE_1
 62
     0
100
AcDbLine
 10
-10.3062660664
 20
2.3665509652
 30
0.0
 11
0.0
 21
2.3665509652
 31
0.0
  0
LINE
  5
FE
330
F9
100
AcDbEntity
  8
EBENE_1
 62
     0
100
AcDbLine
 10
-1.5805038061
 20
-7.6334490348
 30
0.0
 11
-1.5805038061
 21
2.3665509652
 31
0.0
  0
MTEXT
  5
FF
330
F9
100
AcDbEntity
  8
EBENE_1
 62
     0
100
AcDbMText
 10
0.0
 20
4.0927900738
 30
0.0
 40
3.175
 41
0.0
 71
     1
 72
     1
  1
130
  7
SLDTEXTSTYLE0
 73
     1
 44
1.0
  0
ENDBLK
  5
FB
330
F9
100
AcDbEntity
  8
0
100
AcDbBlockEnd
  0
BLOCK
  5
102
330
101
100
AcDbEntity
  8
0
100
AcDbBlockBegin
  2
SW_BLOCK_DIMENSION_14
 70
     0
 10
0.0
 20
0.0
 30
0.0
  3
SW_BLOCK_DIMENSION_14
  1

  0
INSERT
  5
104
330
101
100
AcDbEntity
  8
EBENE_1
 62
     0
100
AcDbBlockReference
  2
_ORIGIN
 10
16.3971707594
 20
5.1887726877
 30
0.0
 41
0.9483022837
 42
0.9483022837
 50
0.0
  0
LINE
  5
105
330
101
100
AcDbEntity
  8
EBENE_1
 62
     0
100
AcDbLine
 10
3.2925925916
 20
9.671990294
 30
0.0
 11
2.2342592711
 21
9.671990294
 31
0.0
  0
LINE
  5
106
330
101
100
AcDbEntity
  8
EBENE_1
 62
     0
100
AcDbLine
 10
2.2342592711
 20
9.671990294
 30
0.0
 11
2.2342592711
 21
4.9388883635
 31
0.0
  0
LINE
  5
107
330
101
100
AcDbEntity
  8
EBENE_1
 62
     0
100
AcDbLine
 10
2.2342592711
 20
4.9388883635
 30
0.0
 11
3.2925925916
 21
4.9388883635
 31
0.0
  0
LINE
  5
108
330
101
100
AcDbEntity
  8
EBENE_1
 62
     0
100
AcDbLine
 10
11.5240741288
 20
9.671990294
 30
0.0
 11
12.5824074494
 21
9.671990294
 31
0.0
  0
LINE
  5
109
330
101
100
AcDbEntity
  8
EBENE_1
 62
     0
100
AcDbLine
 10
12.5824074494
 20
9.671990294
 30
0.0
 11
12.5824074494
 21
4.9388883635
 31
0.0
  0
LINE
  5
10A
330
101
100
AcDbEntity
  8
EBENE_1
 62
     0
100
AcDbLine
 10
12.5824074494
 20
4.9388883635
 30
0.0
 11
11.5240741288
 21
4.9388883635
 31
0.0
  0
LINE
  5
10B
330
101
100
AcDbEntity
  8
EBENE_1
 62
     0
100
AcDbLine
 10
24.38463321
 20
5.1887726877
 30
0.0
 11
14.8166669533
 21
5.1887726877
 31
0.0
  0
MTEXT
  5
10C
330
101
100
AcDbEntity
  8
EBENE_1
 62
     0
100
AcDbMText
 10
1.190625
 20
4.0927900738
 30
0.0
 40
3.175
 41
0.0
 71
     1
 72
     1
  1

  7
SLDTEXTSTYLE0
 73
     1
 44
1.0
  0
MTEXT
  5
10D
330
101
100
AcDbEntity
  8
EBENE_1
 62
     0
100
AcDbMText
 10
3.2925925916
 20
9.0316784373
 30
0.0
 40
3.175
 41
0.0
 71
     1
 72
     1
  1
0,00
  7
SLDTEXTSTYLE0
 73
     1
 44
1.0
  0
MTEXT
  5
10E
330
101
100
AcDbEntity
  8
EBENE_1
 62
     0
100
AcDbMText
 10
6.2324074097
 20
4.0927898409
 30
0.0
 40
3.175
 41
0.0
 71
     1
 72
     1
  1
0
  7
SLDTEXTSTYLE0
 73
     1
 44
1.0
  0
MTEXT
  5
10F
330
101
100
AcDbEntity
  8
EBENE_1
 62
     0
100
AcDbMText
 10
14.8313658863
 20
4.0927900738
 30
0.0
 40
3.175
 41
0.0
 71
     1
 72
     1
  1

  7
SLDTEXTSTYLE0
 73
     1
 44
1.0
  0
ENDBLK
  5
103
330
101
100
AcDbEntity
  8
0
100
AcDbBlockEnd
  0
BLOCK
  5
112
330
111
100
AcDbEntity
  8
0
100
AcDbBlockBegin
  2
SW_BLOCK_DIMENSION_15
 70
     0
 10
0.0
 20
0.0
 30
0.0
  3
SW_BLOCK_DIMENSION_15
  1

  0
SOLID
  5
114
330
111
100
AcDbEntity
  8
EBENE_1
 62
     0
100
AcDbTrace
 10
16.3971707594
 20
5.1887726877
 30
0.0
 11
15.9230196175
 21
2.1067902658
 31
0.0
 12
16.8713219012
 22
2.1067902658
 32
0.0
 13
16.8713219012
 23
2.1067902658
 33
0.0
  0
LINE
  5
115
330
111
100
AcDbEntity
  8
EBENE_1
 62
     0
100
AcDbLine
 10
3.2925925916
 20
9.671990294
 30
0.0
 11
2.2342592711
 21
9.671990294
 31
0.0
  0
LINE
  5
116
330
111
100
AcDbEntity
  8
EBENE_1
 62
     0
100
AcDbLine
 10
2.2342592711
 20
9.671990294
 30
0.0
 11
2.2342592711
 21
4.9388883635
 31
0.0
  0
LINE
  5
117
330
111
100
AcDbEntity
  8
EBENE_1
 62
     0
100
AcDbLine
 10
2.2342592711
 20
4.9388883635
 30
0.0
 11
3.2925925916
 21
4.9388883635
 31
0.0
  0
LINE
  5
118
330
111
100
AcDbEntity
  8
EBENE_1
 62
     0
100
AcDbLine
 10
11.5240741288
 20
9.671990294
 30
0.0
 11
12.5824074494
 21
9.671990294
 31
0.0
  0
LINE
  5
119
330
111
100
AcDbEntity
  8
EBENE_1
 62
     0
100
AcDbLine
 10
12.5824074494
 20
9.671990294
 30
0.0
 11
12.5824074494
 21
4.9388883635
 31
0.0
  0
LINE
  5
11A
330
111
100
AcDbEntity
  8
EBENE_1
 62
     0
100
AcDbLine
 10
12.5824074494
 20
4.9388883635
 30
0.0
 11
11.5240741288
 21
4.9388883635
 31
0.0
  0
LINE
  5
11B
330
111
100
AcDbEntity
  8
EBENE_1
 62
     0
100
AcDbLine
 10
23.60463321
 20
5.1887726877
 30
0.0
 11
14.8166669533
 21
5.1887726877
 31
0.0
  0
LINE
  5
11C
330
111
100
AcDbEntity
  8
EBENE_1
 62
     0
100
AcDbLine
 10
16.3971707594
 20
-20.2112273123
 30
0.0
 11
16.3971707594
 21
5.1887726877
 31
0.0
  0
MTEXT
  5
11D
330
111
100
AcDbEntity
  8
EBENE_1
 62
     0
100
AcDbMText
 10
1.190625
 20
4.0927900738
 30
0.0
 40
3.175
 41
0.0
 71
     1
 72
     1
  1

  7
SLDTEXTSTYLE0
 73
     1
 44
1.0
  0
MTEXT
  5
11E
330
111
100
AcDbEntity
  8
EBENE_1
 62
     0
100
AcDbMText
 10
3.2925925916
 20
9.0316784373
 30
0.0
 40
3.175
 41
0.0
 71
     1
 72
     1
  1
1,00
  7
SLDTEXTSTYLE0
 73
     1
 44
1.0
  0
MTEXT
  5
11F
330
111
100
AcDbEntity
  8
EBENE_1
 62
     0
100
AcDbMText
 10
2.1166665247
 20
4.0927898409
 30
0.0
 40
3.175
 41
0.0
 71
     1
 72
     1
  1
25,40
  7
SLDTEXTSTYLE0
 73
     1
 44
1.0
  0
MTEXT
  5
120
330
111
100
AcDbEntity
  8
EBENE_1
 62
     0
100
AcDbMText
 10
14.8313658863
 20
4.0927900738
 30
0.0
 40
3.175
 41
0.0
 71
     1
 72
     1
  1

  7
SLDTEXTSTYLE0
 73
     1
 44
1.0
  0
ENDBLK
  5
113
330
111
100
AcDbEntity
  8
0
100
AcDbBlockEnd
  0
BLOCK
  5
123
330
122
100
AcDbEntity
  8
0
100
AcDbBlockBegin
  2
SW_BLOCK_DIMENSION_16
 70
     0
 10
0.0
 20
0.0
 30
0.0
  3
SW_BLOCK_DIMENSION_16
  1

  0
SOLID
  5
125
330
122
100
AcDbEntity
  8
EBENE_1
 62
     0
100
AcDbTrace
 10
16.3971707594
 20
5.1887726877
 30
0.0
 11
15.9230196175
 21
2.1067902658
 31
0.0
 12
16.8713219012
 22
2.1067902658
 32
0.0
 13
16.8713219012
 23
2.1067902658
 33
0.0
  0
LINE
  5
126
330
122
100
AcDbEntity
  8
EBENE_1
 62
     0
100
AcDbLine
 10
3.2925925916
 20
9.671990294
 30
0.0
 11
2.2342592711
 21
9.671990294
 31
0.0
  0
LINE
  5
127
330
122
100
AcDbEntity
  8
EBENE_1
 62
     0
100
AcDbLine
 10
2.2342592711
 20
9.671990294
 30
0.0
 11
2.2342592711
 21
4.9388883635
 31
0.0
  0
LINE
  5
128
330
122
100
AcDbEntity
  8
EBENE_1
 62
     0
100
AcDbLine
 10
2.2342592711
 20
4.9388883635
 30
0.0
 11
3.2925925916
 21
4.9388883635
 31
0.0
  0
LINE
  5
129
330
122
100
AcDbEntity
  8
EBENE_1
 62
     0
100
AcDbLine
 10
11.5240741288
 20
9.671990294
 30
0.0
 11
12.5824074494
 21
9.671990294
 31
0.0
  0
LINE
  5
12A
330
122
100
AcDbEntity
  8
EBENE_1
 62
     0
100
AcDbLine
 10
12.5824074494
 20
9.671990294
 30
0.0
 11
12.5824074494
 21
4.9388883635
 31
0.0
  0
LINE
  5
12B
330
122
100
AcDbEntity
  8
EBENE_1
 62
     0
100
AcDbLine
 10
12.5824074494
 20
4.9388883635
 30
0.0
 11
11.5240741288
 21
4.9388883635
 31
0.0
  0
LINE
  5
12C
330
122
100
AcDbEntity
  8
EBENE_1
 62
     0
100
AcDbLine
 10
23.60463321
 20
5.1887726877
 30
0.0
 11
14.8166669533
 21
5.1887726877
 31
0.0
  0
LINE
  5
12D
330
122
100
AcDbEntity
  8
EBENE_1
 62
     0
100
AcDbLine
 10
16.3971707594
 20
-20.2112273123
 30
0.0
 11
16.3971707594
 21
5.1887726877
 31
0.0
  0
MTEXT
  5
12E
330
122
100
AcDbEntity
  8
EBENE_1
 62
     0
100
AcDbMText
 10
1.190625
 20
4.0927900738
 30
0.0
 40
3.175
 41
0.0
 71
     1
 72
     1
  1

  7
SLDTEXTSTYLE0
 73
     1
 44
1.0
  0
MTEXT
  5
12F
330
122
100
AcDbEntity
  8
EBENE_1
 62
     0
100
AcDbMText
 10
3.2925925916
 20
9.0316784373
 30
0.0
 40
3.175
 41
0.0
 71
     1
 72
     1
  1
2,00
  7
SLDTEXTSTYLE0
 73
     1
 44
1.0
  0
MTEXT
  5
130
330
122
100
AcDbEntity
  8
EBENE_1
 62
     0
100
AcDbMText
 10
2.1166665247
 20
4.0927898409
 30
0.0
 40
3.175
 41
0.0
 71
     1
 72
     1
  1
50,80
  7
SLDTEXTSTYLE0
 73
     1
 44
1.0
  0
MTEXT
  5
131
330
122
100
AcDbEntity
  8
EBENE_1
 62
     0
100
AcDbMText
 10
14.8313658863
 20
4.0927900738
 30
0.0
 40
3.175
 41
0.0
 71
     1
 72
     1
  1

  7
SLDTEXTSTYLE0
 73
     1
 44
1.0
  0
ENDBLK
  5
124
330
122
100
AcDbEntity
  8
0
100
AcDbBlockEnd
  0
BLOCK
  5
134
330
133
100
AcDbEntity
  8
0
100
AcDbBlockBegin
  2
SW_BLOCK_DIMENSION_17
 70
     0
 10
0.0
 20
0.0
 30
0.0
  3
SW_BLOCK_DIMENSION_17
  1

  0
SOLID
  5
136
330
133
100
AcDbEntity
  8
EBENE_1
 62
     0
100
AcDbTrace
 10
16.3971707594
 20
5.1887726877
 30
0.0
 11
15.9230196175
 21
2.1067902658
 31
0.0
 12
16.8713219012
 22
2.1067902658
 32
0.0
 13
16.8713219012
 23
2.1067902658
 33
0.0
  0
LINE
  5
137
330
133
100
AcDbEntity
  8
EBENE_1
 62
     0
100
AcDbLine
 10
3.2925925916
 20
9.671990294
 30
0.0
 11
2.2342592711
 21
9.671990294
 31
0.0
  0
LINE
  5
138
330
133
100
AcDbEntity
  8
EBENE_1
 62
     0
100
AcDbLine
 10
2.2342592711
 20
9.671990294
 30
0.0
 11
2.2342592711
 21
4.9388883635
 31
0.0
  0
LINE
  5
139
330
133
100
AcDbEntity
  8
EBENE_1
 62
     0
100
AcDbLine
 10
2.2342592711
 20
4.9388883635
 30
0.0
 11
3.2925925916
 21
4.9388883635
 31
0.0
  0
LINE
  5
13A
330
133
100
AcDbEntity
  8
EBENE_1
 62
     0
100
AcDbLine
 10
11.5240741288
 20
9.671990294
 30
0.0
 11
12.5824074494
 21
9.671990294
 31
0.0
  0
LINE
  5
13B
330
133
100
AcDbEntity
  8
EBENE_1
 62
     0
100
AcDbLine
 10
12.5824074494
 20
9.671990294
 30
0.0
 11
12.5824074494
 21
4.9388883635
 31
0.0
  0
LINE
  5
13C
330
133
100
AcDbEntity
  8
EBENE_1
 62
     0
100
AcDbLine
 10
12.5824074494
 20
4.9388883635
 30
0.0
 11
11.5240741288
 21
4.9388883635
 31
0.0
  0
LINE
  5
13D
330
133
100
AcDbEntity
  8
EBENE_1
 62
     0
100
AcDbLine
 10
23.60463321
 20
5.1887726877
 30
0.0
 11
14.8166669533
 21
5.1887726877
 31
0.0
  0
LINE
  5
13E
330
133
100
AcDbEntity
  8
EBENE_1
 62
     0
100
AcDbLine
 10
16.3971707594
 20
-20.2112273123
 30
0.0
 11
16.3971707594
 21
5.1887726877
 31
0.0
  0
MTEXT
  5
13F
330
133
100
AcDbEntity
  8
EBENE_1
 62
     0
100
AcDbMText
 10
1.190625
 20
4.0927900738
 30
0.0
 40
3.175
 41
0.0
 71
     1
 72
     1
  1

  7
SLDTEXTSTYLE0
 73
     1
 44
1.0
  0
MTEXT
  5
140
330
133
100
AcDbEntity
  8
EBENE_1
 62
     0
100
AcDbMText
 10
3.2925925916
 20
9.0316784373
 30
0.0
 40
3.175
 41
0.0
 71
     1
 72
     1
  1
3,00
  7
SLDTEXTSTYLE0
 73
     1
 44
1.0
  0
MTEXT
  5
141
330
133
100
AcDbEntity
  8
EBENE_1
 62
     0
100
AcDbMText
 10
2.1166665247
 20
4.0927898409
 30
0.0
 40
3.175
 41
0.0
 71
     1
 72
     1
  1
76,20
  7
SLDTEXTSTYLE0
 73
     1
 44
1.0
  0
MTEXT
  5
142
330
133
100
AcDbEntity
  8
EBENE_1
 62
     0
100
AcDbMText
 10
14.8313658863
 20
4.0927900738
 30
0.0
 40
3.175
 41
0.0
 71
     1
 72
     1
  1

  7
SLDTEXTSTYLE0
 73
     1
 44
1.0
  0
ENDBLK
  5
135
330
133
100
AcDbEntity
  8
0
100
AcDbBlockEnd
  0
BLOCK
  5
145
330
144
100
AcDbEntity
  8
0
100
AcDbBlockBegin
  2
SW_BLOCK_DIMENSION_18
 70
     0
 10
0.0
 20
0.0
 30
0.0
  3
SW_BLOCK_DIMENSION_18
  1

  0
SOLID
  5
147
330
144
100
AcDbEntity
  8
EBENE_1
 62
     0
100
AcDbTrace
 10
16.8675417449
 20
5.1887726877
 30
0.0
 11
16.3933906031
 21
2.1067902658
 31
0.0
 12
17.3416928867
 22
2.1067902658
 32
0.0
 13
17.3416928867
 23
2.1067902658
 33
0.0
  0
LINE
  5
148
330
144
100
AcDbEntity
  8
EBENE_1
 62
     0
100
AcDbLine
 10
3.5277780844
 20
9.671990294
 30
0.0
 11
2.4694447638
 21
9.671990294
 31
0.0
  0
LINE
  5
149
330
144
100
AcDbEntity
  8
EBENE_1
 62
     0
100
AcDbLine
 10
2.4694447638
 20
9.671990294
 30
0.0
 11
2.4694447638
 21
4.9388883635
 31
0.0
  0
LINE
  5
14A
330
144
100
AcDbEntity
  8
EBENE_1
 62
     0
100
AcDbLine
 10
2.4694447638
 20
4.9388883635
 30
0.0
 11
3.5277780844
 21
4.9388883635
 31
0.0
  0
LINE
  5
14B
330
144
100
AcDbEntity
  8
EBENE_1
 62
     0
100
AcDbLine
 10
11.7592596216
 20
9.671990294
 30
0.0
 11
12.8175929422
 21
9.671990294
 31
0.0
  0
LINE
  5
14C
330
144
100
AcDbEntity
  8
EBENE_1
 62
     0
100
AcDbLine
 10
12.8175929422
 20
9.671990294
 30
0.0
 11
12.8175929422
 21
4.9388883635
 31
0.0
  0
LINE
  5
14D
330
144
100
AcDbEntity
  8
EBENE_1
 62
     0
100
AcDbLine
 10
12.8175929422
 20
4.9388883635
 30
0.0
 11
11.7592596216
 21
4.9388883635
 31
0.0
  0
LINE
  5
14E
330
144
100
AcDbEntity
  8
EBENE_1
 62
     0
100
AcDbLine
 10
24.0750041956
 20
5.1887726877
 30
0.0
 11
15.2870379388
 21
5.1887726877
 31
0.0
  0
LINE
  5
14F
330
144
100
AcDbEntity
  8
EBENE_1
 62
     0
100
AcDbLine
 10
16.8675417449
 20
-20.2112273123
 30
0.0
 11
16.8675417449
 21
5.1887726877
 31
0.0
  0
MTEXT
  5
150
330
144
100
AcDbEntity
  8
EBENE_1
 62
     0
100
AcDbMText
 10
1.190625
 20
4.0927900738
 30
0.0
 40
3.175
 41
0.0
 71
     1
 72
     1
  1

  7
SLDTEXTSTYLE0
 73
     1
 44
1.0
  0
MTEXT
  5
151
330
144
100
AcDbEntity
  8
EBENE_1
 62
     0
100
AcDbMText
 10
3.5277780844
 20
9.0316784373
 30
0.0
 40
3.175
 41
0.0
 71
     1
 72
     1
  1
4,00
  7
SLDTEXTSTYLE0
 73
     1
 44
1.0
  0
MTEXT
  5
152
330
144
100
AcDbEntity
  8
EBENE_1
 62
     0
100
AcDbMText
 10
1.1759259505
 20
4.0927898409
 30
0.0
 40
3.175
 41
0.0
 71
     1
 72
     1
  1
101,60
  7
SLDTEXTSTYLE0
 73
     1
 44
1.0
  0
MTEXT
  5
153
330
144
100
AcDbEntity
  8
EBENE_1
 62
     0
100
AcDbMText
 10
15.3017368719
 20
4.0927900738
 30
0.0
 40
3.175
 41
0.0
 71
     1
 72
     1
  1

  7
SLDTEXTSTYLE0
 73
     1
 44
1.0
  0
ENDBLK
  5
146
330
144
100
AcDbEntity
  8
0
100
AcDbBlockEnd
  0
BLOCK
  5
156
330
155
100
AcDbEntity
  8
0
100
AcDbBlockBegin
  2
SW_BLOCK_DIMENSION_19
 70
     0
 10
0.0
 20
0.0
 30
0.0
  3
SW_BLOCK_DIMENSION_19
  1

  0
SOLID
  5
158
330
155
100
AcDbEntity
  8
EBENE_1
 62
     0
100
AcDbTrace
 10
16.3971707594
 20
5.1887726877
 30
0.0
 11
15.9230196175
 21
2.1067902658
 31
0.0
 12
16.8713219012
 22
2.1067902658
 32
0.0
 13
16.8713219012
 23
2.1067902658
 33
0.0
  0
LINE
  5
159
330
155
100
AcDbEntity
  8
EBENE_1
 62
     0
100
AcDbLine
 10
3.2925925916
 20
9.671990294
 30
0.0
 11
2.2342592711
 21
9.671990294
 31
0.0
  0
LINE
  5
15A
330
155
100
AcDbEntity
  8
EBENE_1
 62
     0
100
AcDbLine
 10
2.2342592711
 20
9.671990294
 30
0.0
 11
2.2342592711
 21
4.9388883635
 31
0.0
  0
LINE
  5
15B
330
155
100
AcDbEntity
  8
EBENE_1
 62
     0
100
AcDbLine
 10
2.2342592711
 20
4.9388883635
 30
0.0
 11
3.2925925916
 21
4.9388883635
 31
0.0
  0
LINE
  5
15C
330
155
100
AcDbEntity
  8
EBENE_1
 62
     0
100
AcDbLine
 10
11.5240741288
 20
9.671990294
 30
0.0
 11
12.5824074494
 21
9.671990294
 31
0.0
  0
LINE
  5
15D
330
155
100
AcDbEntity
  8
EBENE_1
 62
     0
100
AcDbLine
 10
12.5824074494
 20
9.671990294
 30
0.0
 11
12.5824074494
 21
4.9388883635
 31
0.0
  0
LINE
  5
15E
330
155
100
AcDbEntity
  8
EBENE_1
 62
     0
100
AcDbLine
 10
12.5824074494
 20
4.9388883635
 30
0.0
 11
11.5240741288
 21
4.9388883635
 31
0.0
  0
LINE
  5
15F
330
155
100
AcDbEntity
  8
EBENE_1
 62
     0
100
AcDbLine
 10
23.60463321
 20
5.1887726877
 30
0.0
 11
14.8166669533
 21
5.1887726877
 31
0.0
  0
LINE
  5
160
330
155
100
AcDbEntity
  8
EBENE_1
 62
     0
100
AcDbLine
 10
16.3971707594
 20
-20.2112273123
 30
0.0
 11
16.3971707594
 21
5.1887726877
 31
0.0
  0
MTEXT
  5
161
330
155
100
AcDbEntity
  8
EBENE_1
 62
     0
100
AcDbMText
 10
1.190625
 20
4.0927900738
 30
0.0
 40
3.175
 41
0.0
 71
     1
 72
     1
  1

  7
SLDTEXTSTYLE0
 73
     1
 44
1.0
  0
MTEXT
  5
162
330
155
100
AcDbEntity
  8
EBENE_1
 62
     0
100
AcDbMText
 10
3.2925925916
 20
9.0316784373
 30
0.0
 40
3.175
 41
0.0
 71
     1
 72
     1
  1
5,00
  7
SLDTEXTSTYLE0
 73
     1
 44
1.0
  0
MTEXT
  5
163
330
155
100
AcDbEntity
  8
EBENE_1
 62
     0
100
AcDbMText
 10
3.8805556251
 20
4.0927898409
 30
0.0
 40
3.175
 41
0.0
 71
     1
 72
     1
  1
127
  7
SLDTEXTSTYLE0
 73
     1
 44
1.0
  0
MTEXT
  5
164
330
155
100
AcDbEntity
  8
EBENE_1
 62
     0
100
AcDbMText
 10
14.8313658863
 20
4.0927900738
 30
0.0
 40
3.175
 41
0.0
 71
     1
 72
     1
  1

  7
SLDTEXTSTYLE0
 73
     1
 44
1.0
  0
ENDBLK
  5
157
330
155
100
AcDbEntity
  8
0
100
AcDbBlockEnd
  0
BLOCK
  5
167
330
166
100
AcDbEntity
  8
0
100
AcDbBlockBegin
  2
SW_NOTE_0
 70
     0
 10
0.0
 20
0.0
 30
0.0
  3
SW_NOTE_0
  1

  0
MTEXT
  5
169
330
166
100
AcDbEntity
  8
EBENE_1
 62
     0
100
AcDbMText
 10
6.7138020833
 20
4.7749217527
 30
0.0
 40
3.7041666667
 41
0.0
 71
     2
 72
     1
  1
(Inch)
  7
SLDTEXTSTYLE0
 73
     1
 44
1.0
  0
MTEXT
  5
16A
330
166
100
AcDbEntity
  8
EBENE_1
 62
     0
100
AcDbMText
 10
6.7309508326
 20
-1.1639672404
 30
0.0
 40
3.7041666667
 41
0.0
 71
     2
 72
     1
  1
mm
  7
SLDTEXTSTYLE0
 73
     1
 44
1.0
  0
ENDBLK
  5
168
330
166
100
AcDbEntity
  8
0
100
AcDbBlockEnd
  0
BLOCK
  5
172
330
171
100
AcDbEntity
  8
0
100
AcDbBlockBegin
  2
SW_NOTE_1
 70
     0
 10
0.0
 20
0.0
 30
0.0
  3
SW_NOTE_1
  1

  0
MTEXT
  5
174
330
171
100
AcDbEntity
  8
0
  6
Continuous
 62
     0
370
     0
100
AcDbMText
 10
19.893359375
 20
4.0927900738
 30
0.0
 40
3.175
 41
0.0
 71
     2
 72
     1
  1
ABP-Beyerle GmbH
  7
SLDTEXTSTYLE0
 73
     1
 44
1.0
  0
MTEXT
  5
175
330
171
100
AcDbEntity
  8
0
  6
Continuous
 62
     0
370
     0
100
AcDbMText
 10
20.6558884293
 20
-0.1405432084
 30
0.0
 40
3.175
 41
0.0
 71
     2
 72
     1
  1
Im Schollengarten 24b, 76646 Bruchsal
  7
SLDTEXTSTYLE0
 73
     1
 44
1.0
  0
MTEXT
  5
176
330
171
100
AcDbEntity
  8
0
  6
Continuous
 62
     0
370
     0
100
AcDbMText
 10
20.7863491923
 20
-4.3738764906
 30
0.0
 40
3.175
 41
0.0
 71
     2
 72
     1
  1
Tel. +49 (0)7251-9127-0, Fax. +49 (0)7251-9127-29
  7
SLDTEXTSTYLE0
 73
     1
 44
1.0
  0
MTEXT
  5
177
330
171
100
AcDbEntity
  8
0
  6
Continuous
 62
     0
370
     0
100
AcDbMText
 10
20.8392552227
 20
-8.6072097727
 30
0.0
 40
3.175
 41
0.0
 71
     2
 72
     1
  1
info@abp-beyerle.de, www.abp-beyerle.de
  7
SLDTEXTSTYLE0
 73
     1
 44
1.0
  0
ENDBLK
  5
173
330
171
100
AcDbEntity
  8
0
100
AcDbBlockEnd
  0
ENDSEC
  0
SECTION
  2
ENTITIES
  0
INSERT
  5
16D
330
1F
100
AcDbEntity
  8
EBENE_1
100
AcDbBlockReference
  2
Block1
 10
19.561342692
 20
-6.9223244521
 30
0.0
  0
MTEXT
  5
16F
330
1F
100
AcDbEntity
  8
0
  6
Continuous
 62
     7
370
     0
100
AcDbMText
 10
402.5
 20
14.7189135832
 30
0.0
 40
6.35
 41
0.0
 71
     1
 72
     1
  1
1:1
  7
SLDTEXTSTYLE1
 73
     1
 44
1.0
  0
MTEXT
  5
170
330
1F
100
AcDbEntity
  8
0
  6
Continuous
 62
     7
370
     0
100
AcDbMText
 10
168.4090458961
 20
14.7189131175
 30
0.0
 40
6.35
 41
0.0
 71
     1
 72
     1
  1
USU44DS-2300EF
  7
SLDTEXTSTYLE1
 73
     1
 44
1.0
  0
INSERT
  5
178
330
1F
100
AcDbEntity
  8
0
  6
Continuous
 62
     7
370
     0
100
AcDbBlockReference
  2
SW_NOTE_1
 10
35.4202146835
 20
20.1681939512
 30
0.0
  0
LINE
  5
179
330
1F
100
AcDbEntity
  8
0
  6
Continuous
 62
     7
370
    15
100
AcDbLine
 10
-635.7959227394
 20
2179.0560715017
 30
0.0
 11
-596.7959331106
 21
2179.0560715017
 31
0.0
  0
LINE
  5
17A
330
1F
100
AcDbEntity
  8
0
  6
Continuous
 62
     7
370
    15
100
AcDbLine
 10
-509.388375584
 20
2179.0560715017
 30
0.0
 11
160.6116427351
 21
2179.0560715017
 31
0.0
  0
LINE
  5
17B
330
1F
100
AcDbEntity
  8
0
  6
Continuous
 62
     7
370
    15
100
AcDbLine
 10
190.6116141248
 20
2179.0560715017
 30
0.0
 11
1549.5373739172
 21
2179.0560715017
 31
0.0
  0
LINE
  5
17C
330
1F
100
AcDbEntity
  8
0
  6
Continuous
 62
     7
370
    15
100
AcDbLine
 10
1555.873824494
 20
2179.0560715017
 30
0.0
 11
1560.2039827276
 21
2179.0560715017
 31
0.0
  0
LINE
  5
17D
330
1F
100
AcDbEntity
  8
0
  6
Continuous
 62
     7
370
    15
100
AcDbLine
 10
1633.2041753698
 20
2179.0560715017
 30
0.0
 11
1662.2039808202
 21
2179.0560715017
 31
0.0
  0
LINE
  5
17E
330
1F
100
AcDbEntity
  8
0
  6
Continuous
 62
     7
370
    15
100
AcDbLine
 10
1662.2039808202
 20
2204.0560718742
 30
0.0
 11
1622.3866475988
 21
2204.0560718742
 31
0.0
  0
LINE
  5
17F
330
1F
100
AcDbEntity
  8
0
  6
Continuous
 62
     7
370
    15
100
AcDbLine
 10
1603.0215753484
 20
2204.0560718742
 30
0.0
 11
190.6116141248
 21
2204.0560718742
 31
0.0
  0
LINE
  5
180
330
1F
100
AcDbEntity
  8
0
  6
Continuous
 62
     7
370
    15
100
AcDbLine
 10
160.6116427351
 20
2204.0560718742
 30
0.0
 11
-509.388375584
 21
2204.0560718742
 31
0.0
  0
LINE
  5
181
330
1F
100
AcDbEntity
  8
0
  6
Continuous
 62
     7
370
    15
100
AcDbLine
 10
-539.3883751463
 20
2204.0560718742
 30
0.0
 11
-566.613470925
 21
2204.0560718742
 31
0.0
  0
LINE
  5
182
330
1F
100
AcDbEntity
  8
0
  6
Continuous
 62
     7
370
    15
100
AcDbLine
 10
-585.9783904385
 20
2204.0560718742
 30
0.0
 11
-635.7959227394
 21
2204.0560718742
 31
0.0
  0
LINE
  5
183
330
1F
100
AcDbEntity
  8
0
  6
Continuous
 62
     7
370
    15
100
AcDbLine
 10
-635.7959227394
 20
2204.0560718742
 30
0.0
 11
-636.795924766
 21
2203.0560717103
 31
0.0
  0
LINE
  5
184
330
1F
100
AcDbEntity
  8
0
  6
Continuous
 62
     7
370
    15
100
AcDbLine
 10
-636.795924766
 20
2180.0560716656
 30
0.0
 11
-635.7959227394
 21
2179.0560715017
 31
0.0
  0
LINE
  5
185
330
1F
100
AcDbEntity
  8
0
  6
Continuous
 62
     7
370
    15
100
AcDbLine
 10
1662.2039808202
 20
2179.0560715017
 30
0.0
 11
1663.2041467596
 21
2180.0560716656
 31
0.0
  0
LINE
  5
186
330
1F
100
AcDbEntity
  8
0
  6
Continuous
 62
     7
370
    15
100
AcDbLine
 10
1663.2041467596
 20
2203.0560717103
 30
0.0
 11
1662.2039808202
 21
2204.0560718742
 31
0.0
  0
LINE
  5
187
330
1F
100
AcDbEntity
  8
0
  6
Continuous
 62
     7
370
    15
100
AcDbLine
 10
-550.9959289562
 20
2168.4560718131
 30
0.0
 11
-550.7959292959
 21
2168.6560714734
 31
0.0
  0
LINE
  5
188
330
1F
100
AcDbEntity
  8
0
  6
Continuous
 62
     7
370
    15
100
AcDbLine
 10
-550.7959292959
 20
2186.4560715039
 30
0.0
 11
-550.9959289562
 21
2186.6560716298
 31
0.0
  0
LINE
  5
189
330
1F
100
AcDbEntity
  8
0
  6
Continuous
 62
     7
370
    15
100
AcDbLine
 10
-556.0959296059
 20
2168.4560718131
 30
0.0
 11
-550.9959289562
 21
2168.4560718131
 31
0.0
  0
LINE
  5
18A
330
1F
100
AcDbEntity
  8
0
  6
Continuous
 62
     7
370
    15
100
AcDbLine
 10
-550.9959289562
 20
2186.6560716298
 30
0.0
 11
-556.0959296059
 21
2186.6560716298
 31
0.0
  0
LINE
  5
18B
330
1F
100
AcDbEntity
  8
0
  6
Continuous
 62
     7
370
    15
100
AcDbLine
 10
-556.0959296059
 20
2186.6560716298
 30
0.0
 11
-556.2959292661
 21
2186.4560715039
 31
0.0
  0
LINE
  5
18C
330
1F
100
AcDbEntity
  8
0
  6
Continuous
 62
     7
370
    15
100
AcDbLine
 10
-556.2959292661
 20
2168.6560714734
 30
0.0
 11
-556.0959296059
 21
2168.4560718131
 31
0.0
  0
LINE
  5
18D
330
1F
100
AcDbEntity
  8
0
  6
Continuous
 62
     7
370
    15
100
AcDbLine
 10
1592.50397815
 20
2168.4560718131
 30
0.0
 11
1592.7040113378
 21
2168.6560714734
 31
0.0
  0
LINE
  5
18E
330
1F
100
AcDbEntity
  8
0
  6
Continuous
 62
     7
370
    15
100
AcDbLine
 10
1592.7040113378
 20
2186.4560715039
 30
0.0
 11
1592.50397815
 21
2186.6560716298
 31
0.0
  0
LINE
  5
18F
330
1F
100
AcDbEntity
  8
0
  6
Continuous
 62
     7
370
    15
100
AcDbLine
 10
1592.50397815
 20
2186.6560716298
 30
0.0
 11
1587.4039663244
 21
2186.6560716298
 31
0.0
  0
LINE
  5
190
330
1F
100
AcDbEntity
  8
0
  6
Continuous
 62
     7
370
    15
100
AcDbLine
 10
1587.4039663244
 20
2168.4560718131
 30
0.0
 11
1592.50397815
 21
2168.4560718131
 31
0.0
  0
LINE
  5
191
330
1F
100
AcDbEntity
  8
0
  6
Continuous
 62
     7
370
    15
100
AcDbLine
 10
1587.4039663244
 20
2186.6560716298
 30
0.0
 11
1587.2041715551
 21
2186.4560715039
 31
0.0
  0
LINE
  5
192
330
1F
100
AcDbEntity
  8
0
  6
Continuous
 62
     7
370
    15
100
AcDbLine
 10
1587.2041715551
 20
2168.6560714734
 30
0.0
 11
1587.4039663244
 21
2168.4560718131
 31
0.0
  0
ARC
  5
193
330
1F
100
AcDbEntity
  8
0
  6
Continuous
 62
     7
370
    15
100
AcDbCircle
 10
-542.0959295344
 20
2183.2060716879
 30
0.0
 40
0.3000000000001819
100
AcDbArc
 50
0.0
 51
90.0
  0
ARC
  5
194
330
1F
100
AcDbEntity
  8
0
  6
Continuous
 62
     7
370
    15
100
AcDbCircle
 10
-542.0959295344
 20
2171.9060716879
 30
0.0
 40
0.3000000000001819
100
AcDbArc
 50
270.0
 51
0.0
  0
LINE
  5
195
330
1F
100
AcDbEntity
  8
0
  6
Continuous
 62
     7
370
    15
100
AcDbLine
 10
-550.7959292959
 20
2171.6060711187
 30
0.0
 11
-542.0959310364
 21
2171.6060711187
 31
0.0
  0
LINE
  5
196
330
1F
100
AcDbEntity
  8
0
  6
Continuous
 62
     7
370
    15
100
AcDbLine
 10
-542.0959310364
 20
2183.5060713929
 30
0.0
 11
-550.7959292959
 21
2183.5060713929
 31
0.0
  0
ARC
  5
197
330
1F
100
AcDbEntity
  8
0
  6
Continuous
 62
     7
370
    15
100
AcDbCircle
 10
1562.5040704656
 20
2171.9060716879
 30
0.0
 40
0.2999999999997272
100
AcDbArc
 50
180.0
 51
270.0
  0
ARC
  5
198
330
1F
100
AcDbEntity
  8
0
  6
Continuous
 62
     7
370
    15
100
AcDbCircle
 10
1562.5040704656
 20
2183.2060716879
 30
0.0
 40
0.2999999999997272
100
AcDbArc
 50
90.0
 51
180.0
  0
LINE
  5
199
330
1F
100
AcDbEntity
  8
0
  6
Continuous
 62
     7
370
    15
100
AcDbLine
 10
1587.2041715551
 20
2183.5060713929
 30
0.0
 11
1562.5040067602
 21
2183.5060713929
 31
0.0
  0
LINE
  5
19A
330
1F
100
AcDbEntity
  8
0
  6
Continuous
 62
     7
370
    15
100
AcDbLine
 10
1562.5040067602
 20
2171.6060711187
 30
0.0
 11
1587.2041715551
 21
2171.6060711187
 31
0.0
  0
LINE
  5
19B
330
1F
100
AcDbEntity
  8
0
  6
Continuous
 62
     7
370
    15
100
AcDbLine
 10
1560.2039827276
 20
2172.5560722989
 30
0.0
 11
1562.2040761877
 21
2172.5560722989
 31
0.0
  0
LINE
  5
19C
330
1F
100
AcDbEntity
  8
0
  6
Continuous
 62
     7
370
    15
100
AcDbLine
 10
1562.2040761877
 20
2182.5560720754
 30
0.0
 11
1560.2039827276
 21
2182.5560720754
 31
0.0
  0
LINE
  5
19D
330
1F
100
AcDbEntity
  8
0
  6
Continuous
 62
     7
370
    15
100
AcDbLine
 10
-539.7959293556
 20
2182.5560720754
 30
0.0
 11
-541.7959296834
 21
2182.5560720754
 31
0.0
  0
LINE
  5
19E
330
1F
100
AcDbEntity
  8
0
  6
Continuous
 62
     7
370
    15
100
AcDbLine
 10
-541.7959296834
 20
2172.5560722989
 30
0.0
 11
-539.7959293556
 21
2172.5560722989
 31
0.0
  0
LINE
  5
19F
330
1F
100
AcDbEntity
  8
0
  6
Continuous
 62
     7
370
    15
100
AcDbLine
 10
-556.2959292661
 20
2186.0310717602
 30
0.0
 11
-556.3028210532
 21
2186.0310717602
 31
0.0
  0
LINE
  5
1A0
330
1F
100
AcDbEntity
  8
0
  6
Continuous
 62
     7
370
    15
100
AcDbLine
 10
-566.5684247147
 20
2169.0810712171
 30
0.0
 11
-556.2959292661
 21
2169.0810712171
 31
0.0
  0
LINE
  5
1A1
330
1F
100
AcDbEntity
  8
0
  6
Continuous
 62
     7
370
    15
100
AcDbLine
 10
-596.2890403103
 20
2186.0310717602
 30
0.0
 11
-596.4959280323
 21
2186.0310717602
 31
0.0
  0
LINE
  5
1A2
330
1F
100
AcDbEntity
  8
0
  6
Continuous
 62
     7
370
    15
100
AcDbLine
 10
-596.4959280323
 20
2169.0810712171
 30
0.0
 11
-586.0234366488
 21
2169.0810712171
 31
0.0
  0
LINE
  5
1A3
330
1F
100
AcDbEntity
  8
0
  6
Continuous
 62
     7
370
    15
100
AcDbLine
 10
-596.4959280323
 20
2186.0310717602
 30
0.0
 11
-596.7959331106
 21
2185.7310718042
 31
0.0
  0
LINE
  5
1A4
330
1F
100
AcDbEntity
  8
0
  6
Continuous
 62
     7
370
    15
100
AcDbLine
 10
-596.7959331106
 20
2169.3810725701
 30
0.0
 11
-596.4959280323
 21
2169.0810712171
 31
0.0
  0
LINE
  5
1A5
330
1F
100
AcDbEntity
  8
0
  6
Continuous
 62
     7
370
    15
100
AcDbLine
 10
1622.4314702917
 20
2169.0810712171
 30
0.0
 11
1632.9040063787
 21
2169.0810712171
 31
0.0
  0
LINE
  5
1A6
330
1F
100
AcDbEntity
  8
0
  6
Continuous
 62
     7
370
    15
100
AcDbLine
 10
1632.9040063787
 20
2186.0310717602
 30
0.0
 11
1632.6972974706
 21
2186.0310717602
 31
0.0
  0
LINE
  5
1A7
330
1F
100
AcDbEntity
  8
0
  6
Continuous
 62
     7
370
    15
100
AcDbLine
 10
1632.9040063787
 20
2169.0810712171
 30
0.0
 11
1633.2041753698
 21
2169.3810725701
 31
0.0
  0
LINE
  5
1A8
330
1F
100
AcDbEntity
  8
0
  6
Continuous
 62
     7
370
    15
100
AcDbLine
 10
1633.2041753698
 20
2185.7310718042
 30
0.0
 11
1632.9040063787
 21
2186.0310717602
 31
0.0
  0
LINE
  5
1A9
330
1F
100
AcDbEntity
  8
0
  6
Continuous
 62
     7
370
    15
100
AcDbLine
 10
1592.7040113378
 20
2169.0810712171
 30
0.0
 11
1602.976514237
 21
2169.0810712171
 31
0.0
  0
LINE
  5
1AA
330
1F
100
AcDbEntity
  8
0
  6
Continuous
 62
     7
370
    15
100
AcDbLine
 10
1592.7109254766
 20
2186.0310717602
 30
0.0
 11
1592.7040113378
 21
2186.0310717602
 31
0.0
  0
LINE
  5
1AB
330
1F
100
AcDbEntity
  8
0
  6
Continuous
 62
     7
370
    15
100
AcDbLine
 10
-539.3883751463
 20
2179.5560715836
 30
0.0
 11
-539.7959293556
 21
2179.5560715836
 31
0.0
  0
LINE
  5
1AC
330
1F
100
AcDbEntity
  8
0
  6
Continuous
 62
     7
370
    15
100
AcDbLine
 10
-539.7959293556
 20
2173.5560724628
 30
0.0
 11
-539.3883751463
 21
2173.5560724628
 31
0.0
  0
ARC
  5
1AD
330
1F
100
AcDbEntity
  8
0
  6
Continuous
 62
     7
370
    15
100
AcDbCircle
 10
1554.0934715617
 20
2178.7284093858
 30
0.0
 40
4.999999999999996
100
AcDbArc
 50
265.7108466712
 51
299.125466729
  0
ARC
  5
1AE
330
1F
100
AcDbEntity
  8
0
  6
Continuous
 62
     7
370
    15
100
AcDbCircle
 10
1554.0934715617
 20
2174.3837339901
 30
0.0
 40
4.999999999999996
100
AcDbArc
 50
60.874533271
 51
94.2891533288
  0
LINE
  5
1AF
330
1F
100
AcDbEntity
  8
0
  6
Continuous
 62
     7
370
    15
100
AcDbLine
 10
1553.7194742132
 20
2179.3697307003
 30
0.0
 11
1547.1293462682
 21
2178.8754619774
 31
0.0
  0
LINE
  5
1B0
330
1F
100
AcDbEntity
  8
0
  6
Continuous
 62
     7
370
    15
100
AcDbLine
 10
1547.1293462682
 20
2174.2366811377
 30
0.0
 11
1553.7194742132
 21
2173.7424133462
 31
0.0
  0
ARC
  5
1B1
330
1F
100
AcDbEntity
  8
0
  6
Continuous
 62
     7
370
    15
100
AcDbCircle
 10
1547.2040704656
 20
2177.8782631319
 30
0.0
 40
1.000000000000385
100
AcDbArc
 50
94.2891533288
 51
180.0
  0
ARC
  5
1B2
330
1F
100
AcDbEntity
  8
0
  6
Continuous
 62
     7
370
    15
100
AcDbCircle
 10
1547.2040704656
 20
2175.2338802439
 30
0.0
 40
0.999999999999932
100
AcDbArc
 50
180.0
 51
265.7108466712
  0
ARC
  5
1B3
330
1F
100
AcDbEntity
  8
0
  6
Continuous
 62
     7
370
    15
100
AcDbCircle
 10
1559.2040704656
 20
2183.5560716879
 30
0.0
 40
5.5
100
AcDbArc
 50
240.874533271
 51
270.0
  0
ARC
  5
1B4
330
1F
100
AcDbEntity
  8
0
  6
Continuous
 62
     7
370
    15
100
AcDbCircle
 10
1559.2040704656
 20
2169.5560716879
 30
0.0
 40
5.5
100
AcDbArc
 50
90.0
 51
119.125466729
  0
LINE
  5
1B5
330
1F
100
AcDbEntity
  8
0
  6
Continuous
 62
     7
370
    15
100
AcDbLine
 10
1560.2039827276
 20
2178.0560713378
 30
0.0
 11
1559.2040552068
 21
2178.0560713378
 31
0.0
  0
LINE
  5
1B6
330
1F
100
AcDbEntity
  8
0
  6
Continuous
 62
     7
370
    15
100
AcDbLine
 10
1559.2040552068
 20
2175.0560717773
 30
0.0
 11
1560.2039827276
 21
2175.0560717773
 31
0.0
  0
LINE
  5
1B7
330
1F
100
AcDbEntity
  8
0
  6
Continuous
 62
     7
370
    15
100
AcDbLine
 10
-635.7959227394
 20
2204.0560718742
 30
0.0
 11
-635.7959227394
 21
2179.0560715017
 31
0.0
  0
LINE
  5
1B8
330
1F
100
AcDbEntity
  8
0
  6
Continuous
 62
     7
370
    15
100
AcDbLine
 10
1662.2039808202
 20
2179.0560715017
 30
0.0
 11
1662.2039808202
 21
2204.0560718742
 31
0.0
  0
SPLINE
  5
1B9
330
1F
100
AcDbEntity
  8
0
  6
Continuous
 62
     7
370
    15
100
AcDbSpline
210
0.0
220
0.0
230
1.0
 70
    11
 71
     3
 72
    28
 73
    24
 74
     0
 42
0.000000001
 43
0.00000001
 40
0.0
 40
0.0
 40
0.0
 40
0.0
 40
0.0475550222372035
 40
0.0949653993276649
 40
0.1460710687750825
 40
0.2034552292835984
 40
0.2467865273042787
 40
0.2901876684664406
 40
0.3330321413191236
 40
0.3834844783112745
 40
0.4410928457189647
 40
0.4950491681890933
 40
0.5415913075306255
 40
0.586939963226212
 40
0.6370249693638754
 40
0.6937088830254727
 40
0.7381356920086419
 40
0.7826969171997098
 40
0.8249710030861995
 40
0.8737323869703356
 40
0.9306924157138382
 40
0.986018776902427
 40
1.0
 40
1.0
 40
1.0
 40
1.0
 10
1540.754033463068
 20
2191.556071687939
 30
0.0
 10
1540.68406362768
 20
2190.783280412757
 30
0.0
 10
1540.54433677979
 20
2189.240048413441
 30
0.0
 10
1539.471586316581
 20
2187.15421511306
 30
0.0
 10
1537.816982051529
 20
2185.403153523294
 30
0.0
 10
1535.689042130235
 20
2184.289378207029
 30
0.0
 10
1533.363537081736
 20
2183.907005267468
 30
0.0
 10
1531.248761411287
 20
2184.164798509039
 30
0.0
 10
1529.253697892366
 20
2185.000794132282
 30
0.0
 10
1527.437471644286
 20
2186.471849680235
 30
0.0
 10
1526.067143200693
 20
2188.641657205234
 30
0.0
 10
1525.526754295874
 20
2191.191348219076
 30
0.0
 10
1525.815855398113
 20
2193.575255159848
 30
0.0
 10
1526.731012934862
 20
2195.653009744198
 30
0.0
 10
1528.271761553352
 20
2197.447665254713
 30
0.0
 10
1530.30608834221
 20
2198.666424434577
 30
0.0
 10
1532.614891914956
 20
2199.189185696143
 30
0.0
 10
1534.778514123268
 20
2199.040400179366
 30
0.0
 10
1536.808621836127
 20
2198.303319335852
 30
0.0
 10
1538.667805319329
 20
2196.955668805981
 30
0.0
 10
1540.143374978145
 20
2194.903957987009
 30
0.0
 10
1540.716309355548
 20
2192.903261768155
 30
0.0
 10
1540.747700929562
 20
2191.782216900699
 30
0.0
 10
1540.754033463068
 20
2191.556071687939
 30
0.0
  0
SPLINE
  5
1BA
330
1F
100
AcDbEntity
  8
0
  6
Continuous
 62
     7
370
    15
100
AcDbSpline
210
0.0
220
0.0
230
1.0
 70
    11
 71
     3
 72
    28
 73
    24
 74
     0
 42
0.000000001
 43
0.00000001
 40
0.0
 40
0.0
 40
0.0
 40
0.0
 40
0.0475550612754436
 40
0.0949665239629183
 40
0.1460706281736553
 40
0.203456934591932
 40
0.2467858589387729
 40
0.2901870357292258
 40
0.3330337443060202
 40
0.3834843092939651
 40
0.4410927239927546
 40
0.495049090755994
 40
0.5415909794625564
 40
0.5869406285103704
 40
0.6370256757631548
 40
0.6937096359569611
 40
0.7381341114717702
 40
0.78269537324345
 40
0.8249694938330233
 40
0.87373091774571
 40
0.9306923588187725
 40
0.9860187654251463
 40
1.0
 40
1.0
 40
1.0
 40
1.0
 10
860.7540859151554
 20
2191.556071687939
 30
0.0
 10
860.6841283779492
 20
2190.783274059164
 30
0.0
 10
860.5444245492648
 20
2189.240012362869
 30
0.0
 10
859.4714802138712
 20
2187.154287641374
 30
0.0
 10
857.8170415163653
 20
2185.40307317842
 30
0.0
 10
855.6890247039828
 20
2184.289429503518
 30
0.0
 10
853.36355286325
 20
2183.9069892427
 30
0.0
 10
851.2487908410053
 20
2184.164828445628
 30
0.0
 10
849.2536575309313
 20
2185.000728538389
 30
0.0
 10
847.4375372308815
 20
2186.471898775492
 30
0.0
 10
846.0671704363782
 20
2188.641653717169
 30
0.0
 10
845.5268705835501
 20
2191.191334387939
 30
0.0
 10
845.8157147666436
 20
2193.57529442596
 30
0.0
 10
846.7311101989177
 20
2195.652979056779
 30
0.0
 10
848.2717959393929
 20
2197.447673386447
 30
0.0
 10
850.3061147221764
 20
2198.666396192616
 30
0.0
 10
852.6148600337407
 20
2199.189195888352
 30
0.0
 10
854.7784469692467
 20
2199.040396002596
 30
0.0
 10
856.8085605600327
 20
2198.303324069351
 30
0.0
 10
858.6677284114894
 20
2196.955638357557
 30
0.0
 10
860.1434503575624
 20
2194.903997799288
 30
0.0
 10
860.7163603536256
 20
2192.903260860759
 30
0.0
 10
860.7477531375738
 20
2191.782216748379
 30
0.0
 10
860.7540859151554
 20
2191.556071687939
 30
0.0
  0
SPLINE
  5
1BB
330
1F
100
AcDbEntity
  8
0
  6
Continuous
 62
     7
370
    15
100
AcDbSpline
210
0.0
220
0.0
230
1.0
 70
     8
 71
     3
 72
    14
 73
    10
 74
     0
 42
0.000000001
 43
0.00000001
 40
0.0
 40
0.0
 40
0.0
 40
0.0
 40
0.1556612594985415
 40
0.3108520258739575
 40
0.478126436255318
 40
0.6659729880732921
 40
0.8077982159283822
 40
0.9498588376333642
 40
1.0
 40
1.0
 40
1.0
 40
1.0
 10
-499.2459293212819
 20
2191.556071687939
 30
0.0
 10
-499.3158779004294
 20
2190.783310623781
 30
0.0
 10
-499.4555636360138
 20
2189.240124200367
 30
0.0
 10
-500.5288028480306
 20
2187.153857415348
 30
0.0
 10
-502.1818809105321
 20
2185.404983668378
 30
0.0
 10
-504.3149371951525
 20
2184.282011567089
 30
0.0
 10
-506.6257147435105
 20
2183.927259648804
 30
0.0
 10
-508.3313436212202
 20
2184.054437586455
 30
0.0
 10
-509.1696738968126
 20
2184.432555239093
 30
0.0
 10
-509.3883755840438
 20
2184.531197708549
 30
0.0
  0
SPLINE
  5
1BC
330
1F
100
AcDbEntity
  8
0
  6
Continuous
 62
     7
370
    15
100
AcDbSpline
210
0.0
220
0.0
230
1.0
 70
     8
 71
     3
 72
    14
 73
    10
 74
     0
 42
0.000000001
 43
0.00000001
 40
0.0
 40
0.0
 40
0.0
 40
0.0
 40
0.1411784476041268
 40
0.2873232627402633
 40
0.42596640920233
 40
0.5858856580755452
 40
0.7726969948347265
 40
0.9541470479890416
 40
1.0
 40
1.0
 40
1.0
 40
1.0
 10
-509.3883755840438
 20
2198.637408029737
 30
0.0
 10
-508.7251238799655
 20
2198.827038609663
 30
0.0
 10
-507.3752886404667
 20
2199.212970583447
 30
0.0
 10
-505.2182565572249
 20
2199.033936276557
 30
0.0
 10
-503.1924236509653
 20
2198.30529830703
 30
0.0
 10
-501.3318942402365
 20
2196.954976703643
 30
0.0
 10
-499.8566744226234
 20
2194.904178217095
 30
0.0
 10
-499.2835207553976
 20
2192.903258361654
 30
0.0
 10
-499.2522395560737
 20
2191.782215340591
 30
0.0
 10
-499.2459293212819
 20
2191.556071687939
 30
0.0
  0
LINE
  5
1BD
330
1F
100
AcDbEntity
  8
0
  6
Continuous
 62
     7
370
    15
100
AcDbLine
 10
-636.795924766
 20
2180.0560716656
 30
0.0
 11
-636.795924766
 21
2203.0560717103
 31
0.0
  0
LINE
  5
1BE
330
1F
100
AcDbEntity
  8
0
  6
Continuous
 62
     7
370
    15
100
AcDbLine
 10
1663.2041467596
 20
2203.0560717103
 30
0.0
 11
1663.2041467596
 21
2180.0560716656
 31
0.0
  0
ARC
  5
1BF
330
1F
100
AcDbEntity
  8
0
  6
Continuous
 62
     7
370
    15
100
AcDbCircle
 10
175.6116243041
 20
2230.0060540699
 30
0.0
 40
28.94999999999994
100
AcDbArc
 50
301.2072148381
 51
37.8824995054
  0
ARC
  5
1C0
330
1F
100
AcDbEntity
  8
0
  6
Continuous
 62
     7
370
    15
100
AcDbCircle
 10
175.6116243041
 20
2230.0060540699
 30
0.0
 40
28.94999999999996
100
AcDbArc
 50
37.8824995054
 51
238.7927851619
  0
ARC
  5
1C1
330
1F
100
AcDbEntity
  8
0
  6
Continuous
 62
     7
370
    15
100
AcDbCircle
 10
-524.3883756959
 20
2230.0060540699
 30
0.0
 40
28.94999999999997
100
AcDbArc
 50
301.2072148381
 51
37.8824995054
  0
ARC
  5
1C2
330
1F
100
AcDbEntity
  8
0
  6
Continuous
 62
     7
370
    15
100
AcDbCircle
 10
-524.3883756959
 20
2230.0060540699
 30
0.0
 40
28.94999999999994
100
AcDbArc
 50
37.8824995054
 51
238.7927851619
  0
LINE
  5
1C3
330
1F
100
AcDbEntity
  8
0
  6
Continuous
 62
     7
370
    15
100
AcDbLine
 10
-550.7959292959
 20
2180.4569902015
 30
0.0
 11
-550.7959292959
 21
2168.6560714734
 31
0.0
  0
LINE
  5
1C4
330
1F
100
AcDbEntity
  8
0
  6
Continuous
 62
     7
370
    15
100
AcDbLine
 10
-550.7959292959
 20
2186.4560715039
 30
0.0
 11
-550.7959292959
 21
2180.4569902015
 31
0.0
  0
LINE
  5
1C5
330
1F
100
AcDbEntity
  8
0
  6
Continuous
 62
     7
370
    15
100
AcDbLine
 10
-550.9959289562
 20
2180.5221799877
 30
0.0
 11
-550.9959289562
 21
2186.6560716298
 31
0.0
  0
LINE
  5
1C6
330
1F
100
AcDbEntity
  8
0
  6
Continuous
 62
     7
370
    15
100
AcDbLine
 10
-550.9959289562
 20
2168.4560718131
 30
0.0
 11
-550.9959289562
 21
2180.5221799877
 31
0.0
  0
LINE
  5
1C7
330
1F
100
AcDbEntity
  8
0
  6
Continuous
 62
     7
370
    15
100
AcDbLine
 10
-556.0959296059
 20
2180.5221799877
 30
0.0
 11
-556.0959296059
 21
2168.4560718131
 31
0.0
  0
LINE
  5
1C8
330
1F
100
AcDbEntity
  8
0
  6
Continuous
 62
     7
370
    15
100
AcDbLine
 10
-556.0959296059
 20
2186.6560716298
 30
0.0
 11
-556.0959296059
 21
2180.5221799877
 31
0.0
  0
LINE
  5
1C9
330
1F
100
AcDbEntity
  8
0
  6
Continuous
 62
     7
370
    15
100
AcDbLine
 10
-556.2959292661
 20
2180.4569902015
 30
0.0
 11
-556.2959292661
 21
2186.4560715039
 31
0.0
  0
LINE
  5
1CA
330
1F
100
AcDbEntity
  8
0
  6
Continuous
 62
     7
370
    15
100
AcDbLine
 10
-556.2959292661
 20
2168.6560714734
 30
0.0
 11
-556.2959292661
 21
2180.4569902015
 31
0.0
  0
LINE
  5
1CB
330
1F
100
AcDbEntity
  8
0
  6
Continuous
 62
     7
370
    15
100
AcDbLine
 10
1592.50397815
 20
2168.4560718131
 30
0.0
 11
1592.50397815
 21
2186.6560716298
 31
0.0
  0
LINE
  5
1CC
330
1F
100
AcDbEntity
  8
0
  6
Continuous
 62
     7
370
    15
100
AcDbLine
 10
1592.7040113378
 20
2186.4560715039
 30
0.0
 11
1592.7040113378
 21
2168.6560714734
 31
0.0
  0
LINE
  5
1CD
330
1F
100
AcDbEntity
  8
0
  6
Continuous
 62
     7
370
    15
100
AcDbLine
 10
1587.4039663244
 20
2186.6560716298
 30
0.0
 11
1587.4039663244
 21
2168.4560718131
 31
0.0
  0
LINE
  5
1CE
330
1F
100
AcDbEntity
  8
0
  6
Continuous
 62
     7
370
    15
100
AcDbLine
 10
1587.2041715551
 20
2168.6560714734
 30
0.0
 11
1587.2041715551
 21
2186.4560715039
 31
0.0
  0
LINE
  5
1CF
330
1F
100
AcDbEntity
  8
0
  6
Continuous
 62
     7
370
    15
100
AcDbLine
 10
-541.7959296834
 20
2183.2060719025
 30
0.0
 11
-541.7959296834
 21
2171.9060724717
 31
0.0
  0
LINE
  5
1D0
330
1F
100
AcDbEntity
  8
0
  6
Continuous
 62
     7
370
    15
100
AcDbLine
 10
1562.2040761877
 20
2171.9060724717
 30
0.0
 11
1562.2040761877
 21
2183.2060719025
 31
0.0
  0
LINE
  5
1D1
330
1F
100
AcDbEntity
  8
0
  6
Continuous
 62
     7
370
    15
100
AcDbLine
 10
1560.2039827276
 20
2174.791708414
 30
0.0
 11
1560.2039827276
 21
2172.5560722989
 31
0.0
  0
LINE
  5
1D2
330
1F
100
AcDbEntity
  8
0
  6
Continuous
 62
     7
370
    15
100
AcDbLine
 10
1560.2039827276
 20
2182.5560720754
 30
0.0
 11
1560.2039827276
 21
2174.791708414
 31
0.0
  0
LINE
  5
1D3
330
1F
100
AcDbEntity
  8
0
  6
Continuous
 62
     7
370
    15
100
AcDbLine
 10
-539.7959293556
 20
2173.6653650296
 30
0.0
 11
-539.7959293556
 21
2182.5560720754
 31
0.0
  0
LINE
  5
1D4
330
1F
100
AcDbEntity
  8
0
  6
Continuous
 62
     7
370
    15
100
AcDbLine
 10
-539.7959293556
 20
2172.5560722989
 30
0.0
 11
-539.7959293556
 21
2173.6653650296
 31
0.0
  0
LINE
  5
1D5
330
1F
100
AcDbEntity
  8
0
  6
Continuous
 62
     7
370
    15
100
AcDbLine
 10
-596.4959280323
 20
2186.0310717602
 30
0.0
 11
-596.4959280323
 21
2169.0810712171
 31
0.0
  0
LINE
  5
1D6
330
1F
100
AcDbEntity
  8
0
  6
Continuous
 62
     7
370
    15
100
AcDbLine
 10
-596.7959331106
 20
2169.3810725701
 30
0.0
 11
-596.7959331106
 21
2185.7310718042
 31
0.0
  0
LINE
  5
1D7
330
1F
100
AcDbEntity
  8
0
  6
Continuous
 62
     7
370
    15
100
AcDbLine
 10
1632.9040063787
 20
2169.0810712171
 30
0.0
 11
1632.9040063787
 21
2186.0310717602
 31
0.0
  0
LINE
  5
1D8
330
1F
100
AcDbEntity
  8
0
  6
Continuous
 62
     7
370
    15
100
AcDbLine
 10
1633.2041753698
 20
2185.7310718042
 30
0.0
 11
1633.2041753698
 21
2169.3810725701
 31
0.0
  0
CIRCLE
  5
1D9
330
1F
100
AcDbEntity
  8
0
  6
Continuous
 62
     7
370
    15
100
AcDbCircle
 10
-576.2959295344
 20
2186.5560716879
 30
0.0
 40
18.00000000000005
  0
CIRCLE
  5
1DA
330
1F
100
AcDbEntity
  8
0
  6
Continuous
 62
     7
370
    15
100
AcDbCircle
 10
-576.2959295344
 20
2186.5560716879
 30
0.0
 40
19.99999999999997
  0
CIRCLE
  5
1DB
330
1F
100
AcDbEntity
  8
0
  6
Continuous
 62
     7
370
    15
100
AcDbCircle
 10
-570.5218821748
 20
2193.4597212365
 30
0.0
 40
1.300000000000071
  0
CIRCLE
  5
1DC
330
1F
100
AcDbEntity
  8
0
  6
Continuous
 62
     7
370
    15
100
AcDbCircle
 10
-569.3922799858
 20
2180.7820243283
 30
0.0
 40
1.299999999999795
  0
CIRCLE
  5
1DD
330
1F
100
AcDbEntity
  8
0
  6
Continuous
 62
     7
370
    15
100
AcDbCircle
 10
-582.069976894
 20
2179.6524221394
 30
0.0
 40
1.300000000000071
  0
CIRCLE
  5
1DE
330
1F
100
AcDbEntity
  8
0
  6
Continuous
 62
     7
370
    15
100
AcDbCircle
 10
-583.1995790829
 20
2192.3301190475
 30
0.0
 40
1.299999999999722
  0
CIRCLE
  5
1DF
330
1F
100
AcDbEntity
  8
0
  6
Continuous
 62
     7
370
    15
100
AcDbCircle
 10
1612.7040704656
 20
2186.5560716879
 30
0.0
 40
18.00000000000003
  0
CIRCLE
  5
1E0
330
1F
100
AcDbEntity
  8
0
  6
Continuous
 62
     7
370
    15
100
AcDbCircle
 10
1616.5744712474
 20
2178.4308025977
 30
0.0
 40
1.300000000000051
  0
CIRCLE
  5
1E1
330
1F
100
AcDbEntity
  8
0
  6
Continuous
 62
     7
370
    15
100
AcDbCircle
 10
1604.5788013754
 20
2182.6856709061
 30
0.0
 40
1.300000000000071
  0
CIRCLE
  5
1E2
330
1F
100
AcDbEntity
  8
0
  6
Continuous
 62
     7
370
    15
100
AcDbCircle
 10
1608.8336696838
 20
2194.6813407781
 30
0.0
 40
1.300000000000071
  0
CIRCLE
  5
1E3
330
1F
100
AcDbEntity
  8
0
  6
Continuous
 62
     7
370
    15
100
AcDbCircle
 10
1620.8293395558
 20
2190.4264724698
 30
0.0
 40
1.29999999999966
  0
CIRCLE
  5
1E4
330
1F
100
AcDbEntity
  8
0
  6
Continuous
 62
     7
370
    15
100
AcDbCircle
 10
1612.7040704656
 20
2186.5560716879
 30
0.0
 40
20.00000000000014
  0
LINE
  5
1E5
330
1F
100
AcDbEntity
  8
0
  6
Continuous
 62
     7
370
    15
100
AcDbLine
 10
1546.2040437628
 20
2175.2338798833
 30
0.0
 11
1546.2040437628
 21
2177.8782632318
 31
0.0
  0
ARC
  5
1E6
330
1F
100
AcDbEntity
  8
0
  6
Continuous
 62
     7
370
    15
100
AcDbCircle
 10
-506.7959295344
 20
2191.5560716879
 30
0.0
 40
6.450000000000108
100
AcDbArc
 50
5.2179949694
 51
113.6988649797
  0
ARC
  5
1E7
330
1F
100
AcDbEntity
  8
0
  6
Continuous
 62
     7
370
    15
100
AcDbCircle
 10
-506.7959295344
 20
2191.5560716879
 30
0.0
 40
6.450000000000112
100
AcDbArc
 50
246.3011350203
 51
5.2179949694
  0
LINE
  5
1E8
330
1F
100
AcDbEntity
  8
0
  6
Continuous
 62
     7
370
    15
100
AcDbLine
 10
-499.3768034261
 20
2192.2336145653
 30
0.0
 11
-499.3459296171
 21
2191.5560716879
 31
0.0
  0
ARC
  5
1E9
330
1F
100
AcDbEntity
  8
0
  6
Continuous
 62
     7
370
    15
100
AcDbCircle
 10
-506.7959295344
 20
2191.5560716879
 30
0.0
 40
7.450000000000209
100
AcDbArc
 50
249.6362271276
 51
297.136330446
  0
ARC
  5
1EA
330
1F
100
AcDbEntity
  8
0
  6
Continuous
 62
     7
370
    15
100
AcDbCircle
 10
-506.7959295344
 20
2191.5560716879
 30
0.0
 40
7.450000000000039
100
AcDbArc
 50
5.2179949694
 51
110.3637728724
  0
CIRCLE
  5
1EB
330
1F
100
AcDbEntity
  8
0
  6
Continuous
 62
     7
370
    15
100
AcDbCircle
 10
-507.1824472914
 20
2195.7884591966
 30
0.0
 40
1.25000000000015
  0
CIRCLE
  5
1EC
330
1F
100
AcDbEntity
  8
0
  6
Continuous
 62
     7
370
    15
100
AcDbCircle
 10
-502.5635420257
 20
2191.942589445
 30
0.0
 40
1.249999999999785
  0
CIRCLE
  5
1ED
330
1F
100
AcDbEntity
  8
0
  6
Continuous
 62
     7
370
    15
100
AcDbCircle
 10
-506.4094117773
 20
2187.3236841793
 30
0.0
 40
1.249999999999924
  0
CIRCLE
  5
1EE
330
1F
100
AcDbEntity
  8
0
  6
Continuous
 62
     7
370
    15
100
AcDbCircle
 10
853.2040704656
 20
2191.5560716879
 30
0.0
 40
6.450000000000108
  0
CIRCLE
  5
1EF
330
1F
100
AcDbEntity
  8
0
  6
Continuous
 62
     7
370
    15
100
AcDbCircle
 10
853.2040704656
 20
2191.5560716879
 30
0.0
 40
7.450000000000039
  0
CIRCLE
  5
1F0
330
1F
100
AcDbEntity
  8
0
  6
Continuous
 62
     7
370
    15
100
AcDbCircle
 10
852.8175527086
 20
2195.7884591966
 30
0.0
 40
1.250000000000094
  0
CIRCLE
  5
1F1
330
1F
100
AcDbEntity
  8
0
  6
Continuous
 62
     7
370
    15
100
AcDbCircle
 10
857.4364579743
 20
2191.942589445
 30
0.0
 40
1.250000000000011
  0
CIRCLE
  5
1F2
330
1F
100
AcDbEntity
  8
0
  6
Continuous
 62
     7
370
    15
100
AcDbCircle
 10
853.5905882227
 20
2187.3236841793
 30
0.0
 40
1.249999999999867
  0
CIRCLE
  5
1F3
330
1F
100
AcDbEntity
  8
0
  6
Continuous
 62
     7
370
    15
100
AcDbCircle
 10
848.971682957
 20
2191.1695539309
 30
0.0
 40
1.249999999999867
  0
CIRCLE
  5
1F4
330
1F
100
AcDbEntity
  8
0
  6
Continuous
 62
     7
370
    15
100
AcDbCircle
 10
1533.2040704656
 20
2191.5560716879
 30
0.0
 40
6.449999999999995
  0
CIRCLE
  5
1F5
330
1F
100
AcDbEntity
  8
0
  6
Continuous
 62
     7
370
    15
100
AcDbCircle
 10
1533.2040704656
 20
2191.5560716879
 30
0.0
 40
7.450000000000152
  0
CIRCLE
  5
1F6
330
1F
100
AcDbEntity
  8
0
  6
Continuous
 62
     7
370
    15
100
AcDbCircle
 10
1528.971682957
 20
2191.1695539309
 30
0.0
 40
1.24999999999998
  0
CIRCLE
  5
1F7
330
1F
100
AcDbEntity
  8
0
  6
Continuous
 62
     7
370
    15
100
AcDbCircle
 10
1532.8175527086
 20
2195.7884591966
 30
0.0
 40
1.24999999999998
  0
CIRCLE
  5
1F8
330
1F
100
AcDbEntity
  8
0
  6
Continuous
 62
     7
370
    15
100
AcDbCircle
 10
1537.4364579743
 20
2191.942589445
 30
0.0
 40
1.249999999999898
  0
CIRCLE
  5
1F9
330
1F
100
AcDbEntity
  8
0
  6
Continuous
 62
     7
370
    15
100
AcDbCircle
 10
1533.5905882227
 20
2187.3236841793
 30
0.0
 40
1.249999999999754
  0
ARC
  5
1FA
330
1F
100
AcDbEntity
  8
0
  6
Continuous
 62
     7
370
    15
100
AcDbCircle
 10
1533.2040704656
 20
2191.5560716879
 30
0.0
 40
14.99999999999937
100
AcDbArc
 50
56.4426902381
 51
123.5573097619
  0
ARC
  5
1FB
330
1F
100
AcDbEntity
  8
0
  6
Continuous
 62
     7
370
    15
100
AcDbCircle
 10
1533.2040704656
 20
2191.5560716879
 30
0.0
 40
15.00000000000013
100
AcDbArc
 50
236.4426902381
 51
303.5573097619
  0
LINE
  5
1FC
330
1F
100
AcDbEntity
  8
0
  6
Continuous
 62
     7
370
    15
100
AcDbLine
 10
1560.2039827276
 20
2178.4793751431
 30
0.0
 11
1559.9948896337
 21
2178.0560713378
 31
0.0
  0
ARC
  5
1FD
330
1F
100
AcDbEntity
  8
0
  6
Continuous
 62
     7
370
    15
100
AcDbCircle
 10
1533.2040704656
 20
2191.5560716879
 30
0.0
 40
30.00000000000022
100
AcDbArc
 50
204.6243183522
 51
326.4203433763
  0
ARC
  5
1FE
330
1F
100
AcDbEntity
  8
0
  6
Continuous
 62
     7
370
    15
100
AcDbCircle
 10
1533.2040704656
 20
2191.5560716879
 30
0.0
 40
30.00000000000024
100
AcDbArc
 50
24.6243183522
 51
155.3756816478
  0
ARC
  5
1FF
330
1F
100
AcDbEntity
  8
0
  6
Continuous
 62
     7
370
    15
100
AcDbCircle
 10
-506.7959295344
 20
2191.5560716879
 30
0.0
 40
14.99999999999929
100
AcDbArc
 50
56.4426902381
 51
92.0800448109
  0
ARC
  5
200
330
1F
100
AcDbEntity
  8
0
  6
Continuous
 62
     7
370
    15
100
AcDbCircle
 10
-506.7959295344
 20
2191.5560716879
 30
0.0
 40
15.00000000000003
100
AcDbArc
 50
260.0476127032
 51
303.5573097619
  0
ARC
  5
201
330
1F
100
AcDbEntity
  8
0
  6
Continuous
 62
     7
370
    15
100
AcDbCircle
 10
-506.7959295344
 20
2191.5560716879
 30
0.0
 40
30.00000000000032
100
AcDbArc
 50
265.0426095292
 51
335.3756816478
  0
ARC
  5
202
330
1F
100
AcDbEntity
  8
0
  6
Continuous
 62
     7
370
    15
100
AcDbCircle
 10
-506.7959295344
 20
2191.5560716879
 30
0.0
 40
29.99999999999994
100
AcDbArc
 50
24.6243183522
 51
71.3034324362
  0
ARC
  5
203
330
1F
100
AcDbEntity
  8
0
  6
Continuous
 62
     7
370
    15
100
AcDbCircle
 10
853.2040704656
 20
2191.5560716879
 30
0.0
 40
14.99999999999931
100
AcDbArc
 50
56.4426902381
 51
123.5573097619
  0
ARC
  5
204
330
1F
100
AcDbEntity
  8
0
  6
Continuous
 62
     7
370
    15
100
AcDbCircle
 10
853.2040704656
 20
2191.5560716879
 30
0.0
 40
15.00000000000006
100
AcDbArc
 50
236.4426902381
 51
303.5573097619
  0
ARC
  5
205
330
1F
100
AcDbEntity
  8
0
  6
Continuous
 62
     7
370
    15
100
AcDbCircle
 10
853.2040704656
 20
2191.5560716879
 30
0.0
 40
30.00000000000032
100
AcDbArc
 50
204.6243183522
 51
335.3756816478
  0
ARC
  5
206
330
1F
100
AcDbEntity
  8
0
  6
Continuous
 62
     7
370
    15
100
AcDbCircle
 10
853.2040704656
 20
2191.5560716879
 30
0.0
 40
29.99999999999994
100
AcDbArc
 50
24.6243183522
 51
155.3756816478
  0
ARC
  5
207
330
1F
100
AcDbEntity
  8
0
  6
Continuous
 62
     7
370
    15
100
AcDbCircle
 10
173.2040704656
 20
2191.5560716879
 30
0.0
 40
30.00000000000036
100
AcDbArc
 50
305.4682544794
 51
335.3756816478
  0
ARC
  5
208
330
1F
100
AcDbEntity
  8
0
  6
Continuous
 62
     7
370
    15
100
AcDbCircle
 10
173.2040704656
 20
2191.5560716879
 30
0.0
 40
30.00000000000038
100
AcDbArc
 50
204.6243183522
 51
245.1813083337
  0
ARC
  5
209
330
1F
100
AcDbEntity
  8
0
  6
Continuous
 62
     7
370
    15
100
AcDbCircle
 10
173.2040704656
 20
2191.5560716879
 30
0.0
 40
29.99999999999982
100
AcDbArc
 50
134.534033527
 51
155.3756816478
  0
ARC
  5
20A
330
1F
100
AcDbEntity
  8
0
  6
Continuous
 62
     7
370
    15
100
AcDbCircle
 10
173.2040704656
 20
2191.5560716879
 30
0.0
 40
29.99999999999979
100
AcDbArc
 50
24.6243183522
 51
38.3001467462
  0
LINE
  5
20B
330
1F
100
AcDbEntity
  8
0
  6
Continuous
 62
     7
370
    15
100
AcDbLine
 10
245.7040680814
 20
97.0560068381
 30
0.0
 11
245.7040680814
 21
96.0560793173
 31
0.0
  0
ARC
  5
20C
330
1F
100
AcDbEntity
  8
0
  6
Continuous
 62
     7
370
    15
100
AcDbCircle
 10
264.2040704656
 20
97.0560716879
 30
0.0
 40
18.50000000000009
100
AcDbArc
 50
0.0
 51
180.0
  0
LINE
  5
20D
330
1F
100
AcDbEntity
  8
0
  6
Continuous
 62
     7
370
    15
100
AcDbLine
 10
282.7040685583
 20
96.0560793173
 30
0.0
 11
282.7040685583
 21
97.0560068381
 31
0.0
  0
LINE
  5
20E
330
1F
100
AcDbEntity
  8
0
  6
Continuous
 62
     7
370
    15
100
AcDbLine
 10
245.7040680814
 20
96.0560793173
 30
0.0
 11
282.7040685583
 21
96.0560793173
 31
0.0
  0
LINE
  5
20F
330
1F
100
AcDbEntity
  8
0
  6
Continuous
 62
     7
370
    15
100
AcDbLine
 10
245.2040447164
 20
96.0560793173
 30
0.0
 11
245.2040447164
 21
97.0560068381
 31
0.0
  0
LINE
  5
210
330
1F
100
AcDbEntity
  8
0
  6
Continuous
 62
     7
370
    15
100
AcDbLine
 10
245.2040447164
 20
97.0560068381
 30
0.0
 11
245.7040680814
 21
97.0560068381
 31
0.0
  0
LINE
  5
211
330
1F
100
AcDbEntity
  8
0
  6
Continuous
 62
     7
370
    15
100
AcDbLine
 10
245.7040680814
 20
96.0560793173
 30
0.0
 11
245.2040447164
 21
96.0560793173
 31
0.0
  0
LINE
  5
212
330
1F
100
AcDbEntity
  8
0
  6
Continuous
 62
     7
370
    15
100
AcDbLine
 10
283.2040919233
 20
97.0560068381
 30
0.0
 11
282.7040685583
 21
97.0560068381
 31
0.0
  0
LINE
  5
213
330
1F
100
AcDbEntity
  8
0
  6
Continuous
 62
     7
370
    15
100
AcDbLine
 10
283.2040919233
 20
97.0560068381
 30
0.0
 11
283.2040919233
 21
96.0560793173
 31
0.0
  0
LINE
  5
214
330
1F
100
AcDbEntity
  8
0
  6
Continuous
 62
     7
370
    15
100
AcDbLine
 10
283.2040919233
 20
96.0560793173
 30
0.0
 11
282.7040685583
 21
96.0560793173
 31
0.0
  0
ARC
  5
215
330
1F
100
AcDbEntity
  8
0
  6
Continuous
 62
     7
370
    15
100
AcDbCircle
 10
264.2040704656
 20
97.0560716879
 30
0.0
 40
19.00000000000003
100
AcDbArc
 50
0.0
 51
180.0
  0
CIRCLE
  5
216
330
1F
100
AcDbEntity
  8
0
  6
Continuous
 62
     7
370
    15
100
AcDbCircle
 10
-524.3883756959
 20
2170.0060540699
 30
0.0
 40
14.99999999999999
  0
CIRCLE
  5
217
330
1F
100
AcDbEntity
  8
0
  6
Continuous
 62
     7
370
    15
100
AcDbCircle
 10
-524.3883756959
 20
2170.0060540699
 30
0.0
 40
12.99999999999994
  0
CIRCLE
  5
218
330
1F
100
AcDbEntity
  8
0
  6
Continuous
 62
     7
370
    15
100
AcDbCircle
 10
-523.8655411445
 20
2163.2763331223
 30
0.0
 40
1.249999999999867
  0
CIRCLE
  5
219
330
1F
100
AcDbEntity
  8
0
  6
Continuous
 62
     7
370
    15
100
AcDbCircle
 10
-517.6586547483
 20
2170.5288886212
 30
0.0
 40
1.249999999999903
  0
CIRCLE
  5
21A
330
1F
100
AcDbEntity
  8
0
  6
Continuous
 62
     7
370
    15
100
AcDbCircle
 10
-524.9112102472
 20
2176.7357750174
 30
0.0
 40
1.250000000000094
  0
CIRCLE
  5
21B
330
1F
100
AcDbEntity
  8
0
  6
Continuous
 62
     7
370
    15
100
AcDbCircle
 10
-531.1180966434
 20
2169.4832195185
 30
0.0
 40
1.249999999999867
  0
CIRCLE
  5
21C
330
1F
100
AcDbEntity
  8
0
  6
Continuous
 62
     7
370
    15
100
AcDbCircle
 10
175.6116243041
 20
2170.0060540699
 30
0.0
 40
15.00000000000002
  0
CIRCLE
  5
21D
330
1F
100
AcDbEntity
  8
0
  6
Continuous
 62
     7
370
    15
100
AcDbCircle
 10
175.6116243041
 20
2170.0060540699
 30
0.0
 40
13.0
  0
CIRCLE
  5
21E
330
1F
100
AcDbEntity
  8
0
  6
Continuous
 62
     7
370
    15
100
AcDbCircle
 10
175.0887897528
 20
2176.7357750174
 30
0.0
 40
1.249999999999952
  0
CIRCLE
  5
21F
330
1F
100
AcDbEntity
  8
0
  6
Continuous
 62
     7
370
    15
100
AcDbCircle
 10
182.3413452517
 20
2170.5288886212
 30
0.0
 40
1.250000000000016
  0
CIRCLE
  5
220
330
1F
100
AcDbEntity
  8
0
  6
Continuous
 62
     7
370
    15
100
AcDbCircle
 10
168.8819033566
 20
2169.4832195185
 30
0.0
 40
1.249999999999981
  0
CIRCLE
  5
221
330
1F
100
AcDbEntity
  8
0
  6
Continuous
 62
     7
370
    15
100
AcDbCircle
 10
176.1344588555
 20
2163.2763331223
 30
0.0
 40
1.249999999999952
  0
ARC
  5
222
330
1F
100
AcDbEntity
  8
0
  6
Continuous
 62
     7
370
    15
100
AcDbCircle
 10
175.6116243041
 20
2230.0060540699
 30
0.0
 40
28.99999999999988
100
AcDbArc
 50
43.1678889426
 51
238.8526100785
  0
ARC
  5
223
330
1F
100
AcDbEntity
  8
0
  6
Continuous
 62
     7
370
    15
100
AcDbCircle
 10
175.6116243041
 20
2230.0060540699
 30
0.0
 40
28.99999999999986
100
AcDbArc
 50
301.1473899215
 51
43.1678889426
  0
ARC
  5
224
330
1F
100
AcDbEntity
  8
0
  6
Continuous
 62
     7
370
    15
100
AcDbCircle
 10
-524.3883756959
 20
2230.0060540699
 30
0.0
 40
28.99999999999986
100
AcDbArc
 50
43.1678889426
 51
238.8526100785
  0
ARC
  5
225
330
1F
100
AcDbEntity
  8
0
  6
Continuous
 62
     7
370
    15
100
AcDbCircle
 10
-524.3883756959
 20
2230.0060540699
 30
0.0
 40
28.9999999999999
100
AcDbArc
 50
301.1473899215
 51
43.1678889426
  0
CIRCLE
  5
226
330
1F
100
AcDbEntity
  8
0
  6
Continuous
 62
     7
370
    15
100
AcDbCircle
 10
-524.3383756959
 20
2099.0560716879
 30
0.0
 40
12.99999999999996
  0
CIRCLE
  5
227
330
1F
100
AcDbEntity
  8
0
  6
Continuous
 62
     7
370
    15
100
AcDbCircle
 10
-522.6603488967
 20
2092.5179736418
 30
0.0
 40
1.250000000000122
  0
CIRCLE
  5
228
330
1F
100
AcDbEntity
  8
0
  6
Continuous
 62
     7
370
    15
100
AcDbCircle
 10
-530.8764737421
 20
2097.3780448888
 30
0.0
 40
1.250000000000122
  0
CIRCLE
  5
229
330
1F
100
AcDbEntity
  8
0
  6
Continuous
 62
     7
370
    15
100
AcDbCircle
 10
-517.8002776497
 20
2100.7340984871
 30
0.0
 40
1.249999999999902
  0
CIRCLE
  5
22A
330
1F
100
AcDbEntity
  8
0
  6
Continuous
 62
     7
370
    15
100
AcDbCircle
 10
-526.016402495
 20
2105.5941697341
 30
0.0
 40
1.249999999999902
  0
CIRCLE
  5
22B
330
1F
100
AcDbEntity
  8
0
  6
Continuous
 62
     7
370
    15
100
AcDbCircle
 10
-524.3383756959
 20
2099.0560716879
 30
0.0
 40
14.99999999999992
  0
CIRCLE
  5
22C
330
1F
100
AcDbEntity
  8
0
  6
Continuous
 62
     7
370
    15
100
AcDbCircle
 10
175.6616243041
 20
2099.0560716879
 30
0.0
 40
13.00000000000007
  0
CIRCLE
  5
22D
330
1F
100
AcDbEntity
  8
0
  6
Continuous
 62
     7
370
    15
100
AcDbCircle
 10
177.3396511033
 20
2092.5179736418
 30
0.0
 40
1.250000000000012
  0
CIRCLE
  5
22E
330
1F
100
AcDbEntity
  8
0
  6
Continuous
 62
     7
370
    15
100
AcDbCircle
 10
182.1997223503
 20
2100.7340984871
 30
0.0
 40
1.250000000000012
  0
CIRCLE
  5
22F
330
1F
100
AcDbEntity
  8
0
  6
Continuous
 62
     7
370
    15
100
AcDbCircle
 10
173.983597505
 20
2105.5941697341
 30
0.0
 40
1.250000000000012
  0
CIRCLE
  5
230
330
1F
100
AcDbEntity
  8
0
  6
Continuous
 62
     7
370
    15
100
AcDbCircle
 10
169.1235262579
 20
2097.3780448888
 30
0.0
 40
1.249999999999874
  0
CIRCLE
  5
231
330
1F
100
AcDbEntity
  8
0
  6
Continuous
 62
     7
370
    15
100
AcDbCircle
 10
175.6616243041
 20
2099.0560716879
 30
0.0
 40
15.00000000000003
  0
CIRCLE
  5
232
330
1F
100
AcDbEntity
  8
0
  6
Continuous
 62
     7
370
    15
100
AcDbCircle
 10
-524.3383756959
 20
2044.0560716879
 30
0.0
 40
13.00000000000011
  0
CIRCLE
  5
233
330
1F
100
AcDbEntity
  8
0
  6
Continuous
 62
     7
370
    15
100
AcDbCircle
 10
-525.2831630258
 20
2037.3725189724
 30
0.0
 40
1.250000000000088
  0
CIRCLE
  5
234
330
1F
100
AcDbEntity
  8
0
  6
Continuous
 62
     7
370
    15
100
AcDbCircle
 10
-517.6548229804
 20
2043.111284358
 30
0.0
 40
1.249999999999976
  0
CIRCLE
  5
235
330
1F
100
AcDbEntity
  8
0
  6
Continuous
 62
     7
370
    15
100
AcDbCircle
 10
-523.393588366
 20
2050.7396244035
 30
0.0
 40
1.249999999999976
  0
CIRCLE
  5
236
330
1F
100
AcDbEntity
  8
0
  6
Continuous
 62
     7
370
    15
100
AcDbCircle
 10
-531.0219284114
 20
2045.0008590179
 30
0.0
 40
1.250000000000088
  0
CIRCLE
  5
237
330
1F
100
AcDbEntity
  8
0
  6
Continuous
 62
     7
370
    15
100
AcDbCircle
 10
-524.3383756959
 20
2044.0560716879
 30
0.0
 40
15.00000000000019
  0
CIRCLE
  5
238
330
1F
100
AcDbEntity
  8
0
  6
Continuous
 62
     7
370
    15
100
AcDbCircle
 10
175.6616243041
 20
2044.0560716879
 30
0.0
 40
13.00000000000002
  0
CIRCLE
  5
239
330
1F
100
AcDbEntity
  8
0
  6
Continuous
 62
     7
370
    15
100
AcDbCircle
 10
174.7168369742
 20
2037.3725189724
 30
0.0
 40
1.250000000000032
  0
CIRCLE
  5
23A
330
1F
100
AcDbEntity
  8
0
  6
Continuous
 62
     7
370
    15
100
AcDbCircle
 10
182.3451770196
 20
2043.111284358
 30
0.0
 40
1.249999999999919
  0
CIRCLE
  5
23B
330
1F
100
AcDbEntity
  8
0
  6
Continuous
 62
     7
370
    15
100
AcDbCircle
 10
176.606411634
 20
2050.7396244035
 30
0.0
 40
1.249999999999919
  0
CIRCLE
  5
23C
330
1F
100
AcDbEntity
  8
0
  6
Continuous
 62
     7
370
    15
100
AcDbCircle
 10
168.9780715886
 20
2045.0008590179
 30
0.0
 40
1.249999999999891
  0
CIRCLE
  5
23D
330
1F
100
AcDbEntity
  8
0
  6
Continuous
 62
     7
370
    15
100
AcDbCircle
 10
175.6616243041
 20
2044.0560716879
 30
0.0
 40
15.00000000000008
  0
CIRCLE
  5
23E
330
1F
100
AcDbEntity
  8
0
  6
Continuous
 62
     7
370
    15
100
AcDbCircle
 10
-524.2232177644
 20
2236.7540332383
 30
0.0
 40
1.250000000000019
  0
CIRCLE
  5
23F
330
1F
100
AcDbEntity
  8
0
  6
Continuous
 62
     7
370
    15
100
AcDbCircle
 10
-517.6403965275
 20
2229.8408961384
 30
0.0
 40
1.250000000000019
  0
CIRCLE
  5
240
330
1F
100
AcDbEntity
  8
0
  6
Continuous
 62
     7
370
    15
100
AcDbCircle
 10
-524.5535336274
 20
2223.2580749015
 30
0.0
 40
1.250000000000019
  0
CIRCLE
  5
241
330
1F
100
AcDbEntity
  8
0
  6
Continuous
 62
     7
370
    15
100
AcDbCircle
 10
-531.1363548643
 20
2230.1712120014
 30
0.0
 40
1.250000000000019
  0
CIRCLE
  5
242
330
1F
100
AcDbEntity
  8
0
  6
Continuous
 62
     7
370
    15
100
AcDbCircle
 10
-524.3883756959
 20
2230.0060540699
 30
0.0
 40
13.00000000000027
  0
CIRCLE
  5
243
330
1F
100
AcDbEntity
  8
0
  6
Continuous
 62
     7
370
    15
100
AcDbCircle
 10
-524.3883756959
 20
2230.0060540699
 30
0.0
 40
14.99999999999974
  0
CIRCLE
  5
244
330
1F
100
AcDbEntity
  8
0
  6
Continuous
 62
     7
370
    15
100
AcDbCircle
 10
175.6116243041
 20
2230.0060540699
 30
0.0
 40
14.99999999999974
  0
CIRCLE
  5
245
330
1F
100
AcDbEntity
  8
0
  6
Continuous
 62
     7
370
    15
100
AcDbCircle
 10
175.6116243041
 20
2230.0060540699
 30
0.0
 40
13.00000000000026
  0
CIRCLE
  5
246
330
1F
100
AcDbEntity
  8
0
  6
Continuous
 62
     7
370
    15
100
AcDbCircle
 10
168.8636451357
 20
2230.1712120014
 30
0.0
 40
1.250000000000016
  0
CIRCLE
  5
247
330
1F
100
AcDbEntity
  8
0
  6
Continuous
 62
     7
370
    15
100
AcDbCircle
 10
175.4464663726
 20
2223.2580749015
 30
0.0
 40
1.250000000000016
  0
CIRCLE
  5
248
330
1F
100
AcDbEntity
  8
0
  6
Continuous
 62
     7
370
    15
100
AcDbCircle
 10
175.7767822356
 20
2236.7540332383
 30
0.0
 40
1.250000000000016
  0
CIRCLE
  5
249
330
1F
100
AcDbEntity
  8
0
  6
Continuous
 62
     7
370
    15
100
AcDbCircle
 10
182.3596034725
 20
2229.8408961384
 30
0.0
 40
1.250000000000016
  0
LINE
  5
24A
330
1F
100
AcDbEntity
  8
0
  6
Continuous
 62
     7
370
    15
100
AcDbLine
 10
190.6116141248
 20
2230.0060557318
 30
0.0
 11
190.6116141248
 21
2100.2797985566
 31
0.0
  0
LINE
  5
24B
330
1F
100
AcDbEntity
  8
0
  6
Continuous
 62
     7
370
    15
100
AcDbLine
 10
190.6116141248
 20
2097.8323498857
 30
0.0
 11
190.6116141248
 21
2045.279791404
 31
0.0
  0
LINE
  5
24C
330
1F
100
AcDbEntity
  8
0
  6
Continuous
 62
     7
370
    15
100
AcDbLine
 10
190.6116141248
 20
2042.8323501837
 30
0.0
 11
190.6116141248
 21
2041.0060489666
 31
0.0
  0
ARC
  5
24D
330
1F
100
AcDbEntity
  8
0
  6
Continuous
 62
     7
370
    15
100
AcDbCircle
 10
175.6116243041
 20
2041.0060540699
 30
0.0
 40
15.00000000000003
100
AcDbArc
 50
180.0
 51
0.0
  0
LINE
  5
24E
330
1F
100
AcDbEntity
  8
0
  6
Continuous
 62
     7
370
    15
100
AcDbLine
 10
160.6116427351
 20
2041.0060489666
 30
0.0
 11
160.6116427351
 21
2230.0060557318
 31
0.0
  0
LINE
  5
24F
330
1F
100
AcDbEntity
  8
0
  6
Continuous
 62
     7
370
    15
100
AcDbLine
 10
-509.388375584
 20
2230.0060557318
 30
0.0
 11
-509.388375584
 21
2100.2797985566
 31
0.0
  0
LINE
  5
250
330
1F
100
AcDbEntity
  8
0
  6
Continuous
 62
     7
370
    15
100
AcDbLine
 10
-509.388375584
 20
2097.8323498857
 30
0.0
 11
-509.388375584
 21
2045.279791404
 31
0.0
  0
LINE
  5
251
330
1F
100
AcDbEntity
  8
0
  6
Continuous
 62
     7
370
    15
100
AcDbLine
 10
-509.388375584
 20
2042.8323501837
 30
0.0
 11
-509.388375584
 21
2041.0060489666
 31
0.0
  0
ARC
  5
252
330
1F
100
AcDbEntity
  8
0
  6
Continuous
 62
     7
370
    15
100
AcDbCircle
 10
-524.3883756959
 20
2041.0060540699
 30
0.0
 40
15.0
100
AcDbArc
 50
180.0
 51
0.0
  0
LINE
  5
253
330
1F
100
AcDbEntity
  8
0
  6
Continuous
 62
     7
370
    15
100
AcDbLine
 10
-539.3883751463
 20
2041.0060489666
 30
0.0
 11
-539.3883751463
 21
2230.0060557318
 31
0.0
  0
LINE
  5
254
330
1F
100
AcDbEntity
  8
0
  6
Continuous
 62
     7
370
    15
100
AcDbLine
 10
275.6616009641
 20
2154.0560701978
 30
0.0
 11
190.6116141248
 21
2154.0560701978
 31
0.0
  0
LINE
  5
255
330
1F
100
AcDbEntity
  8
0
  6
Continuous
 62
     7
370
    15
100
AcDbLine
 10
160.6116427351
 20
2154.0560701978
 30
0.0
 11
-509.388375584
 21
2154.0560701978
 31
0.0
  0
LINE
  5
256
330
1F
100
AcDbEntity
  8
0
  6
Continuous
 62
     7
370
    15
100
AcDbLine
 10
-539.3883751463
 20
2154.0560701978
 30
0.0
 11
-624.338375194
 21
2154.0560701978
 31
0.0
  0
LINE
  5
257
330
1F
100
AcDbEntity
  8
0
  6
Continuous
 62
     7
370
    15
100
AcDbLine
 10
-624.338375194
 20
104.0559763205
 30
0.0
 11
246.5405596662
 21
104.0559763205
 31
0.0
  0
LINE
  5
258
330
1F
100
AcDbEntity
  8
0
  6
Continuous
 62
     7
370
    15
100
AcDbLine
 10
275.6616009641
 20
112.2127527487
 30
0.0
 11
275.6616009641
 21
2154.0560701978
 31
0.0
  0
LINE
  5
259
330
1F
100
AcDbEntity
  8
0
  6
Continuous
 62
     7
370
    15
100
AcDbLine
 10
-624.338375194
 20
2154.0560701978
 30
0.0
 11
-624.338375194
 21
104.0559763205
 31
0.0
  0
LINE
  5
25A
330
1F
100
AcDbEntity
  8
0
  6
Continuous
 62
     8
370
    15
100
AcDbLine
 10
-542.0959310364
 20
2171.6060711187
 30
0.0
 11
-542.0959310364
 21
2183.5060713929
 31
0.0
  0
LINE
  5
25B
330
1F
100
AcDbEntity
  8
0
  6
Continuous
 62
     8
370
    15
100
AcDbLine
 10
1562.5040067602
 20
2183.5060713929
 30
0.0
 11
1562.5040067602
 21
2171.6060711187
 31
0.0
  0
LINE
  5
25C
330
1F
100
AcDbEntity
  8
0
  6
Continuous
 62
     8
370
    15
100
AcDbLine
 10
1553.7194742132
 20
2179.3071961147
 30
0.0
 11
1553.7194742132
 21
2179.3697307003
 31
0.0
  0
LINE
  5
25D
330
1F
100
AcDbEntity
  8
0
  6
Continuous
 62
     8
370
    15
100
AcDbLine
 10
1553.7194742132
 20
2173.7424133462
 30
0.0
 11
1553.7194742132
 21
2179.3071961147
 31
0.0
  0
LINE
  5
25E
330
1F
100
AcDbEntity
  8
0
  6
Continuous
 62
     8
370
    15
100
AcDbLine
 10
1556.5270914007
 20
2178.7515141186
 30
0.0
 11
1556.5270914007
 21
2174.3606289965
 31
0.0
  0
LINE
  5
25F
330
1F
100
AcDbEntity
  8
0
  6
Continuous
 62
     8
370
    15
100
AcDbLine
 10
1547.1293462682
 20
2178.8754619774
 30
0.0
 11
1547.1293462682
 21
2174.2366811377
 31
0.0
  0
LINE
  5
260
330
1F
100
AcDbEntity
  8
0
  6
Continuous
 62
     8
370
    15
100
AcDbLine
 10
1559.2040552068
 20
2178.0560713378
 30
0.0
 11
1559.2040552068
 21
2175.0560717773
 31
0.0
  0
LINE
  5
261
330
1F
100
AcDbEntity
  8
0
  6
Continuous
 62
     7
370
    15
100
AcDbLine
 10
1662.2039808202
 20
-334.2660839345
 30
0.0
 11
1663.2041467596
 21
-333.2660856332
 31
0.0
  0
LINE
  5
262
330
1F
100
AcDbEntity
  8
0
  6
Continuous
 62
     7
370
    15
100
AcDbLine
 10
1663.2041467596
 20
-310.2660837259
 30
0.0
 11
1662.2039808202
 21
-309.2660844933
 31
0.0
  0
LINE
  5
263
330
1F
100
AcDbEntity
  8
0
  6
Continuous
 62
     7
370
    15
100
AcDbLine
 10
-635.7959227394
 20
-309.2660844933
 30
0.0
 11
-636.795924766
 21
-310.2660837259
 31
0.0
  0
LINE
  5
264
330
1F
100
AcDbEntity
  8
0
  6
Continuous
 62
     7
370
    15
100
AcDbLine
 10
-636.795924766
 20
-333.2660856332
 30
0.0
 11
-635.7959227394
 21
-334.2660839345
 31
0.0
  0
LINE
  5
265
330
1F
100
AcDbEntity
  8
0
  6
Continuous
 62
     7
370
    15
100
AcDbLine
 10
1540.7540334631
 20
-334.2660839345
 30
0.0
 11
1593.720151322
 21
-334.2660839345
 31
0.0
  0
LINE
  5
266
330
1F
100
AcDbEntity
  8
0
  6
Continuous
 62
     7
370
    15
100
AcDbLine
 10
1631.7729486395
 20
-334.2660839345
 30
0.0
 11
1662.2039808202
 21
-334.2660839345
 31
0.0
  0
LINE
  5
267
330
1F
100
AcDbEntity
  8
0
  6
Continuous
 62
     7
370
    15
100
AcDbLine
 10
860.7540859152
 20
-334.2660839345
 30
0.0
 11
1525.6859792638
 21
-334.2660839345
 31
0.0
  0
LINE
  5
268
330
1F
100
AcDbEntity
  8
0
  6
Continuous
 62
     7
370
    15
100
AcDbLine
 10
190.6116141248
 20
-334.2660839345
 30
0.0
 11
845.6860317159
 21
-334.2660839345
 31
0.0
  0
LINE
  5
269
330
1F
100
AcDbEntity
  8
0
  6
Continuous
 62
     7
370
    15
100
AcDbLine
 10
-499.2459293213
 20
-334.2660839345
 30
0.0
 11
160.6116427351
 21
-334.2660839345
 31
0.0
  0
LINE
  5
26A
330
1F
100
AcDbEntity
  8
0
  6
Continuous
 62
     7
370
    15
100
AcDbLine
 10
-635.7959227394
 20
-334.2660839345
 30
0.0
 11
-595.2798070144
 21
-334.2660839345
 31
0.0
  0
LINE
  5
26B
330
1F
100
AcDbEntity
  8
0
  6
Continuous
 62
     7
370
    15
100
AcDbLine
 10
-557.2270320486
 20
-334.2660839345
 30
0.0
 11
-539.3883751463
 21
-334.2660839345
 31
0.0
  0
LINE
  5
26C
330
1F
100
AcDbEntity
  8
0
  6
Continuous
 62
     7
370
    15
100
AcDbLine
 10
-537.8883758318
 20
-309.2660844933
 30
0.0
 11
-557.2972463202
 21
-309.2660844933
 31
0.0
  0
LINE
  5
26D
330
1F
100
AcDbEntity
  8
0
  6
Continuous
 62
     7
370
    15
100
AcDbLine
 10
-595.2885688972
 20
-309.2660844933
 30
0.0
 11
-635.7959227394
 21
-309.2660844933
 31
0.0
  0
LINE
  5
26E
330
1F
100
AcDbEntity
  8
0
  6
Continuous
 62
     7
370
    15
100
AcDbLine
 10
162.1116532255
 20
-309.2660844933
 30
0.0
 11
-499.3137915377
 21
-309.2660844933
 31
0.0
  0
LINE
  5
26F
330
1F
100
AcDbEntity
  8
0
  6
Continuous
 62
     7
370
    15
100
AcDbLine
 10
845.7040323187
 20
-309.2660844933
 30
0.0
 11
189.1116036344
 21
-309.2660844933
 31
0.0
  0
LINE
  5
270
330
1F
100
AcDbEntity
  8
0
  6
Continuous
 62
     7
370
    15
100
AcDbLine
 10
1525.7040990759
 20
-309.2660844933
 30
0.0
 11
860.6862558294
 21
-309.2660844933
 31
0.0
  0
LINE
  5
271
330
1F
100
AcDbEntity
  8
0
  6
Continuous
 62
     7
370
    15
100
AcDbLine
 10
1662.2039808202
 20
-309.2660844933
 30
0.0
 11
1631.7028535772
 21
-309.2660844933
 31
0.0
  0
LINE
  5
272
330
1F
100
AcDbEntity
  8
0
  6
Continuous
 62
     7
370
    15
100
AcDbLine
 10
1593.7113298345
 20
-309.2660844933
 30
0.0
 11
1540.6863225866
 21
-309.2660844933
 31
0.0
  0
LINE
  5
273
330
1F
100
AcDbEntity
  8
0
  6
Continuous
 62
     7
370
    15
100
AcDbLine
 10
190.6116141248
 20
-310.7660838078
 30
0.0
 11
188.611639874
 21
-308.7660839457
 31
0.0
  0
LINE
  5
274
330
1F
100
AcDbEntity
  8
0
  6
Continuous
 62
     7
370
    15
100
AcDbLine
 10
162.6116169859
 20
-308.7660839457
 30
0.0
 11
160.6116427351
 21
-310.7660838078
 31
0.0
  0
LINE
  5
275
330
1F
100
AcDbEntity
  8
0
  6
Continuous
 62
     7
370
    15
100
AcDbLine
 10
160.6116427351
 20
-310.7660838078
 30
0.0
 11
160.6116427351
 21
-311.7660839718
 31
0.0
  0
LINE
  5
276
330
1F
100
AcDbEntity
  8
0
  6
Continuous
 62
     7
370
    15
100
AcDbLine
 10
190.6116141248
 20
-311.7660839718
 30
0.0
 11
190.6116141248
 21
-310.7660838078
 31
0.0
  0
LINE
  5
277
330
1F
100
AcDbEntity
  8
0
  6
Continuous
 62
     7
370
    15
100
AcDbLine
 10
165.8616198469
 20
-311.7660839718
 30
0.0
 11
165.8616198469
 21
-312.1360844608
 31
0.0
  0
LINE
  5
278
330
1F
100
AcDbEntity
  8
0
  6
Continuous
 62
     7
370
    15
100
AcDbLine
 10
185.361637013
 20
-312.1360844608
 30
0.0
 11
185.361637013
 21
-311.7660839718
 31
0.0
  0
LINE
  5
279
330
1F
100
AcDbEntity
  8
0
  6
Continuous
 62
     7
370
    15
100
AcDbLine
 10
166.0316122938
 20
-312.6360845428
 30
0.0
 11
166.161610024
 21
-312.7660841357
 31
0.0
  0
LINE
  5
27A
330
1F
100
AcDbEntity
  8
0
  6
Continuous
 62
     7
370
    15
100
AcDbLine
 10
185.0616468359
 20
-312.7660841357
 30
0.0
 11
185.1916445661
 21
-312.6360845428
 31
0.0
  0
LINE
  5
27B
330
1F
100
AcDbEntity
  8
0
  6
Continuous
 62
     7
370
    15
100
AcDbLine
 10
-509.388375584
 20
-310.7660838078
 30
0.0
 11
-511.388375679
 21
-308.7660839457
 31
0.0
  0
LINE
  5
27C
330
1F
100
AcDbEntity
  8
0
  6
Continuous
 62
     7
370
    15
100
AcDbLine
 10
-537.3883748185
 20
-308.7660839457
 30
0.0
 11
-539.3883751463
 21
-310.7660838078
 31
0.0
  0
LINE
  5
27D
330
1F
100
AcDbEntity
  8
0
  6
Continuous
 62
     7
370
    15
100
AcDbLine
 10
-539.3883751463
 20
-310.7660838078
 30
0.0
 11
-539.3883751463
 21
-311.7660839718
 31
0.0
  0
LINE
  5
27E
330
1F
100
AcDbEntity
  8
0
  6
Continuous
 62
     7
370
    15
100
AcDbLine
 10
-509.388375584
 20
-311.7660839718
 30
0.0
 11
-509.388375584
 21
-310.7660838078
 31
0.0
  0
LINE
  5
27F
330
1F
100
AcDbEntity
  8
0
  6
Continuous
 62
     7
370
    15
100
AcDbLine
 10
-534.1383756828
 20
-311.7660839718
 30
0.0
 11
-534.1383756828
 21
-312.1360844608
 31
0.0
  0
LINE
  5
280
330
1F
100
AcDbEntity
  8
0
  6
Continuous
 62
     7
370
    15
100
AcDbLine
 10
-514.6383752804
 20
-312.1360844608
 30
0.0
 11
-514.6383752804
 21
-311.7660839718
 31
0.0
  0
LINE
  5
281
330
1F
100
AcDbEntity
  8
0
  6
Continuous
 62
     7
370
    15
100
AcDbLine
 10
-533.9683757853
 20
-312.6360845428
 30
0.0
 11
-533.8383761924
 21
-312.7660841357
 31
0.0
  0
LINE
  5
282
330
1F
100
AcDbEntity
  8
0
  6
Continuous
 62
     7
370
    15
100
AcDbLine
 10
-514.9383757021
 20
-312.7660841357
 30
0.0
 11
-514.8083761092
 21
-312.6360845428
 31
0.0
  0
LINE
  5
283
330
1F
100
AcDbEntity
  8
0
  6
Continuous
 62
     7
370
    15
100
AcDbLine
 10
190.6116141248
 20
-338.4660842504
 30
0.0
 11
190.6116141248
 21
-332.0660839464
 31
0.0
  0
LINE
  5
284
330
1F
100
AcDbEntity
  8
0
  6
Continuous
 62
     7
370
    15
100
AcDbLine
 10
160.6116427351
 20
-332.0660839464
 30
0.0
 11
160.6116427351
 21
-338.4660842504
 31
0.0
  0
LINE
  5
285
330
1F
100
AcDbEntity
  8
0
  6
Continuous
 62
     7
370
    15
100
AcDbLine
 10
190.6116141248
 20
-332.0660839464
 30
0.0
 11
190.3116239477
 21
-331.766084456
 31
0.0
  0
LINE
  5
286
330
1F
100
AcDbEntity
  8
0
  6
Continuous
 62
     7
370
    15
100
AcDbLine
 10
160.9116329122
 20
-331.766084456
 30
0.0
 11
160.6116427351
 21
-332.0660839464
 31
0.0
  0
LINE
  5
287
330
1F
100
AcDbEntity
  8
0
  6
Continuous
 62
     7
370
    15
100
AcDbLine
 10
160.6116427351
 20
-338.4660842504
 30
0.0
 11
160.9116329122
 21
-338.7660856034
 31
0.0
  0
LINE
  5
288
330
1F
100
AcDbEntity
  8
0
  6
Continuous
 62
     7
370
    15
100
AcDbLine
 10
190.3116239477
 20
-338.7660856034
 30
0.0
 11
190.6116141248
 21
-338.4660842504
 31
0.0
  0
LINE
  5
289
330
1F
100
AcDbEntity
  8
0
  6
Continuous
 62
     7
370
    15
100
AcDbLine
 10
185.1916445661
 20
-330.896083885
 30
0.0
 11
185.0616468359
 21
-330.7660842921
 31
0.0
  0
LINE
  5
28A
330
1F
100
AcDbEntity
  8
0
  6
Continuous
 62
     7
370
    15
100
AcDbLine
 10
166.161610024
 20
-330.7660842921
 30
0.0
 11
166.0316122938
 21
-330.896083885
 31
0.0
  0
LINE
  5
28B
330
1F
100
AcDbEntity
  8
0
  6
Continuous
 62
     7
370
    15
100
AcDbLine
 10
185.361637013
 20
-331.766084456
 30
0.0
 11
185.361637013
 21
-331.3960848983
 31
0.0
  0
LINE
  5
28C
330
1F
100
AcDbEntity
  8
0
  6
Continuous
 62
     7
370
    15
100
AcDbLine
 10
165.8616198469
 20
-331.3960848983
 30
0.0
 11
165.8616198469
 21
-331.766084456
 31
0.0
  0
LINE
  5
28D
330
1F
100
AcDbEntity
  8
0
  6
Continuous
 62
     7
370
    15
100
AcDbLine
 10
-509.388375584
 20
-332.0660839464
 30
0.0
 11
-509.6883757729
 21
-331.766084456
 31
0.0
  0
LINE
  5
28E
330
1F
100
AcDbEntity
  8
0
  6
Continuous
 62
     7
370
    15
100
AcDbLine
 10
-539.0883775186
 20
-331.766084456
 30
0.0
 11
-539.3883751463
 21
-332.0660839464
 31
0.0
  0
LINE
  5
28F
330
1F
100
AcDbEntity
  8
0
  6
Continuous
 62
     7
370
    15
100
AcDbLine
 10
-509.388375584
 20
-338.4660842504
 30
0.0
 11
-509.388375584
 21
-332.0660839464
 31
0.0
  0
LINE
  5
290
330
1F
100
AcDbEntity
  8
0
  6
Continuous
 62
     7
370
    15
100
AcDbLine
 10
-539.3883751463
 20
-332.0660839464
 30
0.0
 11
-539.3883751463
 21
-338.4660842504
 31
0.0
  0
LINE
  5
291
330
1F
100
AcDbEntity
  8
0
  6
Continuous
 62
     7
370
    15
100
AcDbLine
 10
-539.3883751463
 20
-338.4660842504
 30
0.0
 11
-539.0883775186
 21
-338.7660856034
 31
0.0
  0
LINE
  5
292
330
1F
100
AcDbEntity
  8
0
  6
Continuous
 62
     7
370
    15
100
AcDbLine
 10
-509.6883757729
 20
-338.7660856034
 30
0.0
 11
-509.388375584
 21
-338.4660842504
 31
0.0
  0
LINE
  5
293
330
1F
100
AcDbEntity
  8
0
  6
Continuous
 62
     7
370
    15
100
AcDbLine
 10
-514.8083761092
 20
-330.896083885
 30
0.0
 11
-514.9383757021
 21
-330.7660842921
 31
0.0
  0
LINE
  5
294
330
1F
100
AcDbEntity
  8
0
  6
Continuous
 62
     7
370
    15
100
AcDbLine
 10
-533.8383761924
 20
-330.7660842921
 30
0.0
 11
-533.9683757853
 21
-330.896083885
 31
0.0
  0
LINE
  5
295
330
1F
100
AcDbEntity
  8
0
  6
Continuous
 62
     7
370
    15
100
AcDbLine
 10
-514.6383752804
 20
-331.766084456
 30
0.0
 11
-514.6383752804
 21
-331.3960848983
 31
0.0
  0
LINE
  5
296
330
1F
100
AcDbEntity
  8
0
  6
Continuous
 62
     7
370
    15
100
AcDbLine
 10
-534.1383756828
 20
-331.3960848983
 30
0.0
 11
-534.1383756828
 21
-331.766084456
 31
0.0
  0
LINE
  5
297
330
1F
100
AcDbEntity
  8
0
  6
Continuous
 62
     7
370
    15
100
AcDbLine
 10
146.6616524625
 20
-312.1360844608
 30
0.0
 11
146.6616524625
 21
-312.6360845428
 31
0.0
  0
LINE
  5
298
330
1F
100
AcDbEntity
  8
0
  6
Continuous
 62
     7
370
    15
100
AcDbLine
 10
204.5616043974
 20
-312.6360845428
 30
0.0
 11
204.5616043974
 21
-312.1360844608
 31
0.0
  0
LINE
  5
299
330
1F
100
AcDbEntity
  8
0
  6
Continuous
 62
     7
370
    15
100
AcDbLine
 10
204.5616043974
 20
-331.3960848983
 30
0.0
 11
204.5616043974
 21
-330.896083885
 31
0.0
  0
LINE
  5
29A
330
1F
100
AcDbEntity
  8
0
  6
Continuous
 62
     7
370
    15
100
AcDbLine
 10
146.6616524625
 20
-330.896083885
 30
0.0
 11
146.6616524625
 21
-331.3960848983
 31
0.0
  0
LINE
  5
29B
330
1F
100
AcDbEntity
  8
0
  6
Continuous
 62
     7
370
    15
100
AcDbLine
 10
-495.4383752998
 20
-331.3960848983
 30
0.0
 11
-495.4383752998
 21
-330.896083885
 31
0.0
  0
LINE
  5
29C
330
1F
100
AcDbEntity
  8
0
  6
Continuous
 62
     7
370
    15
100
AcDbLine
 10
-553.3383765947
 20
-330.896083885
 30
0.0
 11
-553.3383765947
 21
-331.3960848983
 31
0.0
  0
LINE
  5
29D
330
1F
100
AcDbEntity
  8
0
  6
Continuous
 62
     7
370
    15
100
AcDbLine
 10
-553.3383765947
 20
-312.1360844608
 30
0.0
 11
-553.3383765947
 21
-312.6360845428
 31
0.0
  0
LINE
  5
29E
330
1F
100
AcDbEntity
  8
0
  6
Continuous
 62
     7
370
    15
100
AcDbLine
 10
-495.4383752998
 20
-312.6360845428
 30
0.0
 11
-495.4383752998
 21
-312.1360844608
 31
0.0
  0
LINE
  5
29F
330
1F
100
AcDbEntity
  8
0
  6
Continuous
 62
     7
370
    15
100
AcDbLine
 10
-550.9959289562
 20
-352.8660858657
 30
0.0
 11
-550.7959292959
 21
-352.6660824802
 31
0.0
  0
LINE
  5
2A0
330
1F
100
AcDbEntity
  8
0
  6
Continuous
 62
     7
370
    15
100
AcDbLine
 10
-550.7959292959
 20
-334.8660829153
 30
0.0
 11
-550.9959289562
 21
-334.666083255
 31
0.0
  0
LINE
  5
2A1
330
1F
100
AcDbEntity
  8
0
  6
Continuous
 62
     7
370
    15
100
AcDbLine
 10
-556.0959296059
 20
-352.8660858657
 30
0.0
 11
-550.9959289562
 21
-352.8660858657
 31
0.0
  0
LINE
  5
2A2
330
1F
100
AcDbEntity
  8
0
  6
Continuous
 62
     7
370
    15
100
AcDbLine
 10
-550.9959289562
 20
-334.666083255
 30
0.0
 11
-556.0959296059
 21
-334.666083255
 31
0.0
  0
LINE
  5
2A3
330
1F
100
AcDbEntity
  8
0
  6
Continuous
 62
     7
370
    15
100
AcDbLine
 10
-556.0959296059
 20
-334.666083255
 30
0.0
 11
-556.2959292661
 21
-334.8660829153
 31
0.0
  0
LINE
  5
2A4
330
1F
100
AcDbEntity
  8
0
  6
Continuous
 62
     7
370
    15
100
AcDbLine
 10
-556.2959292661
 20
-352.6660824802
 30
0.0
 11
-556.0959296059
 21
-352.8660858657
 31
0.0
  0
LINE
  5
2A5
330
1F
100
AcDbEntity
  8
0
  6
Continuous
 62
     7
370
    15
100
AcDbLine
 10
1592.50397815
 20
-334.666083255
 30
0.0
 11
1587.4039663244
 21
-334.666083255
 31
0.0
  0
LINE
  5
2A6
330
1F
100
AcDbEntity
  8
0
  6
Continuous
 62
     7
370
    15
100
AcDbLine
 10
1587.4039663244
 20
-352.8660858657
 30
0.0
 11
1592.50397815
 21
-352.8660858657
 31
0.0
  0
LINE
  5
2A7
330
1F
100
AcDbEntity
  8
0
  6
Continuous
 62
     7
370
    15
100
AcDbLine
 10
1592.50397815
 20
-352.8660858657
 30
0.0
 11
1592.7040113378
 21
-352.6660824802
 31
0.0
  0
LINE
  5
2A8
330
1F
100
AcDbEntity
  8
0
  6
Continuous
 62
     7
370
    15
100
AcDbLine
 10
1592.7040113378
 20
-334.8660829153
 30
0.0
 11
1592.50397815
 21
-334.666083255
 31
0.0
  0
LINE
  5
2A9
330
1F
100
AcDbEntity
  8
0
  6
Continuous
 62
     7
370
    15
100
AcDbLine
 10
1587.4039663244
 20
-334.666083255
 30
0.0
 11
1587.2041715551
 21
-334.8660829153
 31
0.0
  0
LINE
  5
2AA
330
1F
100
AcDbEntity
  8
0
  6
Continuous
 62
     7
370
    15
100
AcDbLine
 10
1587.2041715551
 20
-352.6660824802
 30
0.0
 11
1587.4039663244
 21
-352.8660858657
 31
0.0
  0
ARC
  5
2AB
330
1F
100
AcDbEntity
  8
0
  6
Continuous
 62
     7
370
    15
100
AcDbCircle
 10
-542.0959295344
 20
-338.1160841133
 30
0.0
 40
0.3000000000001819
100
AcDbArc
 50
0.0
 51
90.0
  0
ARC
  5
2AC
330
1F
100
AcDbEntity
  8
0
  6
Continuous
 62
     7
370
    15
100
AcDbCircle
 10
-542.0959295344
 20
-349.4160841133
 30
0.0
 40
0.3000000000001819
100
AcDbArc
 50
270.0
 51
0.0
  0
LINE
  5
2AD
330
1F
100
AcDbEntity
  8
0
  6
Continuous
 62
     7
370
    15
100
AcDbLine
 10
-550.7959292959
 20
-349.7160846974
 30
0.0
 11
-542.0959310364
 21
-349.7160846974
 31
0.0
  0
LINE
  5
2AE
330
1F
100
AcDbEntity
  8
0
  6
Continuous
 62
     7
370
    15
100
AcDbLine
 10
-542.0959310364
 20
-337.8160844233
 30
0.0
 11
-550.7959292959
 21
-337.8160844233
 31
0.0
  0
ARC
  5
2AF
330
1F
100
AcDbEntity
  8
0
  6
Continuous
 62
     7
370
    15
100
AcDbCircle
 10
1562.5040704656
 20
-349.4160841133
 30
0.0
 40
0.2999999999999545
100
AcDbArc
 50
180.0
 51
270.0
  0
ARC
  5
2B0
330
1F
100
AcDbEntity
  8
0
  6
Continuous
 62
     7
370
    15
100
AcDbCircle
 10
1562.5040704656
 20
-338.1160841133
 30
0.0
 40
0.2999999999999545
100
AcDbArc
 50
90.0
 51
180.0
  0
LINE
  5
2B1
330
1F
100
AcDbEntity
  8
0
  6
Continuous
 62
     7
370
    15
100
AcDbLine
 10
1587.2041715551
 20
-337.8160844233
 30
0.0
 11
1562.5040067602
 21
-337.8160844233
 31
0.0
  0
LINE
  5
2B2
330
1F
100
AcDbEntity
  8
0
  6
Continuous
 62
     7
370
    15
100
AcDbLine
 10
1562.5040067602
 20
-349.7160846974
 30
0.0
 11
1587.2041715551
 21
-349.7160846974
 31
0.0
  0
LINE
  5
2B3
330
1F
100
AcDbEntity
  8
0
  6
Continuous
 62
     7
370
    15
100
AcDbLine
 10
1560.2039827276
 20
-348.7660835173
 30
0.0
 11
1562.2040761877
 21
-348.7660835173
 31
0.0
  0
LINE
  5
2B4
330
1F
100
AcDbEntity
  8
0
  6
Continuous
 62
     7
370
    15
100
AcDbLine
 10
1562.2040761877
 20
-338.7660856034
 30
0.0
 11
1560.2039827276
 21
-338.7660856034
 31
0.0
  0
LINE
  5
2B5
330
1F
100
AcDbEntity
  8
0
  6
Continuous
 62
     7
370
    15
100
AcDbLine
 10
-539.7959293556
 20
-338.7660856034
 30
0.0
 11
-541.7959296834
 21
-338.7660856034
 31
0.0
  0
LINE
  5
2B6
330
1F
100
AcDbEntity
  8
0
  6
Continuous
 62
     7
370
    15
100
AcDbLine
 10
-541.7959296834
 20
-348.7660835173
 30
0.0
 11
-539.7959293556
 21
-348.7660835173
 31
0.0
  0
LINE
  5
2B7
330
1F
100
AcDbEntity
  8
0
  6
Continuous
 62
     7
370
    15
100
AcDbLine
 10
-596.4959280323
 20
-335.291082659
 30
0.0
 11
-596.7959331106
 21
-335.591084012
 31
0.0
  0
LINE
  5
2B8
330
1F
100
AcDbEntity
  8
0
  6
Continuous
 62
     7
370
    15
100
AcDbLine
 10
-596.7959331106
 20
-351.9410851087
 30
0.0
 11
-596.4959280323
 21
-352.2410827365
 31
0.0
  0
LINE
  5
2B9
330
1F
100
AcDbEntity
  8
0
  6
Continuous
 62
     7
370
    15
100
AcDbLine
 10
-596.2959320974
 20
-335.291082659
 30
0.0
 11
-596.4959280323
 21
-335.291082659
 31
0.0
  0
LINE
  5
2BA
330
1F
100
AcDbEntity
  8
0
  6
Continuous
 62
     7
370
    15
100
AcDbLine
 10
-596.4959280323
 20
-352.2410827365
 30
0.0
 11
-596.2959320974
 21
-352.2410827365
 31
0.0
  0
LINE
  5
2BB
330
1F
100
AcDbEntity
  8
0
  6
Continuous
 62
     7
370
    15
100
AcDbLine
 10
1632.9040063787
 20
-352.2410827365
 30
0.0
 11
1633.2041753698
 21
-351.9410851087
 31
0.0
  0
LINE
  5
2BC
330
1F
100
AcDbEntity
  8
0
  6
Continuous
 62
     7
370
    15
100
AcDbLine
 10
1633.2041753698
 20
-335.591084012
 30
0.0
 11
1632.9040063787
 21
-335.291082659
 31
0.0
  0
LINE
  5
2BD
330
1F
100
AcDbEntity
  8
0
  6
Continuous
 62
     7
370
    15
100
AcDbLine
 10
1632.7039731909
 20
-352.2410827365
 30
0.0
 11
1632.9040063787
 21
-352.2410827365
 31
0.0
  0
LINE
  5
2BE
330
1F
100
AcDbEntity
  8
0
  6
Continuous
 62
     7
370
    15
100
AcDbLine
 10
1632.9040063787
 20
-335.291082659
 30
0.0
 11
1632.7039731909
 21
-335.291082659
 31
0.0
  0
LINE
  5
2BF
330
1F
100
AcDbEntity
  8
0
  6
Continuous
 62
     7
370
    15
100
AcDbLine
 10
-556.2959292661
 20
-354.4660831477
 30
0.0
 11
-556.4959289264
 21
-354.2660834875
 31
0.0
  0
LINE
  5
2C0
330
1F
100
AcDbEntity
  8
0
  6
Continuous
 62
     7
370
    15
100
AcDbLine
 10
-596.0959287118
 20
-354.2660834875
 30
0.0
 11
-596.2959320974
 21
-354.4660831477
 31
0.0
  0
LINE
  5
2C1
330
1F
100
AcDbEntity
  8
0
  6
Continuous
 62
     7
370
    15
100
AcDbLine
 10
-596.2959320974
 20
-354.4660831477
 30
0.0
 11
-596.2959320974
 21
-357.2660858419
 31
0.0
  0
LINE
  5
2C2
330
1F
100
AcDbEntity
  8
0
  6
Continuous
 62
     7
370
    15
100
AcDbLine
 10
-556.2959292661
 20
-357.2660858419
 30
0.0
 11
-556.2959292661
 21
-354.4660831477
 31
0.0
  0
LINE
  5
2C3
330
1F
100
AcDbEntity
  8
0
  6
Continuous
 62
     7
370
    15
100
AcDbLine
 10
-596.2959320974
 20
-357.2660858419
 30
0.0
 11
-594.2959280443
 21
-359.2660824444
 31
0.0
  0
LINE
  5
2C4
330
1F
100
AcDbEntity
  8
0
  6
Continuous
 62
     7
370
    15
100
AcDbLine
 10
-558.295929594
 20
-359.2660824444
 30
0.0
 11
-556.2959292661
 21
-357.2660858419
 31
0.0
  0
LINE
  5
2C5
330
1F
100
AcDbEntity
  8
0
  6
Continuous
 62
     7
370
    15
100
AcDbLine
 10
1632.7039731909
 20
-354.4660831477
 30
0.0
 11
1632.5041784216
 21
-354.2660834875
 31
0.0
  0
LINE
  5
2C6
330
1F
100
AcDbEntity
  8
0
  6
Continuous
 62
     7
370
    15
100
AcDbLine
 10
1592.9040445257
 20
-354.2660834875
 30
0.0
 11
1592.7040113378
 21
-354.4660831477
 31
0.0
  0
LINE
  5
2C7
330
1F
100
AcDbEntity
  8
0
  6
Continuous
 62
     7
370
    15
100
AcDbLine
 10
1592.7040113378
 20
-354.4660831477
 30
0.0
 11
1592.7040113378
 21
-357.2660858419
 31
0.0
  0
LINE
  5
2C8
330
1F
100
AcDbEntity
  8
0
  6
Continuous
 62
     7
370
    15
100
AcDbLine
 10
1632.7039731909
 20
-357.2660858419
 30
0.0
 11
1632.7039731909
 21
-354.4660831477
 31
0.0
  0
LINE
  5
2C9
330
1F
100
AcDbEntity
  8
0
  6
Continuous
 62
     7
370
    15
100
AcDbLine
 10
1592.7040113378
 20
-357.2660858419
 30
0.0
 11
1594.7041047979
 21
-359.2660824444
 31
0.0
  0
LINE
  5
2CA
330
1F
100
AcDbEntity
  8
0
  6
Continuous
 62
     7
370
    15
100
AcDbLine
 10
1630.7041181493
 20
-359.2660824444
 30
0.0
 11
1632.7039731909
 21
-357.2660858419
 31
0.0
  0
LINE
  5
2CB
330
1F
100
AcDbEntity
  8
0
  6
Continuous
 62
     7
370
    15
100
AcDbLine
 10
1632.7039731909
 20
-307.0660840396
 30
0.0
 11
1632.4040426183
 21
-306.7660840835
 31
0.0
  0
LINE
  5
2CC
330
1F
100
AcDbEntity
  8
0
  6
Continuous
 62
     7
370
    15
100
AcDbLine
 10
1593.0041803289
 20
-306.7660840835
 30
0.0
 11
1592.7040113378
 21
-307.0660840396
 31
0.0
  0
LINE
  5
2CD
330
1F
100
AcDbEntity
  8
0
  6
Continuous
 62
     7
370
    15
100
AcDbLine
 10
1592.7040113378
 20
-334.2660839345
 30
0.0
 11
1592.7040113378
 21
-353.9660858597
 31
0.0
  0
LINE
  5
2CE
330
1F
100
AcDbEntity
  8
0
  6
Continuous
 62
     7
370
    15
100
AcDbLine
 10
1592.7040113378
 20
-307.0660840396
 30
0.0
 11
1592.7040113378
 21
-309.2660844933
 31
0.0
  0
LINE
  5
2CF
330
1F
100
AcDbEntity
  8
0
  6
Continuous
 62
     7
370
    15
100
AcDbLine
 10
1632.7039731909
 20
-309.2660844933
 30
0.0
 11
1632.7039731909
 21
-307.0660840396
 31
0.0
  0
LINE
  5
2D0
330
1F
100
AcDbEntity
  8
0
  6
Continuous
 62
     7
370
    15
100
AcDbLine
 10
1632.7039731909
 20
-353.9660858597
 30
0.0
 11
1632.7039731909
 21
-334.2660839345
 31
0.0
  0
LINE
  5
2D1
330
1F
100
AcDbEntity
  8
0
  6
Continuous
 62
     7
370
    15
100
AcDbLine
 10
1592.7040113378
 20
-353.9660858597
 30
0.0
 11
1593.0041803289
 21
-354.2660834875
 31
0.0
  0
LINE
  5
2D2
330
1F
100
AcDbEntity
  8
0
  6
Continuous
 62
     7
370
    15
100
AcDbLine
 10
1632.4040426183
 20
-354.2660834875
 30
0.0
 11
1632.7039731909
 21
-353.9660858597
 31
0.0
  0
LINE
  5
2D3
330
1F
100
AcDbEntity
  8
0
  6
Continuous
 62
     7
370
    15
100
AcDbLine
 10
-556.2959292661
 20
-307.0660840396
 30
0.0
 11
-556.5959306192
 21
-306.7660840835
 31
0.0
  0
LINE
  5
2D4
330
1F
100
AcDbEntity
  8
0
  6
Continuous
 62
     7
370
    15
100
AcDbLine
 10
-595.9959270191
 20
-306.7660840835
 30
0.0
 11
-596.2959320974
 21
-307.0660840396
 31
0.0
  0
LINE
  5
2D5
330
1F
100
AcDbEntity
  8
0
  6
Continuous
 62
     7
370
    15
100
AcDbLine
 10
-596.2959320974
 20
-334.2660839345
 30
0.0
 11
-596.2959320974
 21
-353.9660858597
 31
0.0
  0
LINE
  5
2D6
330
1F
100
AcDbEntity
  8
0
  6
Continuous
 62
     7
370
    15
100
AcDbLine
 10
-596.2959320974
 20
-307.0660840396
 30
0.0
 11
-596.2959320974
 21
-309.2660844933
 31
0.0
  0
LINE
  5
2D7
330
1F
100
AcDbEntity
  8
0
  6
Continuous
 62
     7
370
    15
100
AcDbLine
 10
-556.2959292661
 20
-309.2660844933
 30
0.0
 11
-556.2959292661
 21
-307.0660840396
 31
0.0
  0
LINE
  5
2D8
330
1F
100
AcDbEntity
  8
0
  6
Continuous
 62
     7
370
    15
100
AcDbLine
 10
-556.2959292661
 20
-353.9660858597
 30
0.0
 11
-556.2959292661
 21
-334.2660839345
 31
0.0
  0
LINE
  5
2D9
330
1F
100
AcDbEntity
  8
0
  6
Continuous
 62
     7
370
    15
100
AcDbLine
 10
-596.2959320974
 20
-353.9660858597
 30
0.0
 11
-595.9959270191
 21
-354.2660834875
 31
0.0
  0
LINE
  5
2DA
330
1F
100
AcDbEntity
  8
0
  6
Continuous
 62
     7
370
    15
100
AcDbLine
 10
-556.5959306192
 20
-354.2660834875
 30
0.0
 11
-556.2959292661
 21
-353.9660858597
 31
0.0
  0
LINE
  5
2DB
330
1F
100
AcDbEntity
  8
0
  6
Continuous
 62
     7
370
    15
100
AcDbLine
 10
-500.3459293153
 20
-335.2660859611
 30
0.0
 11
-499.3459296171
 21
-334.2660839345
 31
0.0
  0
LINE
  5
2DC
330
1F
100
AcDbEntity
  8
0
  6
Continuous
 62
     7
370
    15
100
AcDbLine
 10
845.7541002203
 20
-334.2660839345
 30
0.0
 11
846.754027741
 21
-335.2660859611
 31
0.0
  0
LINE
  5
2DD
330
1F
100
AcDbEntity
  8
0
  6
Continuous
 62
     7
370
    15
100
AcDbLine
 10
859.6540225912
 20
-335.2660859611
 30
0.0
 11
860.6540693212
 21
-334.2660839345
 31
0.0
  0
LINE
  5
2DE
330
1F
100
AcDbEntity
  8
0
  6
Continuous
 62
     7
370
    15
100
AcDbLine
 10
1525.7541669775
 20
-334.2660839345
 30
0.0
 11
1526.7540944982
 21
-335.2660859611
 31
0.0
  0
LINE
  5
2DF
330
1F
100
AcDbEntity
  8
0
  6
Continuous
 62
     7
370
    15
100
AcDbLine
 10
1539.6539701391
 20
-335.2660859611
 30
0.0
 11
1540.6541360784
 21
-334.2660839345
 31
0.0
  0
LINE
  5
2E0
330
1F
100
AcDbEntity
  8
0
  6
Continuous
 62
     7
370
    15
100
AcDbLine
 10
845.7040323187
 20
-305.2660843033
 30
0.0
 11
845.7040323187
 21
-309.2660844933
 31
0.0
  0
LINE
  5
2E1
330
1F
100
AcDbEntity
  8
0
  6
Continuous
 62
     7
370
    15
100
AcDbLine
 10
860.7040180135
 20
-309.2660844933
 30
0.0
 11
860.7040180135
 21
-305.2660843033
 31
0.0
  0
LINE
  5
2E2
330
1F
100
AcDbEntity
  8
0
  6
Continuous
 62
     7
370
    15
100
AcDbLine
 10
1525.7040990759
 20
-305.2660843033
 30
0.0
 11
1525.7040990759
 21
-309.2660844933
 31
0.0
  0
LINE
  5
2E3
330
1F
100
AcDbEntity
  8
0
  6
Continuous
 62
     7
370
    15
100
AcDbLine
 10
1540.7039655615
 20
-309.2660844933
 30
0.0
 11
1540.7039655615
 21
-305.2660843033
 31
0.0
  0
LINE
  5
2E4
330
1F
100
AcDbEntity
  8
0
  6
Continuous
 62
     7
370
    15
100
AcDbLine
 10
-514.2959293667
 20
-305.2660843033
 30
0.0
 11
-514.2959293667
 21
-308.7660839457
 31
0.0
  0
LINE
  5
2E5
330
1F
100
AcDbEntity
  8
0
  6
Continuous
 62
     7
370
    15
100
AcDbLine
 10
-499.295929702
 20
-309.2660844933
 30
0.0
 11
-499.295929702
 21
-305.2660843033
 31
0.0
  0
LINE
  5
2E6
330
1F
100
AcDbEntity
  8
0
  6
Continuous
 62
     7
370
    15
100
AcDbLine
 10
165.7040847707
 20
-305.2660843033
 30
0.0
 11
165.7040847707
 21
-308.7660839457
 31
0.0
  0
LINE
  5
2E7
330
1F
100
AcDbEntity
  8
0
  6
Continuous
 62
     7
370
    15
100
AcDbLine
 10
180.7040704656
 20
-308.7660839457
 30
0.0
 11
180.7040704656
 21
-305.2660843033
 31
0.0
  0
LINE
  5
2E8
330
1F
100
AcDbEntity
  8
0
  6
Continuous
 62
     7
370
    15
100
AcDbLine
 10
1503.2040609289
 20
-301.2660841133
 30
0.0
 11
1503.2040609289
 21
-303.2660842083
 31
0.0
  0
LINE
  5
2E9
330
1F
100
AcDbEntity
  8
0
  6
Continuous
 62
     7
370
    15
100
AcDbLine
 10
1563.2040037084
 20
-303.2660842083
 30
0.0
 11
1563.2040037084
 21
-301.2660841133
 31
0.0
  0
LINE
  5
2EA
330
1F
100
AcDbEntity
  8
0
  6
Continuous
 62
     7
370
    15
100
AcDbLine
 10
1503.2040609289
 20
-303.2660842083
 30
0.0
 11
1518.2041658331
 21
-305.2660843033
 31
0.0
  0
LINE
  5
2EB
330
1F
100
AcDbEntity
  8
0
  6
Continuous
 62
     7
370
    15
100
AcDbLine
 10
1548.2041372228
 20
-305.2660843033
 30
0.0
 11
1563.2040037084
 21
-303.2660842083
 31
0.0
  0
LINE
  5
2EC
330
1F
100
AcDbEntity
  8
0
  6
Continuous
 62
     7
370
    15
100
AcDbLine
 10
-536.7959288638
 20
-301.2660841133
 30
0.0
 11
-536.7959288638
 21
-303.2660842083
 31
0.0
  0
LINE
  5
2ED
330
1F
100
AcDbEntity
  8
0
  6
Continuous
 62
     7
370
    15
100
AcDbLine
 10
-476.7959302049
 20
-303.2660842083
 30
0.0
 11
-476.7959302049
 21
-301.2660841133
 31
0.0
  0
LINE
  5
2EE
330
1F
100
AcDbEntity
  8
0
  6
Continuous
 62
     7
370
    15
100
AcDbLine
 10
-536.7959288638
 20
-303.2660842083
 30
0.0
 11
-521.7959291991
 21
-305.2660843033
 31
0.0
  0
LINE
  5
2EF
330
1F
100
AcDbEntity
  8
0
  6
Continuous
 62
     7
370
    15
100
AcDbLine
 10
-491.7959298696
 20
-305.2660843033
 30
0.0
 11
-476.7959302049
 21
-303.2660842083
 31
0.0
  0
LINE
  5
2F0
330
1F
100
AcDbEntity
  8
0
  6
Continuous
 62
     7
370
    15
100
AcDbLine
 10
823.204113381
 20
-301.2660841133
 30
0.0
 11
823.204113381
 21
-303.2660842083
 31
0.0
  0
LINE
  5
2F1
330
1F
100
AcDbEntity
  8
0
  6
Continuous
 62
     7
370
    15
100
AcDbLine
 10
883.2040561605
 20
-303.2660842083
 30
0.0
 11
883.2040561605
 21
-301.2660841133
 31
0.0
  0
LINE
  5
2F2
330
1F
100
AcDbEntity
  8
0
  6
Continuous
 62
     7
370
    15
100
AcDbLine
 10
823.204113381
 20
-303.2660842083
 30
0.0
 11
838.2040990759
 21
-305.2660843033
 31
0.0
  0
LINE
  5
2F3
330
1F
100
AcDbEntity
  8
0
  6
Continuous
 62
     7
370
    15
100
AcDbLine
 10
868.2040704656
 20
-305.2660843033
 30
0.0
 11
883.2040561605
 21
-303.2660842083
 31
0.0
  0
LINE
  5
2F4
330
1F
100
AcDbEntity
  8
0
  6
Continuous
 62
     7
370
    15
100
AcDbLine
 10
143.2040466238
 20
-301.2660841133
 30
0.0
 11
143.2040466238
 21
-303.2660842083
 31
0.0
  0
LINE
  5
2F5
330
1F
100
AcDbEntity
  8
0
  6
Continuous
 62
     7
370
    15
100
AcDbLine
 10
203.204049008
 20
-303.2660842083
 30
0.0
 11
203.204049008
 21
-301.2660841133
 31
0.0
  0
LINE
  5
2F6
330
1F
100
AcDbEntity
  8
0
  6
Continuous
 62
     7
370
    15
100
AcDbLine
 10
143.2040466238
 20
-303.2660842083
 30
0.0
 11
158.2040919233
 21
-305.2660843033
 31
0.0
  0
LINE
  5
2F7
330
1F
100
AcDbEntity
  8
0
  6
Continuous
 62
     7
370
    15
100
AcDbLine
 10
188.2040633131
 20
-305.2660843033
 30
0.0
 11
203.204049008
 21
-303.2660842083
 31
0.0
  0
LINE
  5
2F8
330
1F
100
AcDbEntity
  8
0
  6
Continuous
 62
     7
370
    15
100
AcDbLine
 10
146.6116441656
 20
-312.7660841357
 30
0.0
 11
146.6116441656
 21
-313.7344100188
 31
0.0
  0
LINE
  5
2F9
330
1F
100
AcDbEntity
  8
0
  6
Continuous
 62
     7
370
    15
100
AcDbLine
 10
204.6116126943
 20
-313.7344100188
 30
0.0
 11
204.6116126943
 21
-312.7660841357
 31
0.0
  0
ARC
  5
2FA
330
1F
100
AcDbEntity
  8
0
  6
Continuous
 62
     7
370
    15
100
AcDbCircle
 10
137.0116243041
 20
-321.7400326901
 30
0.0
 40
12.49999999999997
100
AcDbArc
 50
320.1746287392
 51
39.8253712608
  0
ARC
  5
2FB
330
1F
100
AcDbEntity
  8
0
  6
Continuous
 62
     7
370
    15
100
AcDbCircle
 10
214.2116243041
 20
-321.7400326901
 30
0.0
 40
12.49999999999997
100
AcDbArc
 50
140.1746287392
 51
219.8253712608
  0
LINE
  5
2FC
330
1F
100
AcDbEntity
  8
0
  6
Continuous
 62
     7
370
    15
100
AcDbLine
 10
146.6116441656
 20
-329.7456564989
 30
0.0
 11
146.6116441656
 21
-330.7660842921
 31
0.0
  0
LINE
  5
2FD
330
1F
100
AcDbEntity
  8
0
  6
Continuous
 62
     7
370
    15
100
AcDbLine
 10
204.6116126943
 20
-330.7660842921
 30
0.0
 11
204.6116126943
 21
-329.7456564989
 31
0.0
  0
ARC
  5
2FE
330
1F
100
AcDbEntity
  8
0
  6
Continuous
 62
     7
370
    15
100
AcDbCircle
 10
-562.9883756959
 20
-321.7400326901
 30
0.0
 40
12.50000000000004
100
AcDbArc
 50
320.1746287392
 51
39.8253712608
  0
ARC
  5
2FF
330
1F
100
AcDbEntity
  8
0
  6
Continuous
 62
     7
370
    15
100
AcDbCircle
 10
-485.7883756959
 20
-321.7400326901
 30
0.0
 40
12.50000000000004
100
AcDbArc
 50
140.1746287392
 51
219.8253712608
  0
LINE
  5
300
330
1F
100
AcDbEntity
  8
0
  6
Continuous
 62
     7
370
    15
100
AcDbLine
 10
-553.3883774411
 20
-312.7660841357
 30
0.0
 11
-553.3883774411
 21
-313.7344100188
 31
0.0
  0
LINE
  5
301
330
1F
100
AcDbEntity
  8
0
  6
Continuous
 62
     7
370
    15
100
AcDbLine
 10
-495.3883753847
 20
-313.7344100188
 30
0.0
 11
-495.3883753847
 21
-312.7660841357
 31
0.0
  0
LINE
  5
302
330
1F
100
AcDbEntity
  8
0
  6
Continuous
 62
     7
370
    15
100
AcDbLine
 10
-553.3883774411
 20
-329.7456564989
 30
0.0
 11
-553.3883774411
 21
-330.7660842921
 31
0.0
  0
LINE
  5
303
330
1F
100
AcDbEntity
  8
0
  6
Continuous
 62
     7
370
    15
100
AcDbLine
 10
-495.3883753847
 20
-330.7660842921
 30
0.0
 11
-495.3883753847
 21
-329.7456564989
 31
0.0
  0
LINE
  5
304
330
1F
100
AcDbEntity
  8
0
  6
Continuous
 62
     7
370
    15
100
AcDbLine
 10
-511.338375764
 20
-348.7660835173
 30
0.0
 11
-509.338375669
 21
-346.7660831894
 31
0.0
  0
LINE
  5
305
330
1F
100
AcDbEntity
  8
0
  6
Continuous
 62
     7
370
    15
100
AcDbLine
 10
-509.338375669
 20
-346.7660831894
 30
0.0
 11
-509.338375669
 21
-344.7660828616
 31
0.0
  0
LINE
  5
306
330
1F
100
AcDbEntity
  8
0
  6
Continuous
 62
     7
370
    15
100
AcDbLine
 10
190.6616224218
 20
-346.7660831894
 30
0.0
 11
190.6616224218
 21
-344.7660828616
 31
0.0
  0
LINE
  5
307
330
1F
100
AcDbEntity
  8
0
  6
Continuous
 62
     7
370
    15
100
AcDbLine
 10
188.661648171
 20
-348.7660835173
 30
0.0
 11
190.6616224218
 21
-346.7660831894
 31
0.0
  0
LINE
  5
308
330
1F
100
AcDbEntity
  8
0
  6
Continuous
 62
     7
370
    15
100
AcDbLine
 10
-509.388375584
 20
-346.7660831894
 30
0.0
 11
-509.388375584
 21
-344.7660828616
 31
0.0
  0
LINE
  5
309
330
1F
100
AcDbEntity
  8
0
  6
Continuous
 62
     7
370
    15
100
AcDbLine
 10
-539.3883751463
 20
-344.7660828616
 30
0.0
 11
-539.3883751463
 21
-346.7660831894
 31
0.0
  0
LINE
  5
30A
330
1F
100
AcDbEntity
  8
0
  6
Continuous
 62
     7
370
    15
100
AcDbLine
 10
-539.3883751463
 20
-346.7660831894
 30
0.0
 11
-537.3883748185
 21
-348.7660835173
 31
0.0
  0
LINE
  5
30B
330
1F
100
AcDbEntity
  8
0
  6
Continuous
 62
     7
370
    15
100
AcDbLine
 10
-511.388375679
 20
-348.7660835173
 30
0.0
 11
-509.388375584
 21
-346.7660831894
 31
0.0
  0
LINE
  5
30C
330
1F
100
AcDbEntity
  8
0
  6
Continuous
 62
     7
370
    15
100
AcDbLine
 10
190.6116141248
 20
-346.7660831894
 30
0.0
 11
190.6116141248
 21
-344.7660828616
 31
0.0
  0
LINE
  5
30D
330
1F
100
AcDbEntity
  8
0
  6
Continuous
 62
     7
370
    15
100
AcDbLine
 10
160.6116427351
 20
-344.7660828616
 30
0.0
 11
160.6116427351
 21
-346.7660831894
 31
0.0
  0
LINE
  5
30E
330
1F
100
AcDbEntity
  8
0
  6
Continuous
 62
     7
370
    15
100
AcDbLine
 10
160.6116427351
 20
-346.7660831894
 30
0.0
 11
162.6116169859
 21
-348.7660835173
 31
0.0
  0
LINE
  5
30F
330
1F
100
AcDbEntity
  8
0
  6
Continuous
 62
     7
370
    15
100
AcDbLine
 10
188.611639874
 20
-348.7660835173
 30
0.0
 11
190.6116141248
 21
-346.7660831894
 31
0.0
  0
LINE
  5
310
330
1F
100
AcDbEntity
  8
0
  6
Continuous
 62
     7
370
    15
100
AcDbLine
 10
190.6616224218
 20
-338.5660859432
 30
0.0
 11
190.6616224218
 21
-334.2660839345
 31
0.0
  0
LINE
  5
311
330
1F
100
AcDbEntity
  8
0
  6
Continuous
 62
     7
370
    15
100
AcDbLine
 10
160.661651032
 20
-338.5160850968
 30
0.0
 11
160.661651032
 21
-338.5660859432
 31
0.0
  0
LINE
  5
312
330
1F
100
AcDbEntity
  8
0
  6
Continuous
 62
     7
370
    15
100
AcDbLine
 10
160.661651032
 20
-338.5660859432
 30
0.0
 11
160.8616246153
 21
-338.7660856034
 31
0.0
  0
LINE
  5
313
330
1F
100
AcDbEntity
  8
0
  6
Continuous
 62
     7
370
    15
100
AcDbLine
 10
190.4616488386
 20
-338.7660856034
 30
0.0
 11
190.6616224218
 21
-338.5660859432
 31
0.0
  0
LINE
  5
314
330
1F
100
AcDbEntity
  8
0
  6
Continuous
 62
     7
370
    15
100
AcDbLine
 10
-509.338375669
 20
-338.5660859432
 30
0.0
 11
-509.338375669
 21
-335.2660859611
 31
0.0
  0
LINE
  5
315
330
1F
100
AcDbEntity
  8
0
  6
Continuous
 62
     7
370
    15
100
AcDbLine
 10
-539.3383742999
 20
-338.5160850968
 30
0.0
 11
-539.3383742999
 21
-338.5660859432
 31
0.0
  0
LINE
  5
316
330
1F
100
AcDbEntity
  8
0
  6
Continuous
 62
     7
370
    15
100
AcDbLine
 10
-539.3383742999
 20
-338.5660859432
 30
0.0
 11
-539.1383746397
 21
-338.7660856034
 31
0.0
  0
LINE
  5
317
330
1F
100
AcDbEntity
  8
0
  6
Continuous
 62
     7
370
    15
100
AcDbLine
 10
-509.5383757949
 20
-338.7660856034
 30
0.0
 11
-509.338375669
 21
-338.5660859432
 31
0.0
  0
LINE
  5
318
330
1F
100
AcDbEntity
  8
0
  6
Continuous
 62
     7
370
    15
100
AcDbLine
 10
1663.2041467596
 20
-310.2660837259
 30
0.0
 11
1663.2041467596
 21
-333.2660856332
 31
0.0
  0
LINE
  5
319
330
1F
100
AcDbEntity
  8
0
  6
Continuous
 62
     7
370
    15
100
AcDbLine
 10
1662.2039808202
 20
-334.2660839345
 30
0.0
 11
1662.2039808202
 21
-309.2660844933
 31
0.0
  0
LINE
  5
31A
330
1F
100
AcDbEntity
  8
0
  6
Continuous
 62
     7
370
    15
100
AcDbLine
 10
-635.7959227394
 20
-309.2660844933
 30
0.0
 11
-635.7959227394
 21
-334.2660839345
 31
0.0
  0
LINE
  5
31B
330
1F
100
AcDbEntity
  8
0
  6
Continuous
 62
     7
370
    15
100
AcDbLine
 10
-636.795924766
 20
-333.2660856332
 30
0.0
 11
-636.795924766
 21
-310.2660837259
 31
0.0
  0
LWPOLYLINE
  5
31C
330
1F
100
AcDbEntity
  8
0
  6
Continuous
 62
     7
370
    15
100
AcDbPolyline
 90
       13
 70
   128
 43
0.0
 10
845.6860317159
 20
-334.2469806459
 10
845.9233774114
 20
-334.1053115811
 10
846.7798961569
 20
-333.6200664427
 10
848.2831252981
 20
-332.8775006022
 10
850.5471481252
 20
-332.0766116168
 10
852.6267541815
 20
-331.7451017584
 10
854.7815812994
 20
-331.8525149163
 10
856.6641344
 20
-332.3121579971
 10
858.4882749487
 20
-333.0430785801
 10
860.0247634817
 20
-333.8395903494
 10
860.723568337
 20
-334.2477108028
 10
860.7540859152
 20
-334.2660839345
 10
860.7540859152
 20
-334.2660839345
  0
LWPOLYLINE
  5
31D
330
1F
100
AcDbEntity
  8
0
  6
Continuous
 62
     7
370
    15
100
AcDbPolyline
 90
       13
 70
   128
 43
0.0
 10
1525.6859792638
 20
-334.2469806459
 10
1525.9234441686
 20
-334.1053115811
 10
1526.7798437048
 20
-333.6200664427
 10
1528.283072846
 20
-332.8775006022
 10
1530.5470956732
 20
-332.0766116168
 10
1532.6268209387
 20
-331.7451017584
 10
1534.7816480566
 20
-331.8525149163
 10
1536.6642011572
 20
-332.3121579971
 10
1538.4883417059
 20
-333.0430785801
 10
1540.0247110296
 20
-333.8395903494
 10
1540.7235158849
 20
-334.2477108028
 10
1540.7540334631
 20
-334.2660839345
 10
1540.7540334631
 20
-334.2660839345
  0
SPLINE
  5
31E
330
1F
100
AcDbEntity
  8
0
  6
Continuous
 62
     7
370
    15
100
AcDbSpline
210
0.0
220
0.0
230
1.0
 70
     8
 71
     3
 72
    14
 73
    10
 74
     0
 42
0.000000001
 43
0.00000001
 40
0.0
 40
0.0
 40
0.0
 40
0.0
 40
0.138159470520777
 40
0.2848180220047212
 40
0.4239485345334228
 40
0.5844299404067597
 40
0.7718979667227094
 40
0.9539858631527519
 40
1.0
 40
1.0
 40
1.0
 40
1.0
 10
-509.3383756689805
 20
-332.0583558317034
 30
0.0
 10
-508.6914827849627
 20
-331.9253241650062
 30
0.0
 10
-507.3579024594133
 20
-331.651077194966
 30
0.0
 10
-505.2181658001746
 20
-331.7858808767135
 30
0.0
 10
-503.192451404854
 20
-332.3087049339591
 30
0.0
 10
-501.3318848509567
 20
-333.0939483457941
 30
0.0
 10
-499.8566771142296
 20
-333.8957158575437
 30
0.0
 10
-499.2835206210185
 20
-334.2435075057072
 30
0.0
 10
-499.2522395335162
 20
-334.2622941730933
 30
0.0
 10
-499.2459293212819
 20
-334.2660839345066
 30
0.0
  0
LINE
  5
31F
330
1F
100
AcDbEntity
  8
0
  6
Continuous
 62
     7
370
    15
100
AcDbLine
 10
174.6364368368
 20
-308.7660839457
 30
0.0
 11
188.611639874
 21
-308.7660839457
 31
0.0
  0
LINE
  5
320
330
1F
100
AcDbEntity
  8
0
  6
Continuous
 62
     7
370
    15
100
AcDbLine
 10
162.6116169859
 20
-308.7660839457
 30
0.0
 11
174.6364368368
 21
-308.7660839457
 31
0.0
  0
LINE
  5
321
330
1F
100
AcDbEntity
  8
0
  6
Continuous
 62
     7
370
    15
100
AcDbLine
 10
174.4864119459
 20
-310.7660838078
 30
0.0
 11
160.6116427351
 21
-310.7660838078
 31
0.0
  0
LINE
  5
322
330
1F
100
AcDbEntity
  8
0
  6
Continuous
 62
     7
370
    15
100
AcDbLine
 10
190.6116141248
 20
-310.7660838078
 30
0.0
 11
174.4864119459
 21
-310.7660838078
 31
0.0
  0
LINE
  5
323
330
1F
100
AcDbEntity
  8
0
  6
Continuous
 62
     7
370
    15
100
AcDbLine
 10
160.6116427351
 20
-311.7660839718
 30
0.0
 11
190.6116141248
 21
-311.7660839718
 31
0.0
  0
LINE
  5
324
330
1F
100
AcDbEntity
  8
0
  6
Continuous
 62
     7
370
    15
100
AcDbLine
 10
-525.3635847699
 20
-308.7660839457
 30
0.0
 11
-511.388375679
 21
-308.7660839457
 31
0.0
  0
LINE
  5
325
330
1F
100
AcDbEntity
  8
0
  6
Continuous
 62
     7
370
    15
100
AcDbLine
 10
-537.3883748185
 20
-308.7660839457
 30
0.0
 11
-525.3635847699
 21
-308.7660839457
 31
0.0
  0
LINE
  5
326
330
1F
100
AcDbEntity
  8
0
  6
Continuous
 62
     7
370
    15
100
AcDbLine
 10
-525.5136171114
 20
-310.7660838078
 30
0.0
 11
-539.3883751463
 21
-310.7660838078
 31
0.0
  0
LINE
  5
327
330
1F
100
AcDbEntity
  8
0
  6
Continuous
 62
     7
370
    15
100
AcDbLine
 10
-509.388375584
 20
-310.7660838078
 30
0.0
 11
-525.5136171114
 21
-310.7660838078
 31
0.0
  0
LINE
  5
328
330
1F
100
AcDbEntity
  8
0
  6
Continuous
 62
     7
370
    15
100
AcDbLine
 10
-539.3883751463
 20
-311.7660839718
 30
0.0
 11
-509.388375584
 21
-311.7660839718
 31
0.0
  0
LINE
  5
329
330
1F
100
AcDbEntity
  8
0
  6
Continuous
 62
     7
370
    15
100
AcDbLine
 10
190.6116141248
 20
-332.0660839464
 30
0.0
 11
160.6116427351
 21
-332.0660839464
 31
0.0
  0
LINE
  5
32A
330
1F
100
AcDbEntity
  8
0
  6
Continuous
 62
     7
370
    15
100
AcDbLine
 10
160.6116427351
 20
-338.4660842504
 30
0.0
 11
190.6116141248
 21
-338.4660842504
 31
0.0
  0
LINE
  5
32B
330
1F
100
AcDbEntity
  8
0
  6
Continuous
 62
     7
370
    15
100
AcDbLine
 10
160.9116329122
 20
-331.766084456
 30
0.0
 11
190.3116239477
 21
-331.766084456
 31
0.0
  0
LINE
  5
32C
330
1F
100
AcDbEntity
  8
0
  6
Continuous
 62
     7
370
    15
100
AcDbLine
 10
-539.0883775186
 20
-331.766084456
 30
0.0
 11
-509.6883757729
 21
-331.766084456
 31
0.0
  0
LINE
  5
32D
330
1F
100
AcDbEntity
  8
0
  6
Continuous
 62
     7
370
    15
100
AcDbLine
 10
-509.388375584
 20
-332.0660839464
 30
0.0
 11
-539.3883751463
 21
-332.0660839464
 31
0.0
  0
LINE
  5
32E
330
1F
100
AcDbEntity
  8
0
  6
Continuous
 62
     7
370
    15
100
AcDbLine
 10
-539.3883751463
 20
-338.4660842504
 30
0.0
 11
-509.388375584
 21
-338.4660842504
 31
0.0
  0
LINE
  5
32F
330
1F
100
AcDbEntity
  8
0
  6
Continuous
 62
     7
370
    15
100
AcDbLine
 10
198.048902886
 20
-312.6360845428
 30
0.0
 11
146.6616524625
 21
-312.6360845428
 31
0.0
  0
LINE
  5
330
330
1F
100
AcDbEntity
  8
0
  6
Continuous
 62
     7
370
    15
100
AcDbLine
 10
204.5616043974
 20
-312.6360845428
 30
0.0
 11
198.048902886
 21
-312.6360845428
 31
0.0
  0
LINE
  5
331
330
1F
100
AcDbEntity
  8
0
  6
Continuous
 62
     7
370
    15
100
AcDbLine
 10
198.048902886
 20
-312.1360844608
 30
0.0
 11
146.6616524625
 21
-312.1360844608
 31
0.0
  0
LINE
  5
332
330
1F
100
AcDbEntity
  8
0
  6
Continuous
 62
     7
370
    15
100
AcDbLine
 10
204.5616043974
 20
-312.1360844608
 30
0.0
 11
198.048902886
 21
-312.1360844608
 31
0.0
  0
LINE
  5
333
330
1F
100
AcDbEntity
  8
0
  6
Continuous
 62
     7
370
    15
100
AcDbLine
 10
198.4610690046
 20
-331.3960848983
 30
0.0
 11
204.5616043974
 21
-331.3960848983
 31
0.0
  0
LINE
  5
334
330
1F
100
AcDbEntity
  8
0
  6
Continuous
 62
     7
370
    15
100
AcDbLine
 10
146.6616524625
 20
-331.3960848983
 30
0.0
 11
198.4610690046
 21
-331.3960848983
 31
0.0
  0
LINE
  5
335
330
1F
100
AcDbEntity
  8
0
  6
Continuous
 62
     7
370
    15
100
AcDbLine
 10
198.4610690046
 20
-330.896083885
 30
0.0
 11
204.5616043974
 21
-330.896083885
 31
0.0
  0
LINE
  5
336
330
1F
100
AcDbEntity
  8
0
  6
Continuous
 62
     7
370
    15
100
AcDbLine
 10
146.6616524625
 20
-330.896083885
 30
0.0
 11
198.4610690046
 21
-330.896083885
 31
0.0
  0
LINE
  5
337
330
1F
100
AcDbEntity
  8
0
  6
Continuous
 62
     7
370
    15
100
AcDbLine
 10
-501.5389605183
 20
-331.3960848983
 30
0.0
 11
-495.4383752998
 21
-331.3960848983
 31
0.0
  0
LINE
  5
338
330
1F
100
AcDbEntity
  8
0
  6
Continuous
 62
     7
370
    15
100
AcDbLine
 10
-553.3383765947
 20
-331.3960848983
 30
0.0
 11
-501.5389605183
 21
-331.3960848983
 31
0.0
  0
LINE
  5
339
330
1F
100
AcDbEntity
  8
0
  6
Continuous
 62
     7
370
    15
100
AcDbLine
 10
-501.5389605183
 20
-330.896083885
 30
0.0
 11
-495.4383752998
 21
-330.896083885
 31
0.0
  0
LINE
  5
33A
330
1F
100
AcDbEntity
  8
0
  6
Continuous
 62
     7
370
    15
100
AcDbLine
 10
-553.3383765947
 20
-330.896083885
 30
0.0
 11
-501.5389605183
 21
-330.896083885
 31
0.0
  0
LINE
  5
33B
330
1F
100
AcDbEntity
  8
0
  6
Continuous
 62
     7
370
    15
100
AcDbLine
 10
-501.9510819335
 20
-312.6360845428
 30
0.0
 11
-553.3383765947
 21
-312.6360845428
 31
0.0
  0
LINE
  5
33C
330
1F
100
AcDbEntity
  8
0
  6
Continuous
 62
     7
370
    15
100
AcDbLine
 10
-495.4383752998
 20
-312.6360845428
 30
0.0
 11
-501.9510819335
 21
-312.6360845428
 31
0.0
  0
LINE
  5
33D
330
1F
100
AcDbEntity
  8
0
  6
Continuous
 62
     7
370
    15
100
AcDbLine
 10
-501.9510819335
 20
-312.1360844608
 30
0.0
 11
-553.3383765947
 21
-312.1360844608
 31
0.0
  0
LINE
  5
33E
330
1F
100
AcDbEntity
  8
0
  6
Continuous
 62
     7
370
    15
100
AcDbLine
 10
-495.4383752998
 20
-312.1360844608
 30
0.0
 11
-501.9510819335
 21
-312.1360844608
 31
0.0
  0
LINE
  5
33F
330
1F
100
AcDbEntity
  8
0
  6
Continuous
 62
     7
370
    15
100
AcDbLine
 10
-550.7959292959
 20
-352.1800401296
 30
0.0
 11
-550.7959292959
 21
-352.6660824802
 31
0.0
  0
LINE
  5
340
330
1F
100
AcDbEntity
  8
0
  6
Continuous
 62
     7
370
    15
100
AcDbLine
 10
-550.7959292959
 20
-334.8660829153
 30
0.0
 11
-550.7959292959
 21
-352.1800401296
 31
0.0
  0
LINE
  5
341
330
1F
100
AcDbEntity
  8
0
  6
Continuous
 62
     7
370
    15
100
AcDbLine
 10
-550.9959289562
 20
-352.3691172387
 30
0.0
 11
-550.9959289562
 21
-334.666083255
 31
0.0
  0
LINE
  5
342
330
1F
100
AcDbEntity
  8
0
  6
Continuous
 62
     7
370
    15
100
AcDbLine
 10
-550.9959289562
 20
-352.8660858657
 30
0.0
 11
-550.9959289562
 21
-352.3691172387
 31
0.0
  0
LINE
  5
343
330
1F
100
AcDbEntity
  8
0
  6
Continuous
 62
     7
370
    15
100
AcDbLine
 10
-556.0959296059
 20
-352.3691172387
 30
0.0
 11
-556.0959296059
 21
-352.8660858657
 31
0.0
  0
LINE
  5
344
330
1F
100
AcDbEntity
  8
0
  6
Continuous
 62
     7
370
    15
100
AcDbLine
 10
-556.0959296059
 20
-334.666083255
 30
0.0
 11
-556.0959296059
 21
-352.3691172387
 31
0.0
  0
LINE
  5
345
330
1F
100
AcDbEntity
  8
0
  6
Continuous
 62
     7
370
    15
100
AcDbLine
 10
1587.4039663244
 20
-334.666083255
 30
0.0
 11
1587.4039663244
 21
-352.8660858657
 31
0.0
  0
LINE
  5
346
330
1F
100
AcDbEntity
  8
0
  6
Continuous
 62
     7
370
    15
100
AcDbLine
 10
1592.50397815
 20
-352.8660858657
 30
0.0
 11
1592.50397815
 21
-334.666083255
 31
0.0
  0
LINE
  5
347
330
1F
100
AcDbEntity
  8
0
  6
Continuous
 62
     7
370
    15
100
AcDbLine
 10
1587.2041715551
 20
-352.6660824802
 30
0.0
 11
1587.2041715551
 21
-334.8660829153
 31
0.0
  0
LINE
  5
348
330
1F
100
AcDbEntity
  8
0
  6
Continuous
 62
     7
370
    15
100
AcDbLine
 10
-541.7959296834
 20
-341.6192891683
 30
0.0
 11
-541.7959296834
 21
-349.4160833444
 31
0.0
  0
LINE
  5
349
330
1F
100
AcDbEntity
  8
0
  6
Continuous
 62
     7
370
    15
100
AcDbLine
 10
-541.7959296834
 20
-338.1160857763
 30
0.0
 11
-541.7959296834
 21
-341.6192891683
 31
0.0
  0
LINE
  5
34A
330
1F
100
AcDbEntity
  8
0
  6
Continuous
 62
     7
370
    15
100
AcDbLine
 10
1562.2040761877
 20
-338.3625733342
 30
0.0
 11
1562.2040761877
 21
-338.1160857763
 31
0.0
  0
LINE
  5
34B
330
1F
100
AcDbEntity
  8
0
  6
Continuous
 62
     7
370
    15
100
AcDbLine
 10
1562.2040761877
 20
-349.4160833444
 30
0.0
 11
1562.2040761877
 21
-338.3625733342
 31
0.0
  0
LINE
  5
34C
330
1F
100
AcDbEntity
  8
0
  6
Continuous
 62
     7
370
    15
100
AcDbLine
 10
1560.2039827276
 20
-338.7660856034
 30
0.0
 11
1560.2039827276
 21
-348.7660835173
 31
0.0
  0
LINE
  5
34D
330
1F
100
AcDbEntity
  8
0
  6
Continuous
 62
     7
370
    15
100
AcDbLine
 10
-539.7959293556
 20
-348.7660835173
 30
0.0
 11
-539.7959293556
 21
-338.7660856034
 31
0.0
  0
LINE
  5
34E
330
1F
100
AcDbEntity
  8
0
  6
Continuous
 62
     7
370
    15
100
AcDbLine
 10
-596.4959280323
 20
-336.5834789958
 30
0.0
 11
-596.4959280323
 21
-352.2410827365
 31
0.0
  0
LINE
  5
34F
330
1F
100
AcDbEntity
  8
0
  6
Continuous
 62
     7
370
    15
100
AcDbLine
 10
-596.4959280323
 20
-335.291082659
 30
0.0
 11
-596.4959280323
 21
-336.5834789958
 31
0.0
  0
LINE
  5
350
330
1F
100
AcDbEntity
  8
0
  6
Continuous
 62
     7
370
    15
100
AcDbLine
 10
-596.7959331106
 20
-336.8377300586
 30
0.0
 11
-596.7959331106
 21
-335.591084012
 31
0.0
  0
LINE
  5
351
330
1F
100
AcDbEntity
  8
0
  6
Continuous
 62
     7
370
    15
100
AcDbLine
 10
-596.7959331106
 20
-351.9410851087
 30
0.0
 11
-596.7959331106
 21
-336.8377300586
 31
0.0
  0
LINE
  5
352
330
1F
100
AcDbEntity
  8
0
  6
Continuous
 62
     7
370
    15
100
AcDbLine
 10
1632.9040063787
 20
-338.6181468751
 30
0.0
 11
1632.9040063787
 21
-335.291082659
 31
0.0
  0
LINE
  5
353
330
1F
100
AcDbEntity
  8
0
  6
Continuous
 62
     7
370
    15
100
AcDbLine
 10
1632.9040063787
 20
-352.2410827365
 30
0.0
 11
1632.9040063787
 21
-338.6181468751
 31
0.0
  0
LINE
  5
354
330
1F
100
AcDbEntity
  8
0
  6
Continuous
 62
     7
370
    15
100
AcDbLine
 10
1633.2041753698
 20
-338.8003731753
 30
0.0
 11
1633.2041753698
 21
-351.9410851087
 31
0.0
  0
LINE
  5
355
330
1F
100
AcDbEntity
  8
0
  6
Continuous
 62
     7
370
    15
100
AcDbLine
 10
1633.2041753698
 20
-335.591084012
 30
0.0
 11
1633.2041753698
 21
-338.8003731753
 31
0.0
  0
LINE
  5
356
330
1F
100
AcDbEntity
  8
0
  6
Continuous
 62
     7
370
    15
100
AcDbLine
 10
-563.4647140037
 20
-354.4660831477
 30
0.0
 11
-596.2959320974
 21
-354.4660831477
 31
0.0
  0
LINE
  5
357
330
1F
100
AcDbEntity
  8
0
  6
Continuous
 62
     7
370
    15
100
AcDbLine
 10
-556.2959292661
 20
-354.4660831477
 30
0.0
 11
-563.4647140037
 21
-354.4660831477
 31
0.0
  0
LINE
  5
358
330
1F
100
AcDbEntity
  8
0
  6
Continuous
 62
     7
370
    15
100
AcDbLine
 10
-563.5930241775
 20
-354.2660834875
 30
0.0
 11
-556.4959289264
 21
-354.2660834875
 31
0.0
  0
LINE
  5
359
330
1F
100
AcDbEntity
  8
0
  6
Continuous
 62
     7
370
    15
100
AcDbLine
 10
-596.0959287118
 20
-354.2660834875
 30
0.0
 11
-563.5930241775
 21
-354.2660834875
 31
0.0
  0
LINE
  5
35A
330
1F
100
AcDbEntity
  8
0
  6
Continuous
 62
     7
370
    15
100
AcDbLine
 10
-563.4647140037
 20
-357.2660858419
 30
0.0
 11
-556.2959292661
 21
-357.2660858419
 31
0.0
  0
LINE
  5
35B
330
1F
100
AcDbEntity
  8
0
  6
Continuous
 62
     7
370
    15
100
AcDbLine
 10
-596.2959320974
 20
-357.2660858419
 30
0.0
 11
-563.4647140037
 21
-357.2660858419
 31
0.0
  0
LINE
  5
35C
330
1F
100
AcDbEntity
  8
0
  6
Continuous
 62
     7
370
    15
100
AcDbLine
 10
-564.7478343677
 20
-359.2660824444
 30
0.0
 11
-594.2959280443
 21
-359.2660824444
 31
0.0
  0
LINE
  5
35D
330
1F
100
AcDbEntity
  8
0
  6
Continuous
 62
     7
370
    15
100
AcDbLine
 10
-558.295929594
 20
-359.2660824444
 30
0.0
 11
-564.7478343677
 21
-359.2660824444
 31
0.0
  0
LINE
  5
35E
330
1F
100
AcDbEntity
  8
0
  6
Continuous
 62
     7
370
    15
100
AcDbLine
 10
1630.7601465154
 20
-354.4660831477
 30
0.0
 11
1592.7040113378
 21
-354.4660831477
 31
0.0
  0
LINE
  5
35F
330
1F
100
AcDbEntity
  8
0
  6
Continuous
 62
     7
370
    15
100
AcDbLine
 10
1632.7039731909
 20
-354.4660831477
 30
0.0
 11
1630.7601465154
 21
-354.4660831477
 31
0.0
  0
LINE
  5
360
330
1F
100
AcDbEntity
  8
0
  6
Continuous
 62
     7
370
    15
100
AcDbLine
 10
1630.5796636511
 20
-354.2660834875
 30
0.0
 11
1632.5041784216
 21
-354.2660834875
 31
0.0
  0
LINE
  5
361
330
1F
100
AcDbEntity
  8
0
  6
Continuous
 62
     7
370
    15
100
AcDbLine
 10
1592.9040445257
 20
-354.2660834875
 30
0.0
 11
1630.5796636511
 21
-354.2660834875
 31
0.0
  0
LINE
  5
362
330
1F
100
AcDbEntity
  8
0
  6
Continuous
 62
     7
370
    15
100
AcDbLine
 10
1630.7601465154
 20
-357.2660858419
 30
0.0
 11
1632.7039731909
 21
-357.2660858419
 31
0.0
  0
LINE
  5
363
330
1F
100
AcDbEntity
  8
0
  6
Continuous
 62
     7
370
    15
100
AcDbLine
 10
1592.7040113378
 20
-357.2660858419
 30
0.0
 11
1630.7601465154
 21
-357.2660858419
 31
0.0
  0
LINE
  5
364
330
1F
100
AcDbEntity
  8
0
  6
Continuous
 62
     7
370
    15
100
AcDbLine
 10
1628.9546026159
 20
-359.2660824444
 30
0.0
 11
1594.7041047979
 21
-359.2660824444
 31
0.0
  0
LINE
  5
365
330
1F
100
AcDbEntity
  8
0
  6
Continuous
 62
     7
370
    15
100
AcDbLine
 10
1630.7041181493
 20
-359.2660824444
 30
0.0
 11
1628.9546026159
 21
-359.2660824444
 31
0.0
  0
LINE
  5
366
330
1F
100
AcDbEntity
  8
0
  6
Continuous
 62
     7
370
    15
100
AcDbLine
 10
1632.7039731909
 20
-307.0660840396
 30
0.0
 11
1592.7040113378
 21
-307.0660840396
 31
0.0
  0
LINE
  5
367
330
1F
100
AcDbEntity
  8
0
  6
Continuous
 62
     7
370
    15
100
AcDbLine
 10
1593.0041803289
 20
-306.7660840835
 30
0.0
 11
1632.4040426183
 21
-306.7660840835
 31
0.0
  0
LINE
  5
368
330
1F
100
AcDbEntity
  8
0
  6
Continuous
 62
     7
370
    15
100
AcDbLine
 10
1592.7040113378
 20
-353.9660858597
 30
0.0
 11
1632.7039731909
 21
-353.9660858597
 31
0.0
  0
SPLINE
  5
369
330
1F
100
AcDbEntity
  8
0
  6
Continuous
 62
     7
370
    15
100
AcDbSpline
210
0.0
220
0.0
230
1.0
 70
     8
 71
     3
 72
    25
 73
    21
 74
     0
 42
0.000000001
 43
0.00000001
 40
0.0
 40
0.0
 40
0.0
 40
0.0
 40
0.064070110060681
 40
0.1453727766445351
 40
0.2036617935460842
 40
0.2636268538726841
 40
0.3230558670943846
 40
0.3839677461309174
 40
0.4406033751141737
 40
0.4883890675417202
 40
0.5363965455063512
 40
0.5990982537958562
 40
0.6541428873370343
 40
0.7106135020758052
 40
0.7696591412387046
 40
0.8302117907245035
 40
0.8768508135788989
 40
0.9246915450819657
 40
0.9714004750431041
 40
0.9999999999999999
 40
0.9999999999999999
 40
0.9999999999999999
 40
0.9999999999999999
 10
1593.201114075251
 20
-309.2660844933002
 30
0.0
 10
1593.435212304751
 20
-309.2415410275516
 30
0.0
 10
1593.966372772524
 20
-309.1858527860148
 30
0.0
 10
1595.383486978443
 20
-310.15634168939
 30
0.0
 10
1596.973808906749
 20
-311.4999254270346
 30
0.0
 10
1598.522799405952
 20
-313.0165620890346
 30
0.0
 10
1600.128389010126
 20
-314.8186654324509
 30
0.0
 10
1601.63429579926
 20
-316.8591653557697
 30
0.0
 10
1602.795173395252
 20
-319.0697027472858
 30
0.0
 10
1603.324733948552
 20
-321.4080488377775
 30
0.0
 10
1603.020438870228
 20
-323.9034886608778
 30
0.0
 10
1601.928526008557
 20
-326.1983144009601
 30
0.0
 10
1600.484974511526
 20
-328.2615133341404
 30
0.0
 10
1598.972513468758
 20
-330.0351046538473
 30
0.0
 10
1597.420672204497
 20
-331.6148111702963
 30
0.0
 10
1596.045463939223
 20
-332.8362453132782
 30
0.0
 10
1594.902021805877
 20
-333.7033823393082
 30
0.0
 10
1594.028389366697
 20
-334.2102916537903
 30
0.0
 10
1593.406509305908
 20
-334.4304265124391
 30
0.0
 10
1593.19112019528
 20
-334.3113174157534
 30
0.0
 10
1593.109322922297
 20
-334.2660839345066
 30
0.0
  0
LWPOLYLINE
  5
36A
330
1F
100
AcDbEntity
  8
0
  6
Continuous
 62
     7
370
    15
100
AcDbPolyline
 90
       19
 70
   128
 43
0.0
 10
1632.389499085
 20
-334.2660839345
 10
1632.003737824
 20
-334.3636716392
 10
1630.7458414007
 20
-333.831603327
 10
1628.8218034673
 20
-332.3468870159
 10
1627.2038949896
 20
-330.8080739017
 10
1625.4786981512
 20
-328.8961971786
 10
1624.3178380895
 20
-327.3754479971
 10
1623.2575906683
 20
-325.6425994124
 10
1622.3928464819
 20
-323.3775204655
 10
1622.2190393377
 20
-321.3065999236
 10
1622.6467622686
 20
-319.2859316852
 10
1624.1390241552
 20
-316.4179498937
 10
1625.7199777532
 20
-314.3482922252
 10
1627.3974908758
 20
-312.5279598545
 10
1629.0037168432
 20
-311.0267265375
 10
1630.4795278478
 20
-309.8750576984
 10
1631.3673986364
 20
-309.3576279144
 10
1632.0690645147
 20
-309.1660837319
 10
1632.0690645147
 20
-309.1660837319
  0
LINE
  5
36B
330
1F
100
AcDbEntity
  8
0
  6
Continuous
 62
     7
370
    15
100
AcDbLine
 10
-556.2959292661
 20
-307.0660840396
 30
0.0
 11
-596.2959320974
 21
-307.0660840396
 31
0.0
  0
LINE
  5
36C
330
1F
100
AcDbEntity
  8
0
  6
Continuous
 62
     7
370
    15
100
AcDbLine
 10
-595.9959270191
 20
-306.7660840835
 30
0.0
 11
-556.5959306192
 21
-306.7660840835
 31
0.0
  0
LINE
  5
36D
330
1F
100
AcDbEntity
  8
0
  6
Continuous
 62
     7
370
    15
100
AcDbLine
 10
-596.2959320974
 20
-353.9660858597
 30
0.0
 11
-556.2959292661
 21
-353.9660858597
 31
0.0
  0
SPLINE
  5
36E
330
1F
100
AcDbEntity
  8
0
  6
Continuous
 62
     7
370
    15
100
AcDbSpline
210
0.0
220
0.0
230
1.0
 70
     8
 71
     3
 72
    25
 73
    21
 74
     0
 42
0.000000001
 43
0.00000001
 40
0.0
 40
0.0
 40
0.0
 40
0.0
 40
0.0640693265341713
 40
0.1453733077190547
 40
0.2036615296480278
 40
0.2636277704832306
 40
0.3230560824369957
 40
0.3839676441487191
 40
0.4406024783671871
 40
0.4883891874321672
 40
0.5363970696985838
 40
0.5990988043611245
 40
0.6541419553014306
 40
0.7106123229247432
 40
0.769659697246785
 40
0.8302132168167576
 40
0.8768509032264028
 40
0.9246915271317298
 40
0.9714006246719509
 40
0.9999999999999999
 40
0.9999999999999999
 40
0.9999999999999999
 40
0.9999999999999999
 10
-595.7988442611027
 20
-309.2660844933002
 30
0.0
 10
-595.5648151455779
 20
-309.2415447401333
 30
0.0
 10
-595.0338030612188
 20
-309.1858640379712
 30
0.0
 10
-593.6164079167808
 20
-310.1563116744879
 30
0.0
 10
-592.0262650108979
 20
-311.4999595974406
 30
0.0
 10
-590.4771032867516
 20
-313.0165239780417
 30
0.0
 10
-588.871637555693
 20
-314.8186822830928
 30
0.0
 10
-587.3656690597788
 20
-316.8591419418818
 30
0.0
 10
-586.2050684236249
 20
-319.0697565242488
 30
0.0
 10
-585.675009930384
 20
-321.4080261133291
 30
0.0
 10
-585.9797084731124
 20
-323.9034852185691
 30
0.0
 10
-587.0715203849528
 20
-326.1982742519367
 30
0.0
 10
-588.5149328833352
 20
-328.2615401628039
 30
0.0
 10
-590.0273725179899
 20
-330.0351353243896
 30
0.0
 10
-591.5793560280412
 20
-331.6147976872091
 30
0.0
 10
-592.9546815283018
 20
-332.8362189196965
 30
0.0
 10
-594.097927588189
 20
-333.7033955766075
 30
0.0
 10
-594.9715630518953
 20
-334.2102904482132
 30
0.0
 10
-595.593489791328
 20
-334.4304269683781
 30
0.0
 10
-595.8088388845093
 20
-334.3113173619121
 30
0.0
 10
-595.8906205128956
 20
-334.2660839345066
 30
0.0
  0
LWPOLYLINE
  5
36F
330
1F
100
AcDbEntity
  8
0
  6
Continuous
 62
     7
370
    15
100
AcDbPolyline
 90
       19
 70
   128
 43
0.0
 10
-556.6105114054
 20
-334.2660839345
 10
-556.9963434469
 20
-334.3636716392
 10
-558.2540871333
 20
-333.831603327
 10
-560.1783001553
 20
-332.3468870159
 10
-561.7960484456
 20
-330.8080739017
 10
-563.521219207
 20
-328.8961971786
 10
-564.6821500491
 20
-327.3754479971
 10
-565.7423117887
 20
-325.6425994124
 10
-566.6072012615
 20
-323.3775204655
 10
-566.7809450757
 20
-321.3065999236
 10
-566.3532854747
 20
-319.2859316852
 10
-564.8610720169
 20
-316.4179498937
 10
-563.2800699901
 20
-314.3482922252
 10
-561.6024227571
 20
-312.5279598545
 10
-559.9963830542
 20
-311.0267265375
 10
-558.5204714667
 20
-309.8750576984
 10
-557.6325112712
 20
-309.3576279144
 10
-556.9310130309
 20
-309.1660837319
 10
-556.9310130309
 20
-309.1660837319
  0
LINE
  5
370
330
1F
100
AcDbEntity
  8
0
  6
Continuous
 62
     7
370
    15
100
AcDbLine
 10
-499.3768034261
 20
-334.2660839345
 30
0.0
 11
-499.3459296171
 21
-334.2660839345
 31
0.0
  0
LINE
  5
371
330
1F
100
AcDbEntity
  8
0
  6
Continuous
 62
     7
370
    15
100
AcDbLine
 10
-509.388375584
 20
-334.2660839345
 30
0.0
 11
-499.3768034261
 21
-334.2660839345
 31
0.0
  0
LINE
  5
372
330
1F
100
AcDbEntity
  8
0
  6
Continuous
 62
     7
370
    15
100
AcDbLine
 10
-500.3459293153
 20
-335.2660859611
 30
0.0
 11
-509.338375669
 21
-335.2660859611
 31
0.0
  0
LINE
  5
373
330
1F
100
AcDbEntity
  8
0
  6
Continuous
 62
     7
370
    15
100
AcDbLine
 10
860.6231941152
 20
-334.2660839345
 30
0.0
 11
860.6540693212
 21
-334.2660839345
 31
0.0
  0
LINE
  5
374
330
1F
100
AcDbEntity
  8
0
  6
Continuous
 62
     7
370
    15
100
AcDbLine
 10
845.7541002203
 20
-334.2660839345
 30
0.0
 11
860.6231941152
 21
-334.2660839345
 31
0.0
  0
LINE
  5
375
330
1F
100
AcDbEntity
  8
0
  6
Continuous
 62
     7
370
    15
100
AcDbLine
 10
859.6540225912
 20
-335.2660859611
 30
0.0
 11
846.754027741
 21
-335.2660859611
 31
0.0
  0
LINE
  5
376
330
1F
100
AcDbEntity
  8
0
  6
Continuous
 62
     7
370
    15
100
AcDbLine
 10
1540.6231416631
 20
-334.2660839345
 30
0.0
 11
1540.6541360784
 21
-334.2660839345
 31
0.0
  0
LINE
  5
377
330
1F
100
AcDbEntity
  8
0
  6
Continuous
 62
     7
370
    15
100
AcDbLine
 10
1525.7541669775
 20
-334.2660839345
 30
0.0
 11
1540.6231416631
 21
-334.2660839345
 31
0.0
  0
LINE
  5
378
330
1F
100
AcDbEntity
  8
0
  6
Continuous
 62
     7
370
    15
100
AcDbLine
 10
1539.6539701391
 20
-335.2660859611
 30
0.0
 11
1526.7540944982
 21
-335.2660859611
 31
0.0
  0
LWPOLYLINE
  5
379
330
1F
100
AcDbEntity
  8
0
  6
Continuous
 62
     7
370
    15
100
AcDbPolyline
 90
       13
 70
   128
 43
0.0
 10
860.6762422491
 20
-309.2826201256
 10
860.4286445547
 20
-309.4293993573
 10
859.5673574377
 20
-309.9132000144
 10
858.060671227
 20
-310.649154396
 10
855.8004630972
 20
-311.434523822
 10
853.7303937841
 20
-311.752240793
 10
851.5921367574
 20
-311.6369952123
 10
849.718285935
 20
-311.1759672548
 10
847.9064239431
 20
-310.4494909432
 10
846.397472756
 20
-309.6694300558
 10
845.7288278509
 20
-309.2809288438
 10
845.7040323187
 20
-309.2660844933
 10
845.7040323187
 20
-309.2660844933
  0
LWPOLYLINE
  5
37A
330
1F
100
AcDbEntity
  8
0
  6
Continuous
 62
     7
370
    15
100
AcDbPolyline
 90
       13
 70
   128
 43
0.0
 10
1540.6763090063
 20
-309.2826201256
 10
1540.4285921026
 20
-309.4293993573
 10
1539.5674241949
 20
-309.9132000144
 10
1538.060618775
 20
-310.649154396
 10
1535.8004106451
 20
-311.434523822
 10
1533.7304605413
 20
-311.752240793
 10
1531.5920843054
 20
-311.6369952123
 10
1529.7183526922
 20
-311.1759672548
 10
1527.906371491
 20
-310.4494909432
 10
1526.3974203039
 20
-309.6694300558
 10
1525.7288946081
 20
-309.2809288438
 10
1525.7040990759
 20
-309.2660844933
 10
1525.7040990759
 20
-309.2660844933
  0
SPLINE
  5
37B
330
1F
100
AcDbEntity
  8
0
  6
Continuous
 62
     7
370
    15
100
AcDbSpline
210
0.0
220
0.0
230
1.0
 70
     8
 71
     3
 72
    14
 73
    10
 74
     0
 42
0.000000001
 43
0.00000001
 40
0.0
 40
0.0
 40
0.0
 40
0.0
 40
0.1398550394146027
 40
0.2902269195825455
 40
0.4563354608925159
 40
0.6439103142839301
 40
0.790847373725839
 40
0.9382046818695509
 40
1.0
 40
1.0
 40
1.0
 40
1.0
 10
-499.3237902168262
 20
-309.2826201256125
 30
0.0
 10
-499.3670713245821
 20
-309.3090419432076
 30
0.0
 10
-499.4568881994887
 20
-309.3638724502992
 30
0.0
 10
-500.395553387754
 20
-309.9072339927197
 30
0.0
 10
-501.9227109952198
 20
-310.6816987669336
 30
0.0
 10
-503.9637410381033
 20
-311.4536962900759
 30
0.0
 10
-506.2496433033303
 20
-311.8218452683643
 30
0.0
 10
-508.045210773858
 20
-311.7576131537759
 30
0.0
 10
-508.9613397014419
 20
-311.5079846104998
 30
0.0
 10
-509.2320151384997
 20
-311.4342304553597
 30
0.0
  0
LINE
  5
37C
330
1F
100
AcDbEntity
  8
0
  6
Continuous
 62
     7
370
    15
100
AcDbLine
 10
1563.2040037084
 20
-301.2660841133
 30
0.0
 11
1503.2040609289
 21
-301.2660841133
 31
0.0
  0
LINE
  5
37D
330
1F
100
AcDbEntity
  8
0
  6
Continuous
 62
     7
370
    15
100
AcDbLine
 10
1563.2040037084
 20
-303.2660842083
 30
0.0
 11
1503.2040609289
 21
-303.2660842083
 31
0.0
  0
LINE
  5
37E
330
1F
100
AcDbEntity
  8
0
  6
Continuous
 62
     7
370
    15
100
AcDbLine
 10
1548.2041372228
 20
-305.2660843033
 30
0.0
 11
1518.2041658331
 21
-305.2660843033
 31
0.0
  0
LINE
  5
37F
330
1F
100
AcDbEntity
  8
0
  6
Continuous
 62
     7
370
    15
100
AcDbLine
 10
-476.7959302049
 20
-301.2660841133
 30
0.0
 11
-536.7959288638
 21
-301.2660841133
 31
0.0
  0
LINE
  5
380
330
1F
100
AcDbEntity
  8
0
  6
Continuous
 62
     7
370
    15
100
AcDbLine
 10
-476.7959302049
 20
-303.2660842083
 30
0.0
 11
-536.7959288638
 21
-303.2660842083
 31
0.0
  0
LINE
  5
381
330
1F
100
AcDbEntity
  8
0
  6
Continuous
 62
     7
370
    15
100
AcDbLine
 10
-491.7959298696
 20
-305.2660843033
 30
0.0
 11
-521.7959291991
 21
-305.2660843033
 31
0.0
  0
LINE
  5
382
330
1F
100
AcDbEntity
  8
0
  6
Continuous
 62
     7
370
    15
100
AcDbLine
 10
883.2040561605
 20
-301.2660841133
 30
0.0
 11
823.204113381
 21
-301.2660841133
 31
0.0
  0
LINE
  5
383
330
1F
100
AcDbEntity
  8
0
  6
Continuous
 62
     7
370
    15
100
AcDbLine
 10
883.2040561605
 20
-303.2660842083
 30
0.0
 11
823.204113381
 21
-303.2660842083
 31
0.0
  0
LINE
  5
384
330
1F
100
AcDbEntity
  8
0
  6
Continuous
 62
     7
370
    15
100
AcDbLine
 10
868.2040704656
 20
-305.2660843033
 30
0.0
 11
838.2040990759
 21
-305.2660843033
 31
0.0
  0
LINE
  5
385
330
1F
100
AcDbEntity
  8
0
  6
Continuous
 62
     7
370
    15
100
AcDbLine
 10
203.204049008
 20
-301.2660841133
 30
0.0
 11
143.2040466238
 21
-301.2660841133
 31
0.0
  0
LINE
  5
386
330
1F
100
AcDbEntity
  8
0
  6
Continuous
 62
     7
370
    15
100
AcDbLine
 10
203.204049008
 20
-303.2660842083
 30
0.0
 11
143.2040466238
 21
-303.2660842083
 31
0.0
  0
LINE
  5
387
330
1F
100
AcDbEntity
  8
0
  6
Continuous
 62
     7
370
    15
100
AcDbLine
 10
188.2040633131
 20
-305.2660843033
 30
0.0
 11
158.2040919233
 21
-305.2660843033
 31
0.0
  0
LINE
  5
388
330
1F
100
AcDbEntity
  8
0
  6
Continuous
 62
     7
370
    15
100
AcDbLine
 10
196.7628134657
 20
-312.7660841357
 30
0.0
 11
146.6116441656
 21
-312.7660841357
 31
0.0
  0
LINE
  5
389
330
1F
100
AcDbEntity
  8
0
  6
Continuous
 62
     7
370
    15
100
AcDbLine
 10
204.6116126943
 20
-312.7660841357
 30
0.0
 11
196.7628134657
 21
-312.7660841357
 31
0.0
  0
LINE
  5
38A
330
1F
100
AcDbEntity
  8
0
  6
Continuous
 62
     7
370
    15
100
AcDbLine
 10
196.7628134657
 20
-313.7344100188
 30
0.0
 11
204.6116126943
 21
-313.7344100188
 31
0.0
  0
LINE
  5
38B
330
1F
100
AcDbEntity
  8
0
  6
Continuous
 62
     7
370
    15
100
AcDbLine
 10
146.6116441656
 20
-313.7344100188
 30
0.0
 11
196.7628134657
 21
-313.7344100188
 31
0.0
  0
LINE
  5
38C
330
1F
100
AcDbEntity
  8
0
  6
Continuous
 62
     7
370
    15
100
AcDbLine
 10
204.6116126943
 20
-329.7456564989
 30
0.0
 11
146.6116441656
 21
-329.7456564989
 31
0.0
  0
LINE
  5
38D
330
1F
100
AcDbEntity
  8
0
  6
Continuous
 62
     7
370
    15
100
AcDbLine
 10
196.7628134657
 20
-330.7660842921
 30
0.0
 11
146.6116441656
 21
-330.7660842921
 31
0.0
  0
LINE
  5
38E
330
1F
100
AcDbEntity
  8
0
  6
Continuous
 62
     7
370
    15
100
AcDbLine
 10
204.6116126943
 20
-330.7660842921
 30
0.0
 11
196.7628134657
 21
-330.7660842921
 31
0.0
  0
LINE
  5
38F
330
1F
100
AcDbEntity
  8
0
  6
Continuous
 62
     7
370
    15
100
AcDbLine
 10
-503.2371629719
 20
-313.7344100188
 30
0.0
 11
-495.3883753847
 21
-313.7344100188
 31
0.0
  0
LINE
  5
390
330
1F
100
AcDbEntity
  8
0
  6
Continuous
 62
     7
370
    15
100
AcDbLine
 10
-553.3883774411
 20
-313.7344100188
 30
0.0
 11
-503.2371629719
 21
-313.7344100188
 31
0.0
  0
LINE
  5
391
330
1F
100
AcDbEntity
  8
0
  6
Continuous
 62
     7
370
    15
100
AcDbLine
 10
-495.3883753847
 20
-329.7456564989
 30
0.0
 11
-553.3883774411
 21
-329.7456564989
 31
0.0
  0
LINE
  5
392
330
1F
100
AcDbEntity
  8
0
  6
Continuous
 62
     7
370
    15
100
AcDbLine
 10
-503.2371629719
 20
-312.7660841357
 30
0.0
 11
-553.3883774411
 21
-312.7660841357
 31
0.0
  0
LINE
  5
393
330
1F
100
AcDbEntity
  8
0
  6
Continuous
 62
     7
370
    15
100
AcDbLine
 10
-495.3883753847
 20
-312.7660841357
 30
0.0
 11
-503.2371629719
 21
-312.7660841357
 31
0.0
  0
LINE
  5
394
330
1F
100
AcDbEntity
  8
0
  6
Continuous
 62
     7
370
    15
100
AcDbLine
 10
-503.2371629719
 20
-330.7660842921
 30
0.0
 11
-553.3883774411
 21
-330.7660842921
 31
0.0
  0
LINE
  5
395
330
1F
100
AcDbEntity
  8
0
  6
Continuous
 62
     7
370
    15
100
AcDbLine
 10
-495.3883753847
 20
-330.7660842921
 30
0.0
 11
-503.2371629719
 21
-330.7660842921
 31
0.0
  0
LINE
  5
396
330
1F
100
AcDbEntity
  8
0
  6
Continuous
 62
     7
370
    15
100
AcDbLine
 10
-509.388375584
 20
-346.7660831894
 30
0.0
 11
-509.338375669
 21
-346.7660831894
 31
0.0
  0
LINE
  5
397
330
1F
100
AcDbEntity
  8
0
  6
Continuous
 62
     7
370
    15
100
AcDbLine
 10
-511.338375764
 20
-348.7660835173
 30
0.0
 11
-511.388375679
 21
-348.7660835173
 31
0.0
  0
LINE
  5
398
330
1F
100
AcDbEntity
  8
0
  6
Continuous
 62
     7
370
    15
100
AcDbLine
 10
-509.388375584
 20
-344.7660828616
 30
0.0
 11
-509.338375669
 21
-344.7660828616
 31
0.0
  0
LINE
  5
399
330
1F
100
AcDbEntity
  8
0
  6
Continuous
 62
     7
370
    15
100
AcDbLine
 10
190.6116141248
 20
-344.7660828616
 30
0.0
 11
190.6616224218
 21
-344.7660828616
 31
0.0
  0
LINE
  5
39A
330
1F
100
AcDbEntity
  8
0
  6
Continuous
 62
     7
370
    15
100
AcDbLine
 10
190.6116141248
 20
-346.7660831894
 30
0.0
 11
190.6616224218
 21
-346.7660831894
 31
0.0
  0
LINE
  5
39B
330
1F
100
AcDbEntity
  8
0
  6
Continuous
 62
     7
370
    15
100
AcDbLine
 10
188.661648171
 20
-348.7660835173
 30
0.0
 11
188.611639874
 21
-348.7660835173
 31
0.0
  0
LINE
  5
39C
330
1F
100
AcDbEntity
  8
0
  6
Continuous
 62
     7
370
    15
100
AcDbLine
 10
-539.3883751463
 20
-344.7660828616
 30
0.0
 11
-509.388375584
 21
-344.7660828616
 31
0.0
  0
LINE
  5
39D
330
1F
100
AcDbEntity
  8
0
  6
Continuous
 62
     7
370
    15
100
AcDbLine
 10
-539.3883751463
 20
-346.7660831894
 30
0.0
 11
-509.388375584
 21
-346.7660831894
 31
0.0
  0
LINE
  5
39E
330
1F
100
AcDbEntity
  8
0
  6
Continuous
 62
     7
370
    15
100
AcDbLine
 10
-511.388375679
 20
-348.7660835173
 30
0.0
 11
-537.3883748185
 21
-348.7660835173
 31
0.0
  0
LINE
  5
39F
330
1F
100
AcDbEntity
  8
0
  6
Continuous
 62
     7
370
    15
100
AcDbLine
 10
160.6116427351
 20
-346.7660831894
 30
0.0
 11
190.6116141248
 21
-346.7660831894
 31
0.0
  0
LINE
  5
3A0
330
1F
100
AcDbEntity
  8
0
  6
Continuous
 62
     7
370
    15
100
AcDbLine
 10
160.6116427351
 20
-344.7660828616
 30
0.0
 11
190.6116141248
 21
-344.7660828616
 31
0.0
  0
LINE
  5
3A1
330
1F
100
AcDbEntity
  8
0
  6
Continuous
 62
     7
370
    15
100
AcDbLine
 10
188.611639874
 20
-348.7660835173
 30
0.0
 11
162.6116169859
 21
-348.7660835173
 31
0.0
  0
LINE
  5
3A2
330
1F
100
AcDbEntity
  8
0
  6
Continuous
 62
     7
370
    15
100
AcDbLine
 10
160.661651032
 20
-338.5660859432
 30
0.0
 11
160.7115997244
 21
-338.5660859432
 31
0.0
  0
LINE
  5
3A3
330
1F
100
AcDbEntity
  8
0
  6
Continuous
 62
     7
370
    15
100
AcDbLine
 10
190.5115975309
 20
-338.5660859432
 30
0.0
 11
190.6616224218
 21
-338.5660859432
 31
0.0
  0
LINE
  5
3A4
330
1F
100
AcDbEntity
  8
0
  6
Continuous
 62
     7
370
    15
100
AcDbLine
 10
-539.3383742999
 20
-338.5660859432
 30
0.0
 11
-539.2883771788
 21
-338.5660859432
 31
0.0
  0
LINE
  5
3A5
330
1F
100
AcDbEntity
  8
0
  6
Continuous
 62
     7
370
    15
100
AcDbLine
 10
-509.488375647
 20
-338.5660859432
 30
0.0
 11
-509.338375669
 21
-338.5660859432
 31
0.0
  0
LINE
  5
3A6
330
1F
100
AcDbEntity
  8
0
  6
Continuous
 62
     7
370
    15
100
AcDbLine
 10
160.6116427351
 20
-338.7660856034
 30
0.0
 11
160.6116427351
 21
-344.7660828616
 31
0.0
  0
LINE
  5
3A7
330
1F
100
AcDbEntity
  8
0
  6
Continuous
 62
     7
370
    15
100
AcDbLine
 10
160.6116427351
 20
-338.7660856034
 30
0.0
 11
190.6116141248
 21
-338.7660856034
 31
0.0
  0
LINE
  5
3A8
330
1F
100
AcDbEntity
  8
0
  6
Continuous
 62
     7
370
    15
100
AcDbLine
 10
190.6116141248
 20
-338.7660856034
 30
0.0
 11
190.6116141248
 21
-344.7660828616
 31
0.0
  0
LINE
  5
3A9
330
1F
100
AcDbEntity
  8
0
  6
Continuous
 62
     7
370
    15
100
AcDbLine
 10
-539.3883751463
 20
-338.7660856034
 30
0.0
 11
-539.3883751463
 21
-344.7660828616
 31
0.0
  0
LINE
  5
3AA
330
1F
100
AcDbEntity
  8
0
  6
Continuous
 62
     7
370
    15
100
AcDbLine
 10
-509.388375584
 20
-338.7660856034
 30
0.0
 11
-509.388375584
 21
-344.7660828616
 31
0.0
  0
LINE
  5
3AB
330
1F
100
AcDbEntity
  8
0
  6
Continuous
 62
     7
370
    15
100
AcDbLine
 10
-539.3883751463
 20
-338.7660856034
 30
0.0
 11
-509.388375584
 21
-338.7660856034
 31
0.0
  0
LINE
  5
3AC
330
1F
100
AcDbEntity
  8
0
  6
Continuous
 62
     8
370
    15
100
AcDbLine
 10
-542.0959310364
 20
-341.5052990105
 30
0.0
 11
-542.0959310364
 21
-337.8160844233
 31
0.0
  0
LINE
  5
3AD
330
1F
100
AcDbEntity
  8
0
  6
Continuous
 62
     8
370
    15
100
AcDbLine
 10
-542.0959310364
 20
-349.7160846974
 30
0.0
 11
-542.0959310364
 21
-341.5052990105
 31
0.0
  0
LINE
  5
3AE
330
1F
100
AcDbEntity
  8
0
  6
Continuous
 62
     8
370
    15
100
AcDbLine
 10
1562.5040067602
 20
-338.075658926
 30
0.0
 11
1562.5040067602
 21
-349.7160846974
 31
0.0
  0
LINE
  5
3AF
330
1F
100
AcDbEntity
  8
0
  6
Continuous
 62
     8
370
    15
100
AcDbLine
 10
1562.5040067602
 20
-337.8160844233
 30
0.0
 11
1562.5040067602
 21
-338.075658926
 31
0.0
  0
LINE
  5
3B0
330
1F
100
AcDbEntity
  8
0
  6
Continuous
 62
     7
370
    15
100
AcDbLine
 10
-1061.363207179
 20
2215.0060532731
 30
0.0
 11
-1059.3632073169
 21
2217.0060536009
 31
0.0
  0
LINE
  5
3B1
330
1F
100
AcDbEntity
  8
0
  6
Continuous
 62
     7
370
    15
100
AcDbLine
 10
-1059.3632073169
 20
2243.0060522747
 30
0.0
 11
-1061.363207179
 21
2245.0060526025
 31
0.0
  0
LINE
  5
3B2
330
1F
100
AcDbEntity
  8
0
  6
Continuous
 62
     7
370
    15
100
AcDbLine
 10
-1061.363207179
 20
2245.0060526025
 30
0.0
 11
-1062.363207343
 21
2245.0060526025
 31
0.0
  0
LINE
  5
3B3
330
1F
100
AcDbEntity
  8
0
  6
Continuous
 62
     7
370
    15
100
AcDbLine
 10
-1062.363207343
 20
2215.0060532731
 30
0.0
 11
-1061.363207179
 21
2215.0060532731
 31
0.0
  0
LINE
  5
3B4
330
1F
100
AcDbEntity
  8
0
  6
Continuous
 62
     7
370
    15
100
AcDbLine
 10
-1063.233207914
 20
2239.5860532415
 30
0.0
 11
-1063.3632075069
 21
2239.4560555112
 31
0.0
  0
LINE
  5
3B5
330
1F
100
AcDbEntity
  8
0
  6
Continuous
 62
     7
370
    15
100
AcDbLine
 10
-1063.3632075069
 20
2220.5560540897
 30
0.0
 11
-1063.233207914
 21
2220.4260544968
 31
0.0
  0
LINE
  5
3B6
330
1F
100
AcDbEntity
  8
0
  6
Continuous
 62
     7
370
    15
100
AcDbLine
 10
-1062.363207343
 20
2239.756053139
 30
0.0
 11
-1062.733207832
 21
2239.756053139
 31
0.0
  0
LINE
  5
3B7
330
1F
100
AcDbEntity
  8
0
  6
Continuous
 62
     7
370
    15
100
AcDbLine
 10
-1062.733207832
 20
2220.2560545993
 30
0.0
 11
-1062.363207343
 21
2220.2560545993
 31
0.0
  0
LINE
  5
3B8
330
1F
100
AcDbEntity
  8
0
  6
Continuous
 62
     7
370
    15
100
AcDbLine
 10
-1089.0632076216
 20
2215.0060532731
 30
0.0
 11
-1082.6632073176
 21
2215.0060532731
 31
0.0
  0
LINE
  5
3B9
330
1F
100
AcDbEntity
  8
0
  6
Continuous
 62
     7
370
    15
100
AcDbLine
 10
-1082.6632073176
 20
2245.0060526025
 30
0.0
 11
-1089.0632076216
 21
2245.0060526025
 31
0.0
  0
LINE
  5
3BA
330
1F
100
AcDbEntity
  8
0
  6
Continuous
 62
     7
370
    15
100
AcDbLine
 10
-1082.6632073176
 20
2215.0060532731
 30
0.0
 11
-1082.3632078272
 21
2215.3060546261
 31
0.0
  0
LINE
  5
3BB
330
1F
100
AcDbEntity
  8
0
  6
Continuous
 62
     7
370
    15
100
AcDbLine
 10
-1082.3632078272
 20
2244.7060549748
 30
0.0
 11
-1082.6632073176
 21
2245.0060526025
 31
0.0
  0
LINE
  5
3BC
330
1F
100
AcDbEntity
  8
0
  6
Continuous
 62
     7
370
    15
100
AcDbLine
 10
-1089.0632076216
 20
2245.0060526025
 30
0.0
 11
-1089.3632089746
 21
2244.7060549748
 31
0.0
  0
LINE
  5
3BD
330
1F
100
AcDbEntity
  8
0
  6
Continuous
 62
     7
370
    15
100
AcDbLine
 10
-1089.3632089746
 20
2215.3060546261
 30
0.0
 11
-1089.0632076216
 21
2215.0060532731
 31
0.0
  0
LINE
  5
3BE
330
1F
100
AcDbEntity
  8
0
  6
Continuous
 62
     7
370
    15
100
AcDbLine
 10
-1082.3632078272
 20
2220.2560545993
 30
0.0
 11
-1081.9932082695
 21
2220.2560545993
 31
0.0
  0
LINE
  5
3BF
330
1F
100
AcDbEntity
  8
0
  6
Continuous
 62
     7
370
    15
100
AcDbLine
 10
-1081.9932082695
 20
2239.756053139
 30
0.0
 11
-1082.3632078272
 21
2239.756053139
 31
0.0
  0
LINE
  5
3C0
330
1F
100
AcDbEntity
  8
0
  6
Continuous
 62
     7
370
    15
100
AcDbLine
 10
-1081.4932072562
 20
2220.4260544968
 30
0.0
 11
-1081.3632076633
 21
2220.5560540897
 31
0.0
  0
LINE
  5
3C1
330
1F
100
AcDbEntity
  8
0
  6
Continuous
 62
     7
370
    15
100
AcDbLine
 10
-1081.3632076633
 20
2239.4560555112
 30
0.0
 11
-1081.4932072562
 21
2239.5860532415
 31
0.0
  0
LINE
  5
3C2
330
1F
100
AcDbEntity
  8
0
  6
Continuous
 62
     7
370
    15
100
AcDbLine
 10
-1062.733207832
 20
2258.9560577762
 30
0.0
 11
-1063.233207914
 21
2258.9560577762
 31
0.0
  0
LINE
  5
3C3
330
1F
100
AcDbEntity
  8
0
  6
Continuous
 62
     7
370
    15
100
AcDbLine
 10
-1081.4932072562
 20
2258.9560577762
 30
0.0
 11
-1081.9932082695
 21
2258.9560577762
 31
0.0
  0
LINE
  5
3C4
330
1F
100
AcDbEntity
  8
0
  6
Continuous
 62
     7
370
    15
100
AcDbLine
 10
-1102.5028964532
 20
2175.195762713
 30
0.0
 11
-1102.5132080567
 21
2175.2060724539
 31
0.0
  0
LINE
  5
3C5
330
1F
100
AcDbEntity
  8
0
  6
Continuous
 62
     7
370
    15
100
AcDbLine
 10
-1105.0632065189
 20
2206.5560713527
 30
0.0
 11
-1107.8632092131
 21
2206.5560713527
 31
0.0
  0
LINE
  5
3C6
330
1F
100
AcDbEntity
  8
0
  6
Continuous
 62
     7
370
    15
100
AcDbLine
 10
-1107.8632092131
 20
2166.5560713154
 30
0.0
 11
-1105.0632065189
 21
2166.5560713154
 31
0.0
  0
LINE
  5
3C7
330
1F
100
AcDbEntity
  8
0
  6
Continuous
 62
     7
370
    15
100
AcDbLine
 10
-1107.8632092131
 20
2206.5560713527
 30
0.0
 11
-1109.8632058156
 21
2204.5560719562
 31
0.0
  0
LINE
  5
3C8
330
1F
100
AcDbEntity
  8
0
  6
Continuous
 62
     7
370
    15
100
AcDbLine
 10
-1109.8632058156
 20
2168.5560716432
 30
0.0
 11
-1107.8632092131
 21
2166.5560713154
 31
0.0
  0
LINE
  5
3C9
330
1F
100
AcDbEntity
  8
0
  6
Continuous
 62
     7
370
    15
100
AcDbLine
 10
-1105.0632065189
 20
2166.5560713154
 30
0.0
 11
-1104.8632068587
 21
2166.7560709757
 31
0.0
  0
LINE
  5
3CA
330
1F
100
AcDbEntity
  8
0
  6
Continuous
 62
     7
370
    15
100
AcDbLine
 10
-1104.8632068587
 20
2206.3560716924
 30
0.0
 11
-1105.0632065189
 21
2206.5560713527
 31
0.0
  0
LINE
  5
3CB
330
1F
100
AcDbEntity
  8
0
  6
Continuous
 62
     7
370
    15
100
AcDbLine
 10
-1057.6632074108
 20
2166.5560713154
 30
0.0
 11
-1057.3632074547
 21
2166.8560708058
 31
0.0
  0
LINE
  5
3CC
330
1F
100
AcDbEntity
  8
0
  6
Continuous
 62
     7
370
    15
100
AcDbLine
 10
-1057.3632074547
 20
2206.2560718623
 30
0.0
 11
-1057.6632074108
 21
2206.5560713527
 31
0.0
  0
LINE
  5
3CD
330
1F
100
AcDbEntity
  8
0
  6
Continuous
 62
     7
370
    15
100
AcDbLine
 10
-1104.5632092309
 20
2206.5560713527
 30
0.0
 11
-1104.8632068587
 21
2206.2560718623
 31
0.0
  0
LINE
  5
3CE
330
1F
100
AcDbEntity
  8
0
  6
Continuous
 62
     7
370
    15
100
AcDbLine
 10
-1104.8632068587
 20
2166.8560708058
 30
0.0
 11
-1104.5632092309
 21
2166.5560713154
 31
0.0
  0
LINE
  5
3CF
330
1F
100
AcDbEntity
  8
0
  6
Continuous
 62
     7
370
    15
100
AcDbLine
 10
-1057.6632074108
 20
2206.5560713527
 30
0.0
 11
-1104.5632092309
 21
2206.5560713527
 31
0.0
  0
LINE
  5
3D0
330
1F
100
AcDbEntity
  8
0
  6
Continuous
 62
     7
370
    15
100
AcDbLine
 10
-1104.5632092309
 20
2166.5560713154
 30
0.0
 11
-1057.6632074108
 21
2166.5560713154
 31
0.0
  0
LINE
  5
3D1
330
1F
100
AcDbEntity
  8
0
  6
Continuous
 62
     7
370
    15
100
AcDbLine
 10
-1082.4005128843
 20
2199.0060716052
 30
0.0
 11
-1082.4586721164
 21
2199.0060716052
 31
0.0
  0
LINE
  5
3D2
330
1F
100
AcDbEntity
  8
0
  6
Continuous
 62
     7
370
    15
100
AcDbLine
 10
-1082.5052717728
 20
2184.1060717706
 30
0.0
 11
-1082.4005128843
 21
2184.1060717706
 31
0.0
  0
LINE
  5
3D3
330
1F
100
AcDbEntity
  8
0
  6
Continuous
 62
     7
370
    15
100
AcDbLine
 10
-1055.8632076745
 20
2199.0560715203
 30
0.0
 11
-1057.3632074547
 21
2199.0560715203
 31
0.0
  0
LINE
  5
3D4
330
1F
100
AcDbEntity
  8
0
  6
Continuous
 62
     7
370
    15
100
AcDbLine
 10
-1057.3632074547
 20
2184.0560718556
 30
0.0
 11
-1055.8632076745
 21
2184.0560718556
 31
0.0
  0
LINE
  5
3D5
330
1F
100
AcDbEntity
  8
0
  6
Continuous
 62
     7
370
    15
100
AcDbLine
 10
-1051.8632074845
 20
2221.5560710174
 30
0.0
 11
-1053.8632075795
 21
2221.5560710174
 31
0.0
  0
LINE
  5
3D6
330
1F
100
AcDbEntity
  8
0
  6
Continuous
 62
     7
370
    15
100
AcDbLine
 10
-1053.8632075795
 20
2161.5560723585
 30
0.0
 11
-1051.8632074845
 21
2161.5560723585
 31
0.0
  0
LINE
  5
3D7
330
1F
100
AcDbEntity
  8
0
  6
Continuous
 62
     7
370
    15
100
AcDbLine
 10
-1053.8632075795
 20
2221.5560710174
 30
0.0
 11
-1055.8632076745
 21
2206.5560713527
 31
0.0
  0
LINE
  5
3D8
330
1F
100
AcDbEntity
  8
0
  6
Continuous
 62
     7
370
    15
100
AcDbLine
 10
-1055.8632076745
 20
2176.5560720232
 30
0.0
 11
-1053.8632075795
 21
2161.5560723585
 31
0.0
  0
LINE
  5
3D9
330
1F
100
AcDbEntity
  8
0
  6
Continuous
 62
     7
370
    15
100
AcDbLine
 10
-1082.3632078272
 20
116.0560602438
 30
0.0
 11
-1083.8632090044
 21
116.0560602438
 31
0.0
  0
LINE
  5
3DA
330
1F
100
AcDbEntity
  8
0
  6
Continuous
 62
     7
370
    15
100
AcDbLine
 10
-1064.8632077527
 20
116.0560602438
 30
0.0
 11
-1066.3632070673
 21
116.0560602438
 31
0.0
  0
LINE
  5
3DB
330
1F
100
AcDbEntity
  8
0
  6
Continuous
 62
     7
370
    15
100
AcDbLine
 10
-1064.3632076708
 20
115.5560964835
 30
0.0
 11
-1064.8632077527
 21
116.0560602438
 31
0.0
  0
LINE
  5
3DC
330
1F
100
AcDbEntity
  8
0
  6
Continuous
 62
     7
370
    15
100
AcDbLine
 10
-1083.8632090044
 20
116.0560602438
 30
0.0
 11
-1084.3632062924
 21
115.5560964835
 31
0.0
  0
LINE
  5
3DD
330
1F
100
AcDbEntity
  8
0
  6
Continuous
 62
     7
370
    15
100
AcDbLine
 10
-1066.3632070673
 20
116.0560602438
 30
0.0
 11
-1066.8632071492
 21
115.5560964835
 31
0.0
  0
LINE
  5
3DE
330
1F
100
AcDbEntity
  8
0
  6
Continuous
 62
     7
370
    15
100
AcDbLine
 10
-1081.863206814
 20
115.5560964835
 30
0.0
 11
-1082.3632078272
 21
116.0560602438
 31
0.0
  0
ARC
  5
3DF
330
1F
100
AcDbEntity
  8
0
  6
Continuous
 62
     7
370
    15
100
AcDbCircle
 10
-1061.3632074845
 20
2163.0060540699
 30
0.0
 40
1.000000000000227
100
AcDbArc
 50
270.0
 51
0.0
  0
LINE
  5
3E0
330
1F
100
AcDbEntity
  8
0
  6
Continuous
 62
     7
370
    15
100
AcDbLine
 10
-1071.3632078868
 20
2162.0060538989
 30
0.0
 11
-1061.363207179
 21
2162.0060538989
 31
0.0
  0
ARC
  5
3E1
330
1F
100
AcDbEntity
  8
0
  6
Continuous
 62
     7
370
    15
100
AcDbCircle
 10
-1071.3632074845
 20
2163.0060540699
 30
0.0
 40
1.0
100
AcDbArc
 50
180.0
 51
270.0
  0
LINE
  5
3E2
330
1F
100
AcDbEntity
  8
0
  6
Continuous
 62
     7
370
    15
100
AcDbLine
 10
-1082.8632069779
 20
2164.9060545605
 30
0.0
 11
-1072.8632072014
 21
2164.9060545605
 31
0.0
  0
LINE
  5
3E3
330
1F
100
AcDbEntity
  8
0
  6
Continuous
 62
     7
370
    15
100
AcDbLine
 10
-1089.3632089746
 20
2162.0060538989
 30
0.0
 11
-1084.3632062924
 21
2162.0060538989
 31
0.0
  0
ARC
  5
3E4
330
1F
100
AcDbEntity
  8
0
  6
Continuous
 62
     7
370
    15
100
AcDbCircle
 10
-1084.3632074845
 20
2163.0060540699
 30
0.0
 40
1.0
100
AcDbArc
 50
270.0
 51
0.0
  0
ARC
  5
3E5
330
1F
100
AcDbEntity
  8
0
  6
Continuous
 62
     7
370
    15
100
AcDbCircle
 10
-1082.3632074845
 20
2165.2560540699
 30
0.0
 40
1.000000000000227
100
AcDbArc
 50
120.0
 51
180.0
  0
LINE
  5
3E6
330
1F
100
AcDbEntity
  8
0
  6
Continuous
 62
     7
370
    15
100
AcDbLine
 10
-1072.8632072014
 20
2166.2560531986
 30
0.0
 11
-1072.3632080508
 21
2166.2560531986
 31
0.0
  0
LINE
  5
3E7
330
1F
100
AcDbEntity
  8
0
  6
Continuous
 62
     7
370
    15
100
AcDbLine
 10
-1099.3632068885
 20
2157.0060530794
 30
0.0
 11
-1097.3632065606
 21
2155.0060527515
 31
0.0
  0
LINE
  5
3E8
330
1F
100
AcDbEntity
  8
0
  6
Continuous
 62
     7
370
    15
100
AcDbLine
 10
-1097.3632065606
 20
2155.0060527515
 30
0.0
 11
-1095.3632062328
 21
2155.0060527515
 31
0.0
  0
LINE
  5
3E9
330
1F
100
AcDbEntity
  8
0
  6
Continuous
 62
     7
370
    15
100
AcDbLine
 10
-1070.3632077229
 20
2084.5560709131
 30
0.0
 11
-1068.8632084084
 21
2084.5560709131
 31
0.0
  0
LINE
  5
3EA
330
1F
100
AcDbEntity
  8
0
  6
Continuous
 62
     7
370
    15
100
AcDbLine
 10
-1068.8632084084
 20
2113.5560700786
 30
0.0
 11
-1070.3632077229
 21
2113.5560700786
 31
0.0
  0
LINE
  5
3EB
330
1F
100
AcDbEntity
  8
0
  6
Continuous
 62
     7
370
    15
100
AcDbLine
 10
-1070.3632077229
 20
2029.5560712111
 30
0.0
 11
-1068.8632084084
 21
2029.5560712111
 31
0.0
  0
LINE
  5
3EC
330
1F
100
AcDbEntity
  8
0
  6
Continuous
 62
     7
370
    15
100
AcDbLine
 10
-1068.8632084084
 20
2058.5560703766
 30
0.0
 11
-1070.3632077229
 21
2058.5560703766
 31
0.0
  0
LINE
  5
3ED
330
1F
100
AcDbEntity
  8
0
  6
Continuous
 62
     7
370
    15
100
AcDbLine
 10
-1079.8632083488
 20
2084.5560709131
 30
0.0
 11
-1078.3632071716
 21
2084.5560709131
 31
0.0
  0
LINE
  5
3EE
330
1F
100
AcDbEntity
  8
0
  6
Continuous
 62
     7
370
    15
100
AcDbLine
 10
-1078.3632071716
 20
2113.5560700786
 30
0.0
 11
-1079.8632083488
 21
2113.5560700786
 31
0.0
  0
LINE
  5
3EF
330
1F
100
AcDbEntity
  8
0
  6
Continuous
 62
     7
370
    15
100
AcDbLine
 10
-1079.8632083488
 20
2029.5560712111
 30
0.0
 11
-1078.3632071716
 21
2029.5560712111
 31
0.0
  0
LINE
  5
3F0
330
1F
100
AcDbEntity
  8
0
  6
Continuous
 62
     7
370
    15
100
AcDbLine
 10
-1078.3632071716
 20
2058.5560703766
 30
0.0
 11
-1079.8632083488
 21
2058.5560703766
 31
0.0
  0
LINE
  5
3F1
330
1F
100
AcDbEntity
  8
0
  6
Continuous
 62
     7
370
    15
100
AcDbLine
 10
-1066.8632071492
 20
2029.0560776484
 30
0.0
 11
-1064.8632077527
 21
2031.0560668004
 31
0.0
  0
LINE
  5
3F2
330
1F
100
AcDbEntity
  8
0
  6
Continuous
 62
     7
370
    15
100
AcDbLine
 10
-1064.8632077527
 20
2057.0560747874
 30
0.0
 11
-1066.8632071492
 21
2059.0560788405
 31
0.0
  0
LINE
  5
3F3
330
1F
100
AcDbEntity
  8
0
  6
Continuous
 62
     7
370
    15
100
AcDbLine
 10
-1066.8632071492
 20
2059.0560788405
 30
0.0
 11
-1068.8632084084
 21
2059.0560788405
 31
0.0
  0
LINE
  5
3F4
330
1F
100
AcDbEntity
  8
0
  6
Continuous
 62
     7
370
    15
100
AcDbLine
 10
-1068.8632084084
 20
2029.0560776484
 30
0.0
 11
-1066.8632071492
 21
2029.0560776484
 31
0.0
  0
LINE
  5
3F5
330
1F
100
AcDbEntity
  8
0
  6
Continuous
 62
     7
370
    15
100
AcDbLine
 10
-1066.8632071492
 20
2084.0560698998
 30
0.0
 11
-1064.8632077527
 21
2086.0560739529
 31
0.0
  0
LINE
  5
3F6
330
1F
100
AcDbEntity
  8
0
  6
Continuous
 62
     7
370
    15
100
AcDbLine
 10
-1064.8632077527
 20
2112.0560744894
 30
0.0
 11
-1066.8632071492
 21
2114.0560710919
 31
0.0
  0
LINE
  5
3F7
330
1F
100
AcDbEntity
  8
0
  6
Continuous
 62
     7
370
    15
100
AcDbLine
 10
-1066.8632071492
 20
2114.0560710919
 30
0.0
 11
-1068.8632084084
 21
2114.0560710919
 31
0.0
  0
LINE
  5
3F8
330
1F
100
AcDbEntity
  8
0
  6
Continuous
 62
     7
370
    15
100
AcDbLine
 10
-1068.8632084084
 20
2084.0560698998
 30
0.0
 11
-1066.8632071492
 21
2084.0560698998
 31
0.0
  0
LINE
  5
3F9
330
1F
100
AcDbEntity
  8
0
  6
Continuous
 62
     7
370
    15
100
AcDbLine
 10
-1063.3632075069
 20
2259.006051172
 30
0.0
 11
-1064.33153339
 21
2259.006051172
 31
0.0
  0
LINE
  5
3FA
330
1F
100
AcDbEntity
  8
0
  6
Continuous
 62
     7
370
    15
100
AcDbLine
 10
-1064.1810419065
 20
2201.0060537723
 30
0.0
 11
-1064.1138572273
 21
2201.0060537723
 31
0.0
  0
ARC
  5
3FB
330
1F
100
AcDbEntity
  8
0
  6
Continuous
 62
     7
370
    15
100
AcDbCircle
 10
-1072.3371560613
 20
2268.6060540699
 30
0.0
 40
12.49999999999991
100
AcDbArc
 50
230.1746287392
 51
309.8253712608
  0
LINE
  5
3FC
330
1F
100
AcDbEntity
  8
0
  6
Continuous
 62
     7
370
    15
100
AcDbLine
 10
-1080.3427798701
 20
2259.006051172
 30
0.0
 11
-1081.3632076633
 21
2259.006051172
 31
0.0
  0
LINE
  5
3FD
330
1F
100
AcDbEntity
  8
0
  6
Continuous
 62
     7
370
    15
100
AcDbLine
 10
-1080.6089947027
 20
2201.0060537723
 30
0.0
 11
-1080.5453723324
 21
2201.0060537723
 31
0.0
  0
LINE
  5
3FE
330
1F
100
AcDbEntity
  8
0
  6
Continuous
 62
     7
370
    15
100
AcDbLine
 10
-1097.3632065606
 20
2114.0560710919
 30
0.0
 11
-1099.3632068885
 21
2112.0560744894
 31
0.0
  0
LINE
  5
3FF
330
1F
100
AcDbEntity
  8
0
  6
Continuous
 62
     7
370
    15
100
AcDbLine
 10
-1099.3632068885
 20
2086.0560739529
 30
0.0
 11
-1097.3632065606
 21
2084.0560698998
 31
0.0
  0
LINE
  5
400
330
1F
100
AcDbEntity
  8
0
  6
Continuous
 62
     7
370
    15
100
AcDbLine
 10
-1097.3632065606
 20
2084.0560698998
 30
0.0
 11
-1095.3632062328
 21
2084.0560698998
 31
0.0
  0
LINE
  5
401
330
1F
100
AcDbEntity
  8
0
  6
Continuous
 62
     7
370
    15
100
AcDbLine
 10
-1095.3632062328
 20
2114.0560710919
 30
0.0
 11
-1097.3632065606
 21
2114.0560710919
 31
0.0
  0
LINE
  5
402
330
1F
100
AcDbEntity
  8
0
  6
Continuous
 62
     7
370
    15
100
AcDbLine
 10
-1097.3632065606
 20
2059.0560788405
 30
0.0
 11
-1099.3632068885
 21
2057.0560747874
 31
0.0
  0
LINE
  5
403
330
1F
100
AcDbEntity
  8
0
  6
Continuous
 62
     7
370
    15
100
AcDbLine
 10
-1099.3632068885
 20
2031.0560668004
 30
0.0
 11
-1097.3632065606
 21
2029.0560776484
 31
0.0
  0
LINE
  5
404
330
1F
100
AcDbEntity
  8
0
  6
Continuous
 62
     7
370
    15
100
AcDbLine
 10
-1097.3632065606
 20
2029.0560776484
 30
0.0
 11
-1095.3632062328
 21
2029.0560776484
 31
0.0
  0
LINE
  5
405
330
1F
100
AcDbEntity
  8
0
  6
Continuous
 62
     7
370
    15
100
AcDbLine
 10
-1095.3632062328
 20
2059.0560788405
 30
0.0
 11
-1097.3632065606
 21
2059.0560788405
 31
0.0
  0
LINE
  5
406
330
1F
100
AcDbEntity
  8
0
  6
Continuous
 62
     7
370
    15
100
AcDbLine
 10
-1097.3632065606
 20
2215.0060532731
 30
0.0
 11
-1095.3632062328
 21
2215.0060532731
 31
0.0
  0
LINE
  5
407
330
1F
100
AcDbEntity
  8
0
  6
Continuous
 62
     7
370
    15
100
AcDbLine
 10
-1095.3632062328
 20
2245.0060526025
 30
0.0
 11
-1097.3632065606
 21
2245.0060526025
 31
0.0
  0
LINE
  5
408
330
1F
100
AcDbEntity
  8
0
  6
Continuous
 62
     7
370
    15
100
AcDbLine
 10
-1097.3632065606
 20
2245.0060526025
 30
0.0
 11
-1099.3632068885
 21
2243.0060522747
 31
0.0
  0
LINE
  5
409
330
1F
100
AcDbEntity
  8
0
  6
Continuous
 62
     7
370
    15
100
AcDbLine
 10
-1099.3632068885
 20
2217.0060536009
 30
0.0
 11
-1097.3632065606
 21
2215.0060532731
 31
0.0
  0
LINE
  5
40A
330
1F
100
AcDbEntity
  8
0
  6
Continuous
 62
     7
370
    15
100
AcDbLine
 10
-1080.063208009
 20
2084.0560698998
 30
0.0
 11
-1079.8632083488
 21
2084.2560732853
 31
0.0
  0
LINE
  5
40B
330
1F
100
AcDbEntity
  8
0
  6
Continuous
 62
     7
370
    15
100
AcDbLine
 10
-1079.8632083488
 20
2113.8560751569
 30
0.0
 11
-1080.063208009
 21
2114.0560710919
 31
0.0
  0
LINE
  5
40C
330
1F
100
AcDbEntity
  8
0
  6
Continuous
 62
     7
370
    15
100
AcDbLine
 10
-1089.1632093144
 20
2114.0560710919
 30
0.0
 11
-1089.3632089746
 21
2113.8560751569
 31
0.0
  0
LINE
  5
40D
330
1F
100
AcDbEntity
  8
0
  6
Continuous
 62
     7
370
    15
100
AcDbLine
 10
-1089.3632089746
 20
2084.2560732853
 30
0.0
 11
-1089.1632093144
 21
2084.0560698998
 31
0.0
  0
LINE
  5
40E
330
1F
100
AcDbEntity
  8
0
  6
Continuous
 62
     7
370
    15
100
AcDbLine
 10
-1089.1632093144
 20
2084.0560698998
 30
0.0
 11
-1080.063208009
 21
2084.0560698998
 31
0.0
  0
LINE
  5
40F
330
1F
100
AcDbEntity
  8
0
  6
Continuous
 62
     7
370
    15
100
AcDbLine
 10
-1080.063208009
 20
2114.0560710919
 30
0.0
 11
-1089.1632093144
 21
2114.0560710919
 31
0.0
  0
LINE
  5
410
330
1F
100
AcDbEntity
  8
0
  6
Continuous
 62
     7
370
    15
100
AcDbLine
 10
-1089.1632093144
 20
2059.0560788405
 30
0.0
 11
-1089.3632089746
 21
2058.856075455
 31
0.0
  0
LINE
  5
411
330
1F
100
AcDbEntity
  8
0
  6
Continuous
 62
     7
370
    15
100
AcDbLine
 10
-1089.3632089746
 20
2029.2560661328
 30
0.0
 11
-1089.1632093144
 21
2029.0560776484
 31
0.0
  0
LINE
  5
412
330
1F
100
AcDbEntity
  8
0
  6
Continuous
 62
     7
370
    15
100
AcDbLine
 10
-1080.063208009
 20
2029.0560776484
 30
0.0
 11
-1079.8632083488
 21
2029.2560661328
 31
0.0
  0
LINE
  5
413
330
1F
100
AcDbEntity
  8
0
  6
Continuous
 62
     7
370
    15
100
AcDbLine
 10
-1079.8632083488
 20
2058.856075455
 30
0.0
 11
-1080.063208009
 21
2059.0560788405
 31
0.0
  0
LINE
  5
414
330
1F
100
AcDbEntity
  8
0
  6
Continuous
 62
     7
370
    15
100
AcDbLine
 10
-1089.1632093144
 20
2029.0560776484
 30
0.0
 11
-1080.063208009
 21
2029.0560776484
 31
0.0
  0
LINE
  5
415
330
1F
100
AcDbEntity
  8
0
  6
Continuous
 62
     7
370
    15
100
AcDbLine
 10
-1080.063208009
 20
2059.0560788405
 30
0.0
 11
-1089.1632093144
 21
2059.0560788405
 31
0.0
  0
LINE
  5
416
330
1F
100
AcDbEntity
  8
0
  6
Continuous
 62
     7
370
    15
100
AcDbLine
 10
-1090.7338326824
 20
2026.0060483706
 30
0.0
 11
-1089.3632089746
 21
2026.0060483706
 31
0.0
  0
LINE
  5
417
330
1F
100
AcDbEntity
  8
0
  6
Continuous
 62
     7
370
    15
100
AcDbLine
 10
-1095.3632062328
 20
2026.0060483706
 30
0.0
 11
-1094.0132057321
 21
2026.0060483706
 31
0.0
  0
LINE
  5
418
330
1F
100
AcDbEntity
  8
0
  6
Continuous
 62
     7
370
    15
100
AcDbLine
 10
-1089.3632089746
 20
2245.0060526025
 30
0.0
 11
-1095.3632062328
 21
2245.0060526025
 31
0.0
  0
CIRCLE
  5
419
330
1F
100
AcDbEntity
  8
0
  6
Continuous
 62
     7
370
    15
100
AcDbCircle
 10
-1072.3632074845
 20
2191.5560716879
 30
0.0
 40
11.49999999999932
  0
CIRCLE
  5
41A
330
1F
100
AcDbEntity
  8
0
  6
Continuous
 62
     7
370
    15
100
AcDbCircle
 10
-1072.3632074845
 20
2191.5560716879
 30
0.0
 40
12.5
  0
LINE
  5
41B
330
1F
100
AcDbEntity
  8
0
  6
Continuous
 62
     7
370
    15
100
AcDbLine
 10
-1059.3632073169
 20
2243.0060522747
 30
0.0
 11
-1059.3632073169
 21
2217.0060536009
 31
0.0
  0
LINE
  5
41C
330
1F
100
AcDbEntity
  8
0
  6
Continuous
 62
     7
370
    15
100
AcDbLine
 10
-1061.363207179
 20
2215.0060532731
 30
0.0
 11
-1061.363207179
 21
2245.0060526025
 31
0.0
  0
LINE
  5
41D
330
1F
100
AcDbEntity
  8
0
  6
Continuous
 62
     7
370
    15
100
AcDbLine
 10
-1062.363207343
 20
2215.0483185542
 30
0.0
 11
-1062.363207343
 21
2215.0060532731
 31
0.0
  0
LINE
  5
41E
330
1F
100
AcDbEntity
  8
0
  6
Continuous
 62
     7
370
    15
100
AcDbLine
 10
-1062.363207343
 20
2245.0060526025
 30
0.0
 11
-1062.363207343
 21
2215.0483185542
 31
0.0
  0
LINE
  5
41F
330
1F
100
AcDbEntity
  8
0
  6
Continuous
 62
     7
370
    15
100
AcDbLine
 10
-1082.6632073176
 20
2215.0060532731
 30
0.0
 11
-1082.6632073176
 21
2245.0060526025
 31
0.0
  0
LINE
  5
420
330
1F
100
AcDbEntity
  8
0
  6
Continuous
 62
     7
370
    15
100
AcDbLine
 10
-1089.0632076216
 20
2245.0060526025
 30
0.0
 11
-1089.0632076216
 21
2215.0060532731
 31
0.0
  0
LINE
  5
421
330
1F
100
AcDbEntity
  8
0
  6
Continuous
 62
     7
370
    15
100
AcDbLine
 10
-1082.3632078272
 20
2244.7060549748
 30
0.0
 11
-1082.3632078272
 21
2215.3060546261
 31
0.0
  0
LINE
  5
422
330
1F
100
AcDbEntity
  8
0
  6
Continuous
 62
     7
370
    15
100
AcDbLine
 10
-1062.733207832
 20
2248.300051142
 30
0.0
 11
-1062.733207832
 21
2258.9560577762
 31
0.0
  0
LINE
  5
423
330
1F
100
AcDbEntity
  8
0
  6
Continuous
 62
     7
370
    15
100
AcDbLine
 10
-1062.733207832
 20
2206.5560713527
 30
0.0
 11
-1062.733207832
 21
2248.300051142
 31
0.0
  0
LINE
  5
424
330
1F
100
AcDbEntity
  8
0
  6
Continuous
 62
     7
370
    15
100
AcDbLine
 10
-1063.233207914
 20
2248.300051142
 30
0.0
 11
-1063.233207914
 21
2258.9560577762
 31
0.0
  0
LINE
  5
425
330
1F
100
AcDbEntity
  8
0
  6
Continuous
 62
     7
370
    15
100
AcDbLine
 10
-1063.233207914
 20
2206.5560713527
 30
0.0
 11
-1063.233207914
 21
2248.300051142
 31
0.0
  0
LINE
  5
426
330
1F
100
AcDbEntity
  8
0
  6
Continuous
 62
     7
370
    15
100
AcDbLine
 10
-1081.9932082695
 20
2247.7826306713
 30
0.0
 11
-1081.9932082695
 21
2206.5560713527
 31
0.0
  0
LINE
  5
427
330
1F
100
AcDbEntity
  8
0
  6
Continuous
 62
     7
370
    15
100
AcDbLine
 10
-1081.9932082695
 20
2258.9560577762
 30
0.0
 11
-1081.9932082695
 21
2247.7826306713
 31
0.0
  0
LINE
  5
428
330
1F
100
AcDbEntity
  8
0
  6
Continuous
 62
     7
370
    15
100
AcDbLine
 10
-1081.4932072562
 20
2247.7826306713
 30
0.0
 11
-1081.4932072562
 21
2206.5560713527
 31
0.0
  0
LINE
  5
429
330
1F
100
AcDbEntity
  8
0
  6
Continuous
 62
     7
370
    15
100
AcDbLine
 10
-1081.4932072562
 20
2258.9560577762
 30
0.0
 11
-1081.4932072562
 21
2247.7826306713
 31
0.0
  0
CIRCLE
  5
42A
330
1F
100
AcDbEntity
  8
0
  6
Continuous
 62
     7
370
    15
100
AcDbCircle
 10
-1094.3632074845
 20
2177.5560716879
 30
0.0
 40
8.175000000000084
  0
CIRCLE
  5
42B
330
1F
100
AcDbEntity
  8
0
  6
Continuous
 62
     7
370
    15
100
AcDbCircle
 10
-1094.3632074845
 20
2177.5560716879
 30
0.0
 40
0.9999999999996843
  0
CIRCLE
  5
42C
330
1F
100
AcDbEntity
  8
0
  6
Continuous
 62
     7
370
    15
100
AcDbCircle
 10
-1094.3632074845
 20
2177.5560716879
 30
0.0
 40
8.475000000000342
  0
LINE
  5
42D
330
1F
100
AcDbEntity
  8
0
  6
Continuous
 62
     7
370
    15
100
AcDbLine
 10
-1107.8632092131
 20
2195.1569622033
 30
0.0
 11
-1107.8632092131
 21
2166.5560713154
 31
0.0
  0
LINE
  5
42E
330
1F
100
AcDbEntity
  8
0
  6
Continuous
 62
     7
370
    15
100
AcDbLine
 10
-1107.8632092131
 20
2206.5560713527
 30
0.0
 11
-1107.8632092131
 21
2195.1569622033
 31
0.0
  0
LINE
  5
42F
330
1F
100
AcDbEntity
  8
0
  6
Continuous
 62
     7
370
    15
100
AcDbLine
 10
-1105.0632065189
 20
2195.1569622033
 30
0.0
 11
-1105.0632065189
 21
2206.5560713527
 31
0.0
  0
LINE
  5
430
330
1F
100
AcDbEntity
  8
0
  6
Continuous
 62
     7
370
    15
100
AcDbLine
 10
-1105.0632065189
 20
2166.5560713154
 30
0.0
 11
-1105.0632065189
 21
2195.1569622033
 31
0.0
  0
LINE
  5
431
330
1F
100
AcDbEntity
  8
0
  6
Continuous
 62
     7
370
    15
100
AcDbLine
 10
-1109.8632058156
 20
2194.2968732328
 30
0.0
 11
-1109.8632058156
 21
2204.5560719562
 31
0.0
  0
LINE
  5
432
330
1F
100
AcDbEntity
  8
0
  6
Continuous
 62
     7
370
    15
100
AcDbLine
 10
-1109.8632058156
 20
2168.5560716432
 30
0.0
 11
-1109.8632058156
 21
2194.2968732328
 31
0.0
  0
LINE
  5
433
330
1F
100
AcDbEntity
  8
0
  6
Continuous
 62
     7
370
    15
100
AcDbLine
 10
-1104.8632068587
 20
2195.0709533994
 30
0.0
 11
-1104.8632068587
 21
2166.7560709757
 31
0.0
  0
LINE
  5
434
330
1F
100
AcDbEntity
  8
0
  6
Continuous
 62
     7
370
    15
100
AcDbLine
 10
-1104.8632068587
 20
2206.3560716924
 30
0.0
 11
-1104.8632068587
 21
2195.0709533994
 31
0.0
  0
LINE
  5
435
330
1F
100
AcDbEntity
  8
0
  6
Continuous
 62
     7
370
    15
100
AcDbLine
 10
-1057.6632074108
 20
2186.5560717997
 30
0.0
 11
-1057.6632074108
 21
2206.5560713527
 31
0.0
  0
LINE
  5
436
330
1F
100
AcDbEntity
  8
0
  6
Continuous
 62
     7
370
    15
100
AcDbLine
 10
-1057.6632074108
 20
2166.5560713154
 30
0.0
 11
-1057.6632074108
 21
2186.5560717997
 31
0.0
  0
LINE
  5
437
330
1F
100
AcDbEntity
  8
0
  6
Continuous
 62
     7
370
    15
100
AcDbLine
 10
-1057.3632074547
 20
2186.5560717997
 30
0.0
 11
-1057.3632074547
 21
2166.8560708058
 31
0.0
  0
LINE
  5
438
330
1F
100
AcDbEntity
  8
0
  6
Continuous
 62
     7
370
    15
100
AcDbLine
 10
-1057.3632074547
 20
2206.2560718623
 30
0.0
 11
-1057.3632074547
 21
2186.5560717997
 31
0.0
  0
LINE
  5
439
330
1F
100
AcDbEntity
  8
0
  6
Continuous
 62
     7
370
    15
100
AcDbLine
 10
-1104.5632092309
 20
2186.5560717997
 30
0.0
 11
-1104.5632092309
 21
2166.5560713154
 31
0.0
  0
LINE
  5
43A
330
1F
100
AcDbEntity
  8
0
  6
Continuous
 62
     7
370
    15
100
AcDbLine
 10
-1104.5632092309
 20
2206.5560713527
 30
0.0
 11
-1104.5632092309
 21
2186.5560717997
 31
0.0
  0
SPLINE
  5
43B
330
1F
100
AcDbEntity
  8
0
  6
Continuous
 62
     7
370
    15
100
AcDbSpline
210
0.0
220
0.0
230
1.0
 70
    11
 71
     3
 72
    26
 73
    22
 74
     0
 42
0.000000001
 43
0.00000001
 40
0.0
 40
0.0
 40
0.0
 40
0.0
 40
0.0751766165926335
 40
0.1425844079547222
 40
0.192517333959746
 40
0.2339917373405687
 40
0.2756147571084967
 40
0.3140664507825472
 40
0.3554839370441056
 40
0.4049621092037562
 40
0.4648662227540479
 40
0.5321654686745998
 40
0.5983285705768927
 40
0.657168383579806
 40
0.7090974908409562
 40
0.757095763487992
 40
0.8035164671871441
 40
0.8499275061837374
 40
0.897722084150752
 40
0.9485235860720213
 40
1.0
 40
1.0
 40
1.0
 40
1.0
 10
-1077.113208363686
 20
2176.556072023215
 30
0.0
 10
-1077.164580768001
 20
2176.154809034667
 30
0.0
 10
-1077.262016702025
 20
2175.393749968039
 30
0.0
 10
-1077.907635956033
 20
2174.544248648225
 30
0.0
 10
-1078.668192694373
 20
2174.033906589069
 30
0.0
 10
-1079.45387555143
 20
2173.799347501183
 30
0.0
 10
-1080.226349770839
 20
2173.795498422523
 30
0.0
 10
-1080.948137311512
 20
2173.995317431691
 30
0.0
 10
-1081.599391664463
 20
2174.377155683413
 30
0.0
 10
-1082.175002760787
 20
2174.980971777853
 30
0.0
 10
-1082.582177295295
 20
2175.838218904957
 30
0.0
 10
-1082.666839780086
 20
2176.887740967362
 30
0.0
 10
-1082.32587340221
 20
2177.934652205959
 30
0.0
 10
-1081.629808491377
 20
2178.74416269266
 30
0.0
 10
-1080.757233302224
 20
2179.212770908999
 30
0.0
 10
-1079.842215737481
 20
2179.353959457477
 30
0.0
 10
-1078.965942747185
 20
2179.203697108231
 30
0.0
 10
-1078.191965384662
 20
2178.796566347303
 30
0.0
 10
-1077.584555139731
 20
2178.17211701623
 30
0.0
 10
-1077.185677643334
 20
2177.392511423641
 30
0.0
 10
-1077.137470826029
 20
2176.836109020315
 30
0.0
 10
-1077.113208363686
 20
2176.556072023215
 30
0.0
  0
SPLINE
  5
43C
330
1F
100
AcDbEntity
  8
0
  6
Continuous
 62
     7
370
    15
100
AcDbSpline
210
0.0
220
0.0
230
1.0
 70
    11
 71
     3
 72
    30
 73
    26
 74
     0
 42
0.000000001
 43
0.00000001
 40
0.0
 40
0.0
 40
0.0
 40
0.0
 40
0.0308938905625299
 40
0.0618257138648864
 40
0.1230503274828134
 40
0.1604558886576056
 40
0.1978021762964599
 40
0.2302272255429302
 40
0.2630172011550462
 40
0.2910111262928006
 40
0.323765727420932
 40
0.380150220953641
 40
0.4196757393747106
 40
0.459186898595352
 40
0.5212155839268904
 40
0.5725883430943228
 40
0.6241656345453146
 40
0.6710348883941544
 40
0.7175564523083016
 40
0.7654167659546495
 40
0.8138866873145635
 40
0.8623883028984494
 40
0.9104160661959277
 40
0.9570804109635677
 40
1.0
 40
1.0
 40
1.0
 40
1.0
 10
-1085.863209332262
 20
2177.556071255805
 30
0.0
 10
-1085.893609762782
 20
2177.022170498056
 30
0.0
 10
-1085.954447950671
 20
2175.953713438106
 30
0.0
 10
-1086.532175273369
 20
2174.01718897317
 30
0.0
 10
-1087.576467997354
 20
2172.272052788443
 30
0.0
 10
-1089.069116655761
 20
2170.82894021417
 30
0.0
 10
-1090.502005274657
 20
2169.920791831188
 30
0.0
 10
-1092.131272776153
 20
2169.290335404261
 30
0.0
 10
-1093.915735004696
 20
2169.001700103473
 30
0.0
 10
-1095.786094118272
 20
2169.114206018724
 30
0.0
 10
-1097.827764598286
 20
2169.679655406928
 30
0.0
 10
-1099.58871299541
 20
2170.732424599633
 30
0.0
 10
-1101.050422236611
 20
2172.204063054875
 30
0.0
 10
-1102.227540583912
 20
2174.044116621701
 30
0.0
 10
-1102.964779773731
 20
2176.475185186196
 30
0.0
 10
-1102.815082278771
 20
2179.454849227658
 30
0.0
 10
-1101.712951460054
 20
2182.143200349257
 30
0.0
 10
-1099.794969728703
 20
2184.288032202555
 30
0.0
 10
-1097.346010667083
 20
2185.679559876731
 30
0.0
 10
-1094.544220390349
 20
2186.214388206143
 30
0.0
 10
-1091.682885996053
 20
2185.793377484814
 30
0.0
 10
-1089.115077173282
 20
2184.446946319304
 30
0.0
 10
-1087.18132857841
 20
2182.368979240131
 30
0.0
 10
-1086.044115133978
 20
2179.928664426416
 30
0.0
 10
-1085.921807039685
 20
2178.324584587755
 30
0.0
 10
-1085.863209332262
 20
2177.556071255805
 30
0.0
  0
CIRCLE
  5
43D
330
1F
100
AcDbEntity
  8
0
  6
Continuous
 62
     7
370
    15
100
AcDbCircle
 10
-1079.8632074845
 20
2176.5560716879
 30
0.0
 40
2.524999999999864
  0
CIRCLE
  5
43E
330
1F
100
AcDbEntity
  8
0
  6
Continuous
 62
     7
370
    15
100
AcDbCircle
 10
-1079.8632074845
 20
2176.5560716879
 30
0.0
 40
2.099999999999909
  0
LINE
  5
43F
330
1F
100
AcDbEntity
  8
0
  6
Continuous
 62
     7
370
    15
100
AcDbLine
 10
-1084.8632073057
 20
2192.2336145653
 30
0.0
 11
-1084.8632073057
 21
2190.0235530338
 31
0.0
  0
LINE
  5
440
330
1F
100
AcDbEntity
  8
0
  6
Continuous
 62
     7
370
    15
100
AcDbLine
 10
-1053.8632075795
 20
2191.5536174038
 30
0.0
 11
-1053.8632075795
 21
2161.5560723585
 31
0.0
  0
LINE
  5
441
330
1F
100
AcDbEntity
  8
0
  6
Continuous
 62
     7
370
    15
100
AcDbLine
 10
-1053.8632075795
 20
2221.5560710174
 30
0.0
 11
-1053.8632075795
 21
2191.5536174038
 31
0.0
  0
LINE
  5
442
330
1F
100
AcDbEntity
  8
0
  6
Continuous
 62
     7
370
    15
100
AcDbLine
 10
-1051.8632074845
 20
2191.5536174038
 30
0.0
 11
-1051.8632074845
 21
2221.5560710174
 31
0.0
  0
LINE
  5
443
330
1F
100
AcDbEntity
  8
0
  6
Continuous
 62
     7
370
    15
100
AcDbLine
 10
-1051.8632074845
 20
2161.5560723585
 30
0.0
 11
-1051.8632074845
 21
2191.5536174038
 31
0.0
  0
LINE
  5
444
330
1F
100
AcDbEntity
  8
0
  6
Continuous
 62
     7
370
    15
100
AcDbLine
 10
-1055.8632076745
 20
2191.5548445458
 30
0.0
 11
-1055.8632076745
 21
2206.5560713527
 31
0.0
  0
LINE
  5
445
330
1F
100
AcDbEntity
  8
0
  6
Continuous
 62
     7
370
    15
100
AcDbLine
 10
-1055.8632076745
 20
2176.5560720232
 30
0.0
 11
-1055.8632076745
 21
2191.5548445458
 31
0.0
  0
LINE
  5
446
330
1F
100
AcDbEntity
  8
0
  6
Continuous
 62
     7
370
    15
100
AcDbLine
 10
-1064.8632077527
 20
96.0560793173
 30
0.0
 11
-1064.8632077527
 21
97.0560068381
 31
0.0
  0
LINE
  5
447
330
1F
100
AcDbEntity
  8
0
  6
Continuous
 62
     7
370
    15
100
AcDbLine
 10
-1083.8632090044
 20
97.0560068381
 30
0.0
 11
-1083.8632090044
 21
96.0560793173
 31
0.0
  0
LINE
  5
448
330
1F
100
AcDbEntity
  8
0
  6
Continuous
 62
     7
370
    15
100
AcDbLine
 10
-1083.8632090044
 20
97.0560068381
 30
0.0
 11
-1064.8632077527
 21
97.0560068381
 31
0.0
  0
LINE
  5
449
330
1F
100
AcDbEntity
  8
0
  6
Continuous
 62
     7
370
    15
100
AcDbLine
 10
-1083.8632090044
 20
96.0560793173
 30
0.0
 11
-1064.8632077527
 21
96.0560793173
 31
0.0
  0
LINE
  5
44A
330
1F
100
AcDbEntity
  8
0
  6
Continuous
 62
     7
370
    15
100
AcDbLine
 10
-1064.3632076708
 20
97.0560068381
 30
0.0
 11
-1064.8632077527
 21
97.0560068381
 31
0.0
  0
LINE
  5
44B
330
1F
100
AcDbEntity
  8
0
  6
Continuous
 62
     7
370
    15
100
AcDbLine
 10
-1064.3632076708
 20
97.0560068381
 30
0.0
 11
-1064.3632076708
 21
96.0560793173
 31
0.0
  0
LINE
  5
44C
330
1F
100
AcDbEntity
  8
0
  6
Continuous
 62
     7
370
    15
100
AcDbLine
 10
-1064.3632076708
 20
96.0560793173
 30
0.0
 11
-1064.8632077527
 21
96.0560793173
 31
0.0
  0
LINE
  5
44D
330
1F
100
AcDbEntity
  8
0
  6
Continuous
 62
     7
370
    15
100
AcDbLine
 10
-1064.8632077527
 20
97.0560068381
 30
0.0
 11
-1064.8632077527
 21
116.0560602438
 31
0.0
  0
LINE
  5
44E
330
1F
100
AcDbEntity
  8
0
  6
Continuous
 62
     7
370
    15
100
AcDbLine
 10
-1083.8632090044
 20
116.0560602438
 30
0.0
 11
-1083.8632090044
 21
97.0560068381
 31
0.0
  0
LINE
  5
44F
330
1F
100
AcDbEntity
  8
0
  6
Continuous
 62
     7
370
    15
100
AcDbLine
 10
-1082.3632078272
 20
99.5677465689
 30
0.0
 11
-1082.3632078272
 21
116.0560602438
 31
0.0
  0
LINE
  5
450
330
1F
100
AcDbEntity
  8
0
  6
Continuous
 62
     7
370
    15
100
AcDbLine
 10
-1066.3632070673
 20
99.5677465689
 30
0.0
 11
-1082.3632078272
 21
99.5677465689
 31
0.0
  0
LINE
  5
451
330
1F
100
AcDbEntity
  8
0
  6
Continuous
 62
     7
370
    15
100
AcDbLine
 10
-1066.3632070673
 20
116.0560602438
 30
0.0
 11
-1066.3632070673
 21
99.5677465689
 31
0.0
  0
LINE
  5
452
330
1F
100
AcDbEntity
  8
0
  6
Continuous
 62
     7
370
    15
100
AcDbLine
 10
-1064.3632076708
 20
115.5560964835
 30
0.0
 11
-1064.3632076708
 21
97.0560068381
 31
0.0
  0
LINE
  5
453
330
1F
100
AcDbEntity
  8
0
  6
Continuous
 62
     7
370
    15
100
AcDbLine
 10
-1084.3632062924
 20
96.0560793173
 30
0.0
 11
-1084.3632062924
 21
97.0560068381
 31
0.0
  0
LINE
  5
454
330
1F
100
AcDbEntity
  8
0
  6
Continuous
 62
     7
370
    15
100
AcDbLine
 10
-1083.8632090044
 20
97.0560068381
 30
0.0
 11
-1084.3632062924
 21
97.0560068381
 31
0.0
  0
LINE
  5
455
330
1F
100
AcDbEntity
  8
0
  6
Continuous
 62
     7
370
    15
100
AcDbLine
 10
-1083.8632090044
 20
96.0560793173
 30
0.0
 11
-1084.3632062924
 21
96.0560793173
 31
0.0
  0
LINE
  5
456
330
1F
100
AcDbEntity
  8
0
  6
Continuous
 62
     7
370
    15
100
AcDbLine
 10
-1084.3632062924
 20
97.0560068381
 30
0.0
 11
-1084.3632062924
 21
115.5560964835
 31
0.0
  0
LINE
  5
457
330
1F
100
AcDbEntity
  8
0
  6
Continuous
 62
     7
370
    15
100
AcDbLine
 10
-1081.863206814
 20
100.0560278189
 30
0.0
 11
-1066.8632071492
 21
100.0560278189
 31
0.0
  0
LINE
  5
458
330
1F
100
AcDbEntity
  8
0
  6
Continuous
 62
     7
370
    15
100
AcDbLine
 10
-1066.8632071492
 20
99.9771112692
 30
0.0
 11
-1066.3632070673
 21
99.5677465689
 31
0.0
  0
LINE
  5
459
330
1F
100
AcDbEntity
  8
0
  6
Continuous
 62
     7
370
    15
100
AcDbLine
 10
-1082.3632078272
 20
99.5677465689
 30
0.0
 11
-1081.863206814
 21
99.9771112692
 31
0.0
  0
LINE
  5
45A
330
1F
100
AcDbEntity
  8
0
  6
Continuous
 62
     7
370
    15
100
AcDbLine
 10
-1066.8632071492
 20
99.9771112692
 30
0.0
 11
-1066.8632071492
 21
115.5560964835
 31
0.0
  0
LINE
  5
45B
330
1F
100
AcDbEntity
  8
0
  6
Continuous
 62
     7
370
    15
100
AcDbLine
 10
-1081.863206814
 20
115.5560964835
 30
0.0
 11
-1081.863206814
 21
99.9771112692
 31
0.0
  0
LINE
  5
45C
330
1F
100
AcDbEntity
  8
0
  6
Continuous
 62
     7
370
    15
100
AcDbLine
 10
-1060.3632079465
 20
2166.5560713154
 30
0.0
 11
-1060.3632079465
 21
2163.0060540628
 31
0.0
  0
LINE
  5
45D
330
1F
100
AcDbEntity
  8
0
  6
Continuous
 62
     7
370
    15
100
AcDbLine
 10
-1072.3632080508
 20
2163.0060540628
 30
0.0
 11
-1072.3632080508
 21
2166.5560713154
 31
0.0
  0
LINE
  5
45E
330
1F
100
AcDbEntity
  8
0
  6
Continuous
 62
     7
370
    15
100
AcDbLine
 10
-1082.8632069779
 20
2166.5560713154
 30
0.0
 11
-1082.8632069779
 21
2164.9060545605
 31
0.0
  0
LINE
  5
45F
330
1F
100
AcDbEntity
  8
0
  6
Continuous
 62
     7
370
    15
100
AcDbLine
 10
-1072.8632072014
 20
2166.5560713154
 30
0.0
 11
-1072.8632072014
 21
2164.9060545605
 31
0.0
  0
LINE
  5
460
330
1F
100
AcDbEntity
  8
0
  6
Continuous
 62
     7
370
    15
100
AcDbLine
 10
-1083.3632079912
 20
2166.5560713154
 30
0.0
 11
-1083.3632079912
 21
2163.0060540628
 31
0.0
  0
LINE
  5
461
330
1F
100
AcDbEntity
  8
0
  6
Continuous
 62
     7
370
    15
100
AcDbLine
 10
-1097.3632065606
 20
2166.5560713154
 30
0.0
 11
-1097.3632065606
 21
2155.0060527515
 31
0.0
  0
LINE
  5
462
330
1F
100
AcDbEntity
  8
0
  6
Continuous
 62
     7
370
    15
100
AcDbLine
 10
-1099.3632068885
 20
2157.0060530794
 30
0.0
 11
-1099.3632068885
 21
2166.5560713154
 31
0.0
  0
LINE
  5
463
330
1F
100
AcDbEntity
  8
0
  6
Continuous
 62
     7
370
    15
100
AcDbLine
 10
-1066.8632071492
 20
2036.7664897931
 30
0.0
 11
-1066.8632071492
 21
2059.0560788405
 31
0.0
  0
LINE
  5
464
330
1F
100
AcDbEntity
  8
0
  6
Continuous
 62
     7
370
    15
100
AcDbLine
 10
-1066.8632071492
 20
2029.0560776484
 30
0.0
 11
-1066.8632071492
 21
2036.7664897931
 31
0.0
  0
LINE
  5
465
330
1F
100
AcDbEntity
  8
0
  6
Continuous
 62
     7
370
    15
100
AcDbLine
 10
-1064.8632077527
 20
2037.7384329331
 30
0.0
 11
-1064.8632077527
 21
2031.0560668004
 31
0.0
  0
LINE
  5
466
330
1F
100
AcDbEntity
  8
0
  6
Continuous
 62
     7
370
    15
100
AcDbLine
 10
-1064.8632077527
 20
2057.0560747874
 30
0.0
 11
-1064.8632077527
 21
2037.7384329331
 31
0.0
  0
LINE
  5
467
330
1F
100
AcDbEntity
  8
0
  6
Continuous
 62
     7
370
    15
100
AcDbLine
 10
-1068.8632084084
 20
2036.7664897931
 30
0.0
 11
-1068.8632084084
 21
2059.0560788405
 31
0.0
  0
LINE
  5
468
330
1F
100
AcDbEntity
  8
0
  6
Continuous
 62
     7
370
    15
100
AcDbLine
 10
-1068.8632084084
 20
2029.0560776484
 30
0.0
 11
-1068.8632084084
 21
2036.7664897931
 31
0.0
  0
LINE
  5
469
330
1F
100
AcDbEntity
  8
0
  6
Continuous
 62
     7
370
    15
100
AcDbLine
 10
-1066.8632071492
 20
2084.0560698998
 30
0.0
 11
-1066.8632071492
 21
2114.0560710919
 31
0.0
  0
LINE
  5
46A
330
1F
100
AcDbEntity
  8
0
  6
Continuous
 62
     7
370
    15
100
AcDbLine
 10
-1064.8632077527
 20
2112.0560744894
 30
0.0
 11
-1064.8632077527
 21
2086.0560739529
 31
0.0
  0
LINE
  5
46B
330
1F
100
AcDbEntity
  8
0
  6
Continuous
 62
     7
370
    15
100
AcDbLine
 10
-1068.8632084084
 20
2084.0560698998
 30
0.0
 11
-1068.8632084084
 21
2114.0560710919
 31
0.0
  0
LINE
  5
46C
330
1F
100
AcDbEntity
  8
0
  6
Continuous
 62
     7
370
    15
100
AcDbLine
 10
-1064.33153339
 20
2249.8460689676
 30
0.0
 11
-1064.33153339
 21
2206.5560713527
 31
0.0
  0
LINE
  5
46D
330
1F
100
AcDbEntity
  8
0
  6
Continuous
 62
     7
370
    15
100
AcDbLine
 10
-1064.33153339
 20
2259.006051172
 30
0.0
 11
-1064.33153339
 21
2249.8460689676
 31
0.0
  0
LINE
  5
46E
330
1F
100
AcDbEntity
  8
0
  6
Continuous
 62
     7
370
    15
100
AcDbLine
 10
-1063.3632075069
 20
2249.8460689676
 30
0.0
 11
-1063.3632075069
 21
2259.006051172
 31
0.0
  0
LINE
  5
46F
330
1F
100
AcDbEntity
  8
0
  6
Continuous
 62
     7
370
    15
100
AcDbLine
 10
-1063.3632075069
 20
2206.5560713527
 30
0.0
 11
-1063.3632075069
 21
2249.8460689676
 31
0.0
  0
LINE
  5
470
330
1F
100
AcDbEntity
  8
0
  6
Continuous
 62
     7
370
    15
100
AcDbLine
 10
-1080.3427798701
 20
2206.5560713527
 30
0.0
 11
-1080.3427798701
 21
2259.006051172
 31
0.0
  0
LINE
  5
471
330
1F
100
AcDbEntity
  8
0
  6
Continuous
 62
     7
370
    15
100
AcDbLine
 10
-1081.3632076633
 20
2249.8460689676
 30
0.0
 11
-1081.3632076633
 21
2259.006051172
 31
0.0
  0
LINE
  5
472
330
1F
100
AcDbEntity
  8
0
  6
Continuous
 62
     7
370
    15
100
AcDbLine
 10
-1081.3632076633
 20
2206.5560713527
 30
0.0
 11
-1081.3632076633
 21
2249.8460689676
 31
0.0
  0
LINE
  5
473
330
1F
100
AcDbEntity
  8
0
  6
Continuous
 62
     7
370
    15
100
AcDbLine
 10
-1097.3632065606
 20
2102.7850190294
 30
0.0
 11
-1097.3632065606
 21
2084.0560698998
 31
0.0
  0
LINE
  5
474
330
1F
100
AcDbEntity
  8
0
  6
Continuous
 62
     7
370
    15
100
AcDbLine
 10
-1097.3632065606
 20
2114.0560710919
 30
0.0
 11
-1097.3632065606
 21
2102.7850190294
 31
0.0
  0
LINE
  5
475
330
1F
100
AcDbEntity
  8
0
  6
Continuous
 62
     7
370
    15
100
AcDbLine
 10
-1099.3632068885
 20
2102.287826885
 30
0.0
 11
-1099.3632068885
 21
2112.0560744894
 31
0.0
  0
LINE
  5
476
330
1F
100
AcDbEntity
  8
0
  6
Continuous
 62
     7
370
    15
100
AcDbLine
 10
-1099.3632068885
 20
2086.0560739529
 30
0.0
 11
-1099.3632068885
 21
2102.287826885
 31
0.0
  0
LINE
  5
477
330
1F
100
AcDbEntity
  8
0
  6
Continuous
 62
     7
370
    15
100
AcDbLine
 10
-1095.3632062328
 20
2100.2797985566
 30
0.0
 11
-1095.3632062328
 21
2097.8323498857
 31
0.0
  0
LINE
  5
478
330
1F
100
AcDbEntity
  8
0
  6
Continuous
 62
     7
370
    15
100
AcDbLine
 10
-1097.3632065606
 20
2041.9565493357
 30
0.0
 11
-1097.3632065606
 21
2029.0560776484
 31
0.0
  0
LINE
  5
479
330
1F
100
AcDbEntity
  8
0
  6
Continuous
 62
     7
370
    15
100
AcDbLine
 10
-1097.3632065606
 20
2059.0560788405
 30
0.0
 11
-1097.3632065606
 21
2041.9565493357
 31
0.0
  0
LINE
  5
47A
330
1F
100
AcDbEntity
  8
0
  6
Continuous
 62
     7
370
    15
100
AcDbLine
 10
-1099.3632068885
 20
2042.2364825499
 30
0.0
 11
-1099.3632068885
 21
2057.0560747874
 31
0.0
  0
LINE
  5
47B
330
1F
100
AcDbEntity
  8
0
  6
Continuous
 62
     7
370
    15
100
AcDbLine
 10
-1099.3632068885
 20
2031.0560668004
 30
0.0
 11
-1099.3632068885
 21
2042.2364825499
 31
0.0
  0
LINE
  5
47C
330
1F
100
AcDbEntity
  8
0
  6
Continuous
 62
     7
370
    15
100
AcDbLine
 10
-1095.3632062328
 20
2045.279791404
 30
0.0
 11
-1095.3632062328
 21
2042.8323501837
 31
0.0
  0
LINE
  5
47D
330
1F
100
AcDbEntity
  8
0
  6
Continuous
 62
     7
370
    15
100
AcDbLine
 10
-1097.3632065606
 20
2245.0060526025
 30
0.0
 11
-1097.3632065606
 21
2215.0060532731
 31
0.0
  0
LINE
  5
47E
330
1F
100
AcDbEntity
  8
0
  6
Continuous
 62
     7
370
    15
100
AcDbLine
 10
-1095.3632062328
 20
2245.0060526025
 30
0.0
 11
-1095.3632062328
 21
2230.0060557318
 31
0.0
  0
LINE
  5
47F
330
1F
100
AcDbEntity
  8
0
  6
Continuous
 62
     7
370
    15
100
AcDbLine
 10
-1099.3632068885
 20
2217.0060536009
 30
0.0
 11
-1099.3632068885
 21
2243.0060522747
 31
0.0
  0
LINE
  5
480
330
1F
100
AcDbEntity
  8
0
  6
Continuous
 62
     7
370
    15
100
AcDbLine
 10
-1079.8632083488
 20
2095.1925272238
 30
0.0
 11
-1079.8632083488
 21
2084.2560732853
 31
0.0
  0
LINE
  5
481
330
1F
100
AcDbEntity
  8
0
  6
Continuous
 62
     7
370
    15
100
AcDbLine
 10
-1079.8632083488
 20
2113.8560751569
 30
0.0
 11
-1079.8632083488
 21
2095.1925272238
 31
0.0
  0
LINE
  5
482
330
1F
100
AcDbEntity
  8
0
  6
Continuous
 62
     7
370
    15
100
AcDbLine
 10
-1080.063208009
 20
2095.1403210056
 30
0.0
 11
-1080.063208009
 21
2114.0560710919
 31
0.0
  0
LINE
  5
483
330
1F
100
AcDbEntity
  8
0
  6
Continuous
 62
     7
370
    15
100
AcDbLine
 10
-1080.063208009
 20
2084.0560698998
 30
0.0
 11
-1080.063208009
 21
2095.1403210056
 31
0.0
  0
LINE
  5
484
330
1F
100
AcDbEntity
  8
0
  6
Continuous
 62
     7
370
    15
100
AcDbLine
 10
-1089.1632093144
 20
2095.1403210056
 30
0.0
 11
-1089.1632093144
 21
2084.0560698998
 31
0.0
  0
LINE
  5
485
330
1F
100
AcDbEntity
  8
0
  6
Continuous
 62
     7
370
    15
100
AcDbLine
 10
-1089.1632093144
 20
2114.0560710919
 30
0.0
 11
-1089.1632093144
 21
2095.1403210056
 31
0.0
  0
LINE
  5
486
330
1F
100
AcDbEntity
  8
0
  6
Continuous
 62
     7
370
    15
100
AcDbLine
 10
-1089.1632093144
 20
2030.4573530448
 30
0.0
 11
-1089.1632093144
 21
2029.0560776484
 31
0.0
  0
LINE
  5
487
330
1F
100
AcDbEntity
  8
0
  6
Continuous
 62
     7
370
    15
100
AcDbLine
 10
-1089.1632093144
 20
2059.0560788405
 30
0.0
 11
-1089.1632093144
 21
2030.4573530448
 31
0.0
  0
LINE
  5
488
330
1F
100
AcDbEntity
  8
0
  6
Continuous
 62
     7
370
    15
100
AcDbLine
 10
-1079.8632083488
 20
2030.6386703742
 30
0.0
 11
-1079.8632083488
 21
2029.2560661328
 31
0.0
  0
LINE
  5
489
330
1F
100
AcDbEntity
  8
0
  6
Continuous
 62
     7
370
    15
100
AcDbLine
 10
-1079.8632083488
 20
2058.856075455
 30
0.0
 11
-1079.8632083488
 21
2030.6386703742
 31
0.0
  0
LINE
  5
48A
330
1F
100
AcDbEntity
  8
0
  6
Continuous
 62
     7
370
    15
100
AcDbLine
 10
-1080.063208009
 20
2030.4573530448
 30
0.0
 11
-1080.063208009
 21
2059.0560788405
 31
0.0
  0
LINE
  5
48B
330
1F
100
AcDbEntity
  8
0
  6
Continuous
 62
     7
370
    15
100
AcDbLine
 10
-1080.063208009
 20
2029.0560776484
 30
0.0
 11
-1080.063208009
 21
2030.4573530448
 31
0.0
  0
LINE
  5
48C
330
1F
100
AcDbEntity
  8
0
  6
Continuous
 62
     7
370
    15
100
AcDbLine
 10
-1089.3632089746
 20
2230.0060557318
 30
0.0
 11
-1095.3632062328
 21
2230.0060557318
 31
0.0
  0
LINE
  5
48D
330
1F
100
AcDbEntity
  8
0
  6
Continuous
 62
     7
370
    15
100
AcDbLine
 10
-1089.3632089746
 20
2041.0060489666
 30
0.0
 11
-1095.3632062328
 21
2041.0060489666
 31
0.0
  0
LINE
  5
48E
330
1F
100
AcDbEntity
  8
0
  6
Continuous
 62
     7
370
    15
100
AcDbLine
 10
-1089.3632089746
 20
2230.0060557318
 30
0.0
 11
-1089.3632089746
 21
2206.5560713527
 31
0.0
  0
LINE
  5
48F
330
1F
100
AcDbEntity
  8
0
  6
Continuous
 62
     7
370
    15
100
AcDbLine
 10
-1089.3632089746
 20
2166.5560713154
 30
0.0
 11
-1089.3632089746
 21
2041.0060489666
 31
0.0
  0
LINE
  5
490
330
1F
100
AcDbEntity
  8
0
  6
Continuous
 62
     7
370
    15
100
AcDbLine
 10
-1095.3632062328
 20
2230.0060557318
 30
0.0
 11
-1095.3632062328
 21
2206.5560713527
 31
0.0
  0
LINE
  5
491
330
1F
100
AcDbEntity
  8
0
  6
Continuous
 62
     7
370
    15
100
AcDbLine
 10
-1095.3632062328
 20
2166.5560713154
 30
0.0
 11
-1095.3632062328
 21
2100.2797985566
 31
0.0
  0
LINE
  5
492
330
1F
100
AcDbEntity
  8
0
  6
Continuous
 62
     7
370
    15
100
AcDbLine
 10
-1095.3632062328
 20
2097.8323498857
 30
0.0
 11
-1095.3632062328
 21
2045.279791404
 31
0.0
  0
LINE
  5
493
330
1F
100
AcDbEntity
  8
0
  6
Continuous
 62
     7
370
    15
100
AcDbLine
 10
-1095.3632062328
 20
2042.8323501837
 30
0.0
 11
-1095.3632062328
 21
2041.0060489666
 31
0.0
  0
SPLINE
  5
494
330
1F
100
AcDbEntity
  8
0
  6
Continuous
 62
     7
370
    15
100
AcDbSpline
210
0.0
220
0.0
230
1.0
 70
     8
 71
     3
 72
    17
 73
    13
 74
     0
 42
0.000000001
 43
0.00000001
 40
0.0
 40
0.0
 40
0.0
 40
0.0
 40
0.106933115850848
 40
0.2138501945857738
 40
0.321165434068849
 40
0.4287543157485517
 40
0.5359035374497748
 40
0.6425860291952727
 40
0.7495041460679338
 40
0.8569862287672978
 40
0.964493579611479
 40
1.0
 40
1.0
 40
1.0
 40
1.0
 10
-1094.013205732141
 20
2026.006048370602
 30
0.0
 10
-1093.995076204379
 20
2026.008099417862
 30
0.0
 10
-1093.958819867799
 20
2026.012201204779
 30
0.0
 10
-1093.676313464406
 20
2026.040743172664
 30
0.0
 10
-1093.259361353439
 20
2026.072672813274
 30
0.0
 10
-1092.737096428802
 20
2026.095825438351
 30
0.0
 10
-1092.174016517628
 20
2026.09938880956
 30
0.0
 10
-1091.634390339318
 20
2026.082175103409
 30
0.0
 10
-1091.172864392845
 20
2026.051328139234
 30
0.0
 10
-1090.856452078059
 20
2026.021813492745
 30
0.0
 10
-1090.705016252988
 20
2026.005158287515
 30
0.0
 10
-1090.728101295677
 20
2026.007673890343
 30
0.0
 10
-1090.733832682405
 20
2026.008298445942
 30
0.0
  0
LINE
  5
495
330
1F
100
AcDbEntity
  8
0
  6
Continuous
 62
     7
370
    15
100
AcDbLine
 10
-1089.3632089746
 20
2041.0060489666
 30
0.0
 11
-1089.3632089746
 21
2026.0060483706
 31
0.0
  0
LINE
  5
496
330
1F
100
AcDbEntity
  8
0
  6
Continuous
 62
     7
370
    15
100
AcDbLine
 10
-1095.3632062328
 20
2041.0060489666
 30
0.0
 11
-1095.3632062328
 21
2026.0060483706
 31
0.0
  0
LINE
  5
497
330
1F
100
AcDbEntity
  8
0
  6
Continuous
 62
     7
370
    15
100
AcDbLine
 10
-1089.3632089746
 20
2245.0060526025
 30
0.0
 11
-1089.3632089746
 21
2230.0060557318
 31
0.0
  0
LINE
  5
498
330
1F
100
AcDbEntity
  8
0
  6
Continuous
 62
     7
370
    15
100
AcDbLine
 10
-1078.3632071716
 20
104.0559763205
 30
0.0
 11
-1070.3632077229
 21
104.0559763205
 31
0.0
  0
LINE
  5
499
330
1F
100
AcDbEntity
  8
0
  6
Continuous
 62
     7
370
    15
100
AcDbLine
 10
-1078.3632071716
 20
104.0559763205
 30
0.0
 11
-1078.3632071716
 21
2154.0560701978
 31
0.0
  0
LINE
  5
49A
330
1F
100
AcDbEntity
  8
0
  6
Continuous
 62
     7
370
    15
100
AcDbLine
 10
-1078.3632071716
 20
2154.0560701978
 30
0.0
 11
-1070.3632077229
 21
2154.0560701978
 31
0.0
  0
LINE
  5
49B
330
1F
100
AcDbEntity
  8
0
  6
Continuous
 62
     7
370
    15
100
AcDbLine
 10
-1070.3632077229
 20
104.0559763205
 30
0.0
 11
-1070.3632077229
 21
2154.0560701978
 31
0.0
  0
LINE
  5
49C
330
1F
100
AcDbEntity
  8
0
  6
Continuous
 62
     8
370
    15
100
AcDbLine
 10
-1061.363207179
 20
2162.0060538989
 30
0.0
 11
-1061.363207179
 21
2166.5560713154
 31
0.0
  0
LINE
  5
49D
330
1F
100
AcDbEntity
  8
0
  6
Continuous
 62
     8
370
    15
100
AcDbLine
 10
-1071.3632078868
 20
2166.5560713154
 30
0.0
 11
-1071.3632078868
 21
2162.0060538989
 31
0.0
  0
LINE
  5
49E
330
1F
100
AcDbEntity
  8
0
  6
Continuous
 62
     8
370
    15
100
AcDbLine
 10
-1084.3632062924
 20
2162.0060538989
 30
0.0
 11
-1084.3632062924
 21
2166.5560713154
 31
0.0
  0
ENDSEC
  0
SECTION
  2
OBJECTS
  0
DICTIONARY
  5
C
330
0
100
AcDbDictionary
281
     1
  3
ACAD_GROUP
350
D
  3
ACAD_LAYOUT
350
1A
  3
ACAD_MLINESTYLE
350
17
  3
ACAD_PLOTSETTINGS
350
19
  3
ACAD_PLOTSTYLENAME
350
E
  3
ACAD_SCALELIST
350
47
  0
DICTIONARY
  5
D
102
{ACAD_REACTORS
330
C
102
}
330
C
100
AcDbDictionary
281
     1
  0
DICTIONARY
  5
1A
102
{ACAD_REACTORS
330
C
102
}
330
C
100
AcDbDictionary
281
     1
  3
Layout1
350
1E
  3
Layout2
350
26
  3
Model
350
22
  0
DICTIONARY
  5
17
102
{ACAD_REACTORS
330
C
102
}
330
C
100
AcDbDictionary
281
     1
  3
Standard
350
18
  0
DICTIONARY
  5
19
102
{ACAD_REACTORS
330
C
102
}
330
C
100
AcDbDictionary
281
     1
  0
ACDBDICTIONARYWDFLT
  5
E
102
{ACAD_REACTORS
330
C
102
}
330
C
100
AcDbDictionary
281
     1
  3
Normal
350
F
100
AcDbDictionaryWithDefault
340
F
  0
DICTIONARY
  5
47
102
{ACAD_REACTORS
330
C
102
}
330
C
100
AcDbDictionary
281
     1
  3
A0
350
48
  3
A1
350
49
  3
A2
350
4A
  3
A3
350
4B
  3
A4
350
4C
  3
A5
350
4D
  3
A6
350
4E
  3
A7
350
4F
  3
A8
350
50
  3
A9
350
51
  3
B0
350
52
  3
B1
350
53
  3
B2
350
54
  3
B3
350
55
  3
B4
350
56
  3
B5
350
57
  3
B6
350
58
  3
B7
350
59
  3
B8
350
5A
  3
B9
350
5B
  3
C0
350
5C
  3
C1
350
5D
  3
C2
350
5E
  3
C3
350
5F
  3
C4
350
60
  3
C5
350
61
  3
C6
350
62
  3
C7
350
63
  3
C8
350
64
  3
C9
350
65
  3
D0
350
66
  3
D1
350
67
  3
D2
350
68
  0
LAYOUT
  5
1E
102
{ACAD_REACTORS
330
1A
102
}
330
1A
100
AcDbPlotSettings
  1

  2
none_device
  4

  6

 40
0.0
 41
0.0
 42
0.0
 43
0.0
 44
0.0
 45
0.0
 46
0.0
 47
0.0
 48
0.0
 49
0.0
140
0.0
141
0.0
142
1.0
143
1.0
 70
   688
 72
     1
 73
     0
 74
     5
  7

 75
    16
147
1.0
148
0.0
149
0.0
100
AcDbLayout
  1
Layout1
 70
     1
 71
     1
 10
0.0
 20
0.0
 11
420.0
 21
297.0
 12
0.0
 22
0.0
 32
0.0
 14
1.0000000000E+20
 24
1.0000000000E+20
 34
1.0000000000E+20
 15
-1.0000000000E+20
 25
-1.0000000000E+20
 35
-1.0000000000E+20
146
0.0
 13
0.0
 23
0.0
 33
0.0
 16
1.0
 26
0.0
 36
0.0
 17
0.0
 27
1.0
 37
0.0
 76
     0
330
1B
  0
LAYOUT
  5
26
102
{ACAD_REACTORS
330
1A
102
}
330
1A
100
AcDbPlotSettings
  1

  2
none_device
  4

  6

 40
0.0
 41
0.0
 42
0.0
 43
0.0
 44
0.0
 45
0.0
 46
0.0
 47
0.0
 48
0.0
 49
0.0
140
0.0
141
0.0
142
1.0
143
1.0
 70
   688
 72
     1
 73
     0
 74
     5
  7

 75
    16
147
1.0
148
0.0
149
0.0
100
AcDbLayout
  1
Layout2
 70
     1
 71
     2
 10
0.0
 20
0.0
 11
0.0
 21
0.0
 12
0.0
 22
0.0
 32
0.0
 14
0.0
 24
0.0
 34
0.0
 15
0.0
 25
0.0
 35
0.0
146
0.0
 13
0.0
 23
0.0
 33
0.0
 16
1.0
 26
0.0
 36
0.0
 17
0.0
 27
1.0
 37
0.0
 76
     0
330
23
  0
LAYOUT
  5
22
102
{ACAD_REACTORS
330
1A
102
}
330
1A
100
AcDbPlotSettings
  1

  2
none_device
  4
Letter_(8.50_x_11.00_Inches)
  6

 40
6.35
 41
6.35
 42
6.35000508
 43
6.35000508
 44
215.9
 45
279.4
 46
0.0
 47
0.0
 48
0.0
 49
0.0
140
0.0
141
0.0
142
1.0
143
1.0
 70
  1712
 72
     1
 73
     0
 74
     0
  7

 75
     0
147
1.0
148
0.0
149
0.0
100
AcDbLayout
  1
Model
 70
     1
 71
     0
 10
0.0
 20
0.0
 11
431.8
 21
279.4
 12
0.0
 22
0.0
 32
0.0
 14
0.0
 24
0.0
 34
0.0
 15
431.8
 25
279.4
 35
0.0
146
0.0
 13
0.0
 23
0.0
 33
0.0
 16
1.0
 26
0.0
 36
0.0
 17
0.0
 27
1.0
 37
0.0
 76
     0
330
1F
331
29
  0
MLINESTYLE
  5
18
102
{ACAD_REACTORS
330
17
102
}
330
17
100
AcDbMlineStyle
  2
Standard
 70
     0
  3

 62
   256
 51
90.0
 52
90.0
 71
     2
 49
0.5
 62
   256
  6
BYLAYER
 49
-0.5
 62
   256
  6
BYLAYER
  0
ACDBPLACEHOLDER
  5
F
102
{ACAD_REACTORS
330
E
102
}
330
E
  0
SCALE
  5
48
102
{ACAD_REACTORS
330
47
102
}
330
47
100
AcDbScale
 70
     0
300
1:1
140
1.0
141
1.0
290
     1
  0
SCALE
  5
49
102
{ACAD_REACTORS
330
47
102
}
330
47
100
AcDbScale
 70
     0
300
1:2
140
1.0
141
2.0
290
     0
  0
SCALE
  5
4A
102
{ACAD_REACTORS
330
47
102
}
330
47
100
AcDbScale
 70
     0
300
1:4
140
1.0
141
4.0
290
     0
  0
SCALE
  5
4B
102
{ACAD_REACTORS
330
47
102
}
330
47
100
AcDbScale
 70
     0
300
1:5
140
1.0
141
5.0
290
     0
  0
SCALE
  5
4C
102
{ACAD_REACTORS
330
47
102
}
330
47
100
AcDbScale
 70
     0
300
1:8
140
1.0
141
8.0
290
     0
  0
SCALE
  5
4D
102
{ACAD_REACTORS
330
47
102
}
330
47
100
AcDbScale
 70
     0
300
1:10
140
1.0
141
10.0
290
     0
  0
SCALE
  5
4E
102
{ACAD_REACTORS
330
47
102
}
330
47
100
AcDbScale
 70
     0
300
1:16
140
1.0
141
16.0
290
     0
  0
SCALE
  5
4F
102
{ACAD_REACTORS
330
47
102
}
330
47
100
AcDbScale
 70
     0
300
1:20
140
1.0
141
20.0
290
     0
  0
SCALE
  5
50
102
{ACAD_REACTORS
330
47
102
}
330
47
100
AcDbScale
 70
     0
300
1:30
140
1.0
141
30.0
290
     0
  0
SCALE
  5
51
102
{ACAD_REACTORS
330
47
102
}
330
47
100
AcDbScale
 70
     0
300
1:40
140
1.0
141
40.0
290
     0
  0
SCALE
  5
52
102
{ACAD_REACTORS
330
47
102
}
330
47
100
AcDbScale
 70
     0
300
1:50
140
1.0
141
50.0
290
     0
  0
SCALE
  5
53
102
{ACAD_REACTORS
330
47
102
}
330
47
100
AcDbScale
 70
     0
300
1:100
140
1.0
141
100.0
290
     0
  0
SCALE
  5
54
102
{ACAD_REACTORS
330
47
102
}
330
47
100
AcDbScale
 70
     0
300
2:1
140
2.0
141
1.0
290
     0
  0
SCALE
  5
55
102
{ACAD_REACTORS
330
47
102
}
330
47
100
AcDbScale
 70
     0
300
4:1
140
4.0
141
1.0
290
     0
  0
SCALE
  5
56
102
{ACAD_REACTORS
330
47
102
}
330
47
100
AcDbScale
 70
     0
300
8:1
140
8.0
141
1.0
290
     0
  0
SCALE
  5
57
102
{ACAD_REACTORS
330
47
102
}
330
47
100
AcDbScale
 70
     0
300
10:1
140
10.0
141
1.0
290
     0
  0
SCALE
  5
58
102
{ACAD_REACTORS
330
47
102
}
330
47
100
AcDbScale
 70
     0
300
100:1
140
100.0
141
1.0
290
     0
  0
SCALE
  5
59
102
{ACAD_REACTORS
330
47
102
}
330
47
100
AcDbScale
 70
     0
300
1/128" = 1'-0"
140
0.0078125
141
12.0
290
     0
  0
SCALE
  5
5A
102
{ACAD_REACTORS
330
47
102
}
330
47
100
AcDbScale
 70
     0
300
1/64" = 1'-0"
140
0.015625
141
12.0
290
     0
  0
SCALE
  5
5B
102
{ACAD_REACTORS
330
47
102
}
330
47
100
AcDbScale
 70
     0
300
1/32" = 1'-0"
140
0.03125
141
12.0
290
     0
  0
SCALE
  5
5C
102
{ACAD_REACTORS
330
47
102
}
330
47
100
AcDbScale
 70
     0
300
1/16" = 1'-0"
140
0.0625
141
12.0
290
     0
  0
SCALE
  5
5D
102
{ACAD_REACTORS
330
47
102
}
330
47
100
AcDbScale
 70
     0
300
3/32" = 1'-0"
140
0.09375
141
12.0
290
     0
  0
SCALE
  5
5E
102
{ACAD_REACTORS
330
47
102
}
330
47
100
AcDbScale
 70
     0
300
1/8" = 1'-0"
140
0.125
141
12.0
290
     0
  0
SCALE
  5
5F
102
{ACAD_REACTORS
330
47
102
}
330
47
100
AcDbScale
 70
     0
300
3/16" = 1'-0"
140
0.1875
141
12.0
290
     0
  0
SCALE
  5
60
102
{ACAD_REACTORS
330
47
102
}
330
47
100
AcDbScale
 70
     0
300
1/4" = 1'-0"
140
0.25
141
12.0
290
     0
  0
SCALE
  5
61
102
{ACAD_REACTORS
330
47
102
}
330
47
100
AcDbScale
 70
     0
300
3/8" = 1'-0"
140
0.375
141
12.0
290
     0
  0
SCALE
  5
62
102
{ACAD_REACTORS
330
47
102
}
330
47
100
AcDbScale
 70
     0
300
1/2" = 1'-0"
140
0.5
141
12.0
290
     0
  0
SCALE
  5
63
102
{ACAD_REACTORS
330
47
102
}
330
47
100
AcDbScale
 70
     0
300
3/4" = 1'-0"
140
0.75
141
12.0
290
     0
  0
SCALE
  5
64
102
{ACAD_REACTORS
330
47
102
}
330
47
100
AcDbScale
 70
     0
300
1" = 1'-0"
140
1.0
141
12.0
290
     0
  0
SCALE
  5
65
102
{ACAD_REACTORS
330
47
102
}
330
47
100
AcDbScale
 70
     0
300
1-1/2" = 1'-0"
140
1.5
141
12.0
290
     0
  0
SCALE
  5
66
102
{ACAD_REACTORS
330
47
102
}
330
47
100
AcDbScale
 70
     0
300
3" = 1'-0"
140
3.0
141
12.0
290
     0
  0
SCALE
  5
67
102
{ACAD_REACTORS
330
47
102
}
330
47
100
AcDbScale
 70
     0
300
6" = 1'-0"
140
6.0
141
12.0
290
     0
  0
SCALE
  5
68
102
{ACAD_REACTORS
330
47
102
}
330
47
100
AcDbScale
 70
     0
300
1'-0" = 1'-0"
140
12.0
141
12.0
290
     0
  0
ENDSEC
  0
EOF
