  0
SECTION
  2
HEADER
  9
$ACADVER
  1
AC1015
  9
$ACADMAINTVER
 70
     6
  9
$DWGCODEPAGE
  3
ANSI_1252
  9
$INSBASE
 10
0.0
 20
0.0
 30
0.0
  9
$EXTMIN
 10
0.0
 20
0.0
 30
0.0
  9
$EXTMAX
 10
841.0
 20
594.0
 30
0.0
  9
$LIMMIN
 10
0.0
 20
0.0
  9
$LIMMAX
 10
841.0
 20
594.0
  9
$ORTHOMODE
 70
     0
  9
$REGENMODE
 70
     1
  9
$FILLMODE
 70
     1
  9
$QTEXTMODE
 70
     0
  9
$MIRRTEXT
 70
     1
  9
$LTSCALE
 40
1.0
  9
$ATTMODE
 70
     1
  9
$TEXTSIZE
 40
3.5
  9
$TRACEWID
 40
1.0
  9
$TEXTSTYLE
  7
Standard
  9
$CLAYER
  8
0
  9
$CELTYPE
  6
ByLayer
  9
$CECOLOR
 62
   256
  9
$CELTSCALE
 40
1.0
  9
$DISPSILH
 70
     0
  9
$DIMSCALE
 40
1.0
  9
$DIMASZ
 40
6.0
  9
$DIMEXO
 40
1.0
  9
$DIMDLI
 40
3.75
  9
$DIMRND
 40
0.0
  9
$DIMDLE
 40
0.0
  9
$DIMEXE
 40
1.0
  9
$DIMTP
 40
0.0
  9
$DIMTM
 40
0.0
  9
$DIMTXT
 40
3.5
  9
$DIMCEN
 40
2.5
  9
$DIMTSZ
 40
0.0
  9
$DIMTOL
 70
     0
  9
$DIMLIM
 70
     0
  9
$DIMTIH
 70
     1
  9
$DIMTOH
 70
     1
  9
$DIMSE1
 70
     0
  9
$DIMSE2
 70
     0
  9
$DIMTAD
 70
     1
  9
$DIMZIN
 70
     0
  9
$DIMBLK
  1

  9
$DIMASO
 70
     1
  9
$DIMSHO
 70
     1
  9
$DIMPOST
  1

  9
$DIMAPOST
  1

  9
$DIMALT
 70
     0
  9
$DIMALTD
 70
     3
  9
$DIMALTF
 40
0.0393700787
  9
$DIMLFAC
 40
1.0
  9
$DIMTOFL
 70
     1
  9
$DIMTVP
 40
0.0
  9
$DIMTIX
 70
     0
  9
$DIMSOXD
 70
     0
  9
$DIMSAH
 70
     0
  9
$DIMBLK1
  1

  9
$DIMBLK2
  1

  9
$DIMSTYLE
  2
ISO-25
  9
$DIMCLRD
 70
     0
  9
$DIMCLRE
 70
     0
  9
$DIMCLRT
 70
     0
  9
$DIMTFAC
 40
1.0
  9
$DIMGAP
 40
1.524
  9
$DIMJUST
 70
     0
  9
$DIMSD1
 70
     0
  9
$DIMSD2
 70
     0
  9
$DIMTOLJ
 70
     0
  9
$DIMTZIN
 70
     0
  9
$DIMALTZ
 70
     0
  9
$DIMALTTZ
 70
     0
  9
$DIMUPT
 70
     0
  9
$DIMDEC
 70
     3
  9
$DIMTDEC
 70
     3
  9
$DIMALTU
 70
     2
  9
$DIMALTTD
 70
     3
  9
$DIMTXSTY
  7
Standard
  9
$DIMAUNIT
 70
     0
  9
$DIMADEC
 70
     2
  9
$DIMALTRND
 40
0.0
  9
$DIMAZIN
 70
     0
  9
$DIMDSEP
 70
    44
  9
$DIMATFIT
 70
     3
  9
$DIMFRAC
 70
     0
  9
$DIMLDRBLK
  1

  9
$DIMLUNIT
 70
     2
  9
$DIMLWD
 70
    -2
  9
$DIMLWE
 70
    -2
  9
$DIMTMOVE
 70
     0
  9
$LUNITS
 70
     2
  9
$LUPREC
 70
     2
  9
$SKETCHINC
 40
1.0
  9
$FILLETRAD
 40
10.0
  9
$AUNITS
 70
     0
  9
$AUPREC
 70
     2
  9
$MENU
  1
.
  9
$ELEVATION
 40
0.0
  9
$PELEVATION
 40
0.0
  9
$THICKNESS
 40
0.0
  9
$LIMCHECK
 70
     0
  9
$CHAMFERA
 40
10.0
  9
$CHAMFERB
 40
10.0
  9
$CHAMFERC
 40
20.0
  9
$CHAMFERD
 40
0.0
  9
$SKPOLY
 70
     0
  9
$TDCREATE
 40
2455413.42954463
  9
$TDUCREATE
 40
2455413.346211297
  9
$TDUPDATE
 40
2455413.429544641
  9
$TDUUPDATE
 40
2455413.346211308
  9
$TDINDWG
 40
0.0000000116
  9
$TDUSRTIMER
 40
0.0000000116
  9
$USRTIMER
 70
     1
  9
$ANGBASE
 50
0.0
  9
$ANGDIR
 70
     0
  9
$PDMODE
 70
     0
  9
$PDSIZE
 40
-1.0
  9
$PLINEWID
 40
0.0
  9
$SPLFRAME
 70
     0
  9
$SPLINETYPE
 70
     6
  9
$SPLINESEGS
 70
     8
  9
$HANDSEED
  5
3C1
  9
$SURFTAB1
 70
     6
  9
$SURFTAB2
 70
     6
  9
$SURFTYPE
 70
     6
  9
$SURFU
 70
     6
  9
$SURFV
 70
     6
  9
$UCSBASE
  2

  9
$UCSNAME
  2

  9
$UCSORG
 10
0.0
 20
0.0
 30
0.0
  9
$UCSXDIR
 10
1.0
 20
0.0
 30
0.0
  9
$UCSYDIR
 10
0.0
 20
1.0
 30
0.0
  9
$UCSORTHOREF
  2

  9
$UCSORTHOVIEW
 70
     0
  9
$UCSORGTOP
 10
0.0
 20
0.0
 30
0.0
  9
$UCSORGBOTTOM
 10
0.0
 20
0.0
 30
0.0
  9
$UCSORGLEFT
 10
0.0
 20
0.0
 30
0.0
  9
$UCSORGRIGHT
 10
0.0
 20
0.0
 30
0.0
  9
$UCSORGFRONT
 10
0.0
 20
0.0
 30
0.0
  9
$UCSORGBACK
 10
0.0
 20
0.0
 30
0.0
  9
$PUCSBASE
  2

  9
$PUCSNAME
  2

  9
$PUCSORG
 10
0.0
 20
0.0
 30
0.0
  9
$PUCSXDIR
 10
1.0
 20
0.0
 30
0.0
  9
$PUCSYDIR
 10
0.0
 20
1.0
 30
0.0
  9
$PUCSORTHOREF
  2

  9
$PUCSORTHOVIEW
 70
     0
  9
$PUCSORGTOP
 10
0.0
 20
0.0
 30
0.0
  9
$PUCSORGBOTTOM
 10
0.0
 20
0.0
 30
0.0
  9
$PUCSORGLEFT
 10
0.0
 20
0.0
 30
0.0
  9
$PUCSORGRIGHT
 10
0.0
 20
0.0
 30
0.0
  9
$PUCSORGFRONT
 10
0.0
 20
0.0
 30
0.0
  9
$PUCSORGBACK
 10
0.0
 20
0.0
 30
0.0
  9
$USERI1
 70
     0
  9
$USERI2
 70
     0
  9
$USERI3
 70
     0
  9
$USERI4
 70
     0
  9
$USERI5
 70
     0
  9
$USERR1
 40
0.0
  9
$USERR2
 40
0.0
  9
$USERR3
 40
0.0
  9
$USERR4
 40
0.0
  9
$USERR5
 40
0.0
  9
$WORLDVIEW
 70
     1
  9
$SHADEDGE
 70
     3
  9
$SHADEDIF
 70
    70
  9
$TILEMODE
 70
     1
  9
$MAXACTVP
 70
    64
  9
$PINSBASE
 10
0.0
 20
0.0
 30
0.0
  9
$PLIMCHECK
 70
     0
  9
$PEXTMIN
 10
1.0000000000E+20
 20
1.0000000000E+20
 30
1.0000000000E+20
  9
$PEXTMAX
 10
-1.0000000000E+20
 20
-1.0000000000E+20
 30
-1.0000000000E+20
  9
$PLIMMIN
 10
0.0
 20
0.0
  9
$PLIMMAX
 10
420.0
 20
297.0
  9
$UNITMODE
 70
     0
  9
$VISRETAIN
 70
     1
  9
$PLINEGEN
 70
     0
  9
$PSLTSCALE
 70
     1
  9
$TREEDEPTH
 70
  3020
  9
$CMLSTYLE
  2
Standard
  9
$CMLJUST
 70
     0
  9
$CMLSCALE
 40
20.0
  9
$PROXYGRAPHICS
 70
     1
  9
$MEASUREMENT
 70
     1
  9
$CELWEIGHT
370
    -1
  9
$ENDCAPS
280
     0
  9
$JOINSTYLE
280
     0
  9
$LWDISPLAY
290
     1
  9
$INSUNITS
 70
     4
  9
$HYPERLINKBASE
  1

  9
$STYLESHEET
  1

  9
$XEDIT
290
     1
  9
$CEPSNTYPE
380
     0
  9
$PSTYLEMODE
290
     1
  9
$FINGERPRINTGUID
  2
{1154915E-A464-4336-B724-1DE6F9E5452B}
  9
$VERSIONGUID
  2
{FAEB1C32-E019-11D5-929B-00C0DF256EC4}
  9
$EXTNAMES
290
     1
  9
$PSVPSCALE
 40
0.0
  9
$OLESTARTUP
290
     0
  0
ENDSEC
  0
SECTION
  2
CLASSES
  0
CLASS
  1
ACDBDICTIONARYWDFLT
  2
AcDbDictionaryWithDefault
  3
ObjectDBX Classes
 90
        0
280
     0
281
     0
  0
CLASS
  1
VISUALSTYLE
  2
AcDbVisualStyle
  3
ObjectDBX Classes
 90
     4095
280
     0
281
     0
  0
CLASS
  1
DICTIONARYVAR
  2
AcDbDictionaryVar
  3
ObjectDBX Classes
 90
        0
280
     0
281
     0
  0
CLASS
  1
ACDBPLACEHOLDER
  2
AcDbPlaceHolder
  3
ObjectDBX Classes
 90
        0
280
     0
281
     0
  0
CLASS
  1
LAYOUT
  2
AcDbLayout
  3
ObjectDBX Classes
 90
        0
280
     0
281
     0
  0
ENDSEC
  0
SECTION
  2
TABLES
  0
TABLE
  2
VPORT
  5
8
330
0
100
AcDbSymbolTable
 70
     1
  0
VPORT
  5
29
330
8
100
AcDbSymbolTableRecord
100
AcDbViewportTableRecord
  2
*Active
 70
     0
 10
0.0
 20
0.0
 11
1.0
 21
1.0
 12
420.5
 22
297.0
 13
0.0
 23
0.0
 14
10.0
 24
10.0
 15
10.0
 25
10.0
 16
0.0
 26
0.0
 36
1.0
 17
0.0
 27
0.0
 37
0.0
 40
594.0
 41
1.4158249158
 42
50.0
 43
0.0
 44
0.0
 50
0.0
 51
0.0
 71
     0
 72
  2000
 73
     1
 74
     3
 75
     0
 76
     0
 77
     0
 78
     0
281
     0
 65
     1
110
0.0
120
0.0
130
0.0
111
1.0
121
0.0
131
0.0
112
0.0
122
1.0
132
0.0
 79
     0
146
0.0
  0
ENDTAB
  0
TABLE
  2
LTYPE
  5
5
330
0
100
AcDbSymbolTable
 70
     6
  0
LTYPE
  5
14
330
5
100
AcDbSymbolTableRecord
100
AcDbLinetypeTableRecord
  2
ByBlock
 70
     0
  3

 72
    65
 73
     0
 40
0.0
  0
LTYPE
  5
15
330
5
100
AcDbSymbolTableRecord
100
AcDbLinetypeTableRecord
  2
ByLayer
 70
     0
  3

 72
    65
 73
     0
 40
0.0
  0
LTYPE
  5
16
330
5
100
AcDbSymbolTableRecord
100
AcDbLinetypeTableRecord
  2
Continuous
 70
     0
  3
Solid line
 72
    65
 73
     0
 40
0.0
  0
LTYPE
  5
3B
330
5
100
AcDbSymbolTableRecord
100
AcDbLinetypeTableRecord
  2
HIDDEN
 70
     0
  3
Hidden __ __ __ __ __ __ __ __ __ __ __ __ __ __
 72
    65
 73
     2
 40
1.905
 49
1.27
 74
     0
 49
-0.635
 74
     0
  0
LTYPE
  5
3C
330
5
100
AcDbSymbolTableRecord
100
AcDbLinetypeTableRecord
  2
PHANTOM
 70
     0
  3
Phantom ______  __  __  ______  __  __  ______
 72
    65
 73
     6
 40
12.7
 49
6.35
 74
     0
 49
-1.27
 74
     0
 49
1.27
 74
     0
 49
-1.27
 74
     0
 49
1.27
 74
     0
 49
-1.27
 74
     0
  0
LTYPE
  5
3D
330
5
100
AcDbSymbolTableRecord
100
AcDbLinetypeTableRecord
  2
CENTER
 70
     0
  3
Center ____ _ ____ _ ____ _ ____ _ ____ _ ____
 72
    65
 73
     4
 40
10.16
 49
6.35
 74
     0
 49
-1.27
 74
     0
 49
1.27
 74
     0
 49
-1.27
 74
     0
  0
LTYPE
  5
3E
330
5
100
AcDbSymbolTableRecord
100
AcDbLinetypeTableRecord
  2
CENTERX2
 70
     0
  3
Center (2x) ________  __  ________  __  _____
 72
    65
 73
     4
 40
20.32
 49
12.7
 74
     0
 49
-2.54
 74
     0
 49
2.54
 74
     0
 49
-2.54
 74
     0
  0
LTYPE
  5
3F
330
5
100
AcDbSymbolTableRecord
100
AcDbLinetypeTableRecord
  2
DOT2
 70
     0
  3
Dot (.5x) ........................................
 72
    65
 73
     2
 40
0.635
 49
0.0
 74
     0
 49
-0.635
 74
     0
  0
ENDTAB
  0
TABLE
  2
LAYER
  5
2
330
0
100
AcDbSymbolTable
 70
     1
  0
LAYER
  5
10
330
2
100
AcDbSymbolTableRecord
100
AcDbLayerTableRecord
  2
0
 70
     0
 62
     7
  6
Continuous
370
    -3
390
F
  0
ENDTAB
  0
TABLE
  2
STYLE
  5
3
330
0
100
AcDbSymbolTable
 70
     1
  0
STYLE
  5
11
330
3
100
AcDbSymbolTableRecord
100
AcDbTextStyleTableRecord
  2
Standard
 70
     0
 40
0.0
 41
1.0
 50
0.0
 71
     0
 42
2.5
  3
txt
  4

  0
ENDTAB
  0
TABLE
  2
VIEW
  5
6
330
0
100
AcDbSymbolTable
 70
     0
  0
ENDTAB
  0
TABLE
  2
UCS
  5
7
330
0
100
AcDbSymbolTable
 70
     0
  0
ENDTAB
  0
TABLE
  2
APPID
  5
9
330
0
100
AcDbSymbolTable
 70
     1
  0
APPID
  5
12
330
9
100
AcDbSymbolTableRecord
100
AcDbRegAppTableRecord
  2
ACAD
 70
     0
  0
ENDTAB
  0
TABLE
  2
DIMSTYLE
  5
A
330
0
100
AcDbSymbolTable
 70
     1
100
AcDbDimStyleTable
  0
DIMSTYLE
105
27
330
A
100
AcDbSymbolTableRecord
100
AcDbDimStyleTableRecord
  2
ISO-25
 70
     0
 41
2.5
 42
0.625
 43
3.75
 44
1.25
 73
     0
 74
     0
 77
     1
 78
     8
140
2.5
141
2.5
143
0.0393700787
147
0.625
171
     3
172
     1
271
     2
272
     2
274
     3
278
    44
283
     0
284
     8
340
11
  0
ENDTAB
  0
TABLE
  2
BLOCK_RECORD
  5
1
330
0
100
AcDbSymbolTable
 70
     1
  0
BLOCK_RECORD
  5
1F
330
1
100
AcDbSymbolTableRecord
100
AcDbBlockTableRecord
  2
*Model_Space
340
22
  0
BLOCK_RECORD
  5
1B
330
1
100
AcDbSymbolTableRecord
100
AcDbBlockTableRecord
  2
*Paper_Space
340
1E
  0
BLOCK_RECORD
  5
23
330
1
100
AcDbSymbolTableRecord
100
AcDbBlockTableRecord
  2
*Paper_Space0
340
26
  0
ENDTAB
  0
ENDSEC
  0
SECTION
  2
BLOCKS
  0
BLOCK
  5
20
330
1F
100
AcDbEntity
  8
0
100
AcDbBlockBegin
  2
*Model_Space
 70
     0
 10
0.0
 20
0.0
 30
0.0
  3
*Model_Space
  1

  0
ENDBLK
  5
21
330
1F
100
AcDbEntity
  8
0
100
AcDbBlockEnd
  0
BLOCK
  5
1C
330
1B
100
AcDbEntity
 67
     1
  8
0
100
AcDbBlockBegin
  2
*Paper_Space
 70
     0
 10
0.0
 20
0.0
 30
0.0
  3
*Paper_Space
  1

  0
ENDBLK
  5
1D
330
1B
100
AcDbEntity
 67
     1
  8
0
100
AcDbBlockEnd
  0
BLOCK
  5
24
330
23
100
AcDbEntity
  8
0
100
AcDbBlockBegin
  2
*Paper_Space0
 70
     0
 10
0.0
 20
0.0
 30
0.0
  3
*Paper_Space0
  1

  0
ENDBLK
  5
25
330
23
100
AcDbEntity
  8
0
100
AcDbBlockEnd
  0
ENDSEC
  0
SECTION
  2
ENTITIES
  0
LINE
  5
40
330
1F
100
AcDbEntity
  8
0
  6
CENTERX2
 62
     7
100
AcDbLine
 10
-700.6831707317
 20
1466.3133259804
 30
0.0
 11
-700.6681554828
 21
1253.0303559728
 31
0.0
  0
LINE
  5
41
330
1F
100
AcDbEntity
  8
0
  6
CENTERX2
 62
     7
100
AcDbLine
 10
-0.6831707317
 20
1466.3133259804
 30
0.0
 11
-0.6681554828
 21
1253.0303559728
 31
0.0
  0
LINE
  5
42
330
1F
100
AcDbEntity
  8
0
  6
Continuous
 62
     7
370
    15
100
AcDbLine
 10
1301.3168273609
 20
1440.2133273871
 30
0.0
 11
1252.9292998951
 21
1440.2133273871
 31
0.0
  0
LINE
  5
43
330
1F
100
AcDbEntity
  8
0
  6
Continuous
 62
     7
370
    15
100
AcDbLine
 10
1221.7043338459
 20
1440.2133273871
 30
0.0
 11
14.3168268841
 21
1440.2133273871
 31
0.0
  0
LINE
  5
44
330
1F
100
AcDbEntity
  8
0
  6
Continuous
 62
     7
370
    15
100
AcDbLine
 10
-15.6831445057
 20
1440.2133273871
 30
0.0
 11
-685.6831686455
 21
1440.2133273871
 31
0.0
  0
LINE
  5
45
330
1F
100
AcDbEntity
  8
0
  6
Continuous
 62
     7
370
    15
100
AcDbLine
 10
-715.6831698376
 20
1440.2133273871
 30
0.0
 11
-719.0706731636
 21
1440.2133273871
 31
0.0
  0
LINE
  5
46
330
1F
100
AcDbEntity
  8
0
  6
Continuous
 62
     7
370
    15
100
AcDbLine
 10
-750.2956652898
 20
1440.2133273871
 30
0.0
 11
-798.6831706367
 21
1440.2133273871
 31
0.0
  0
LINE
  5
47
330
1F
100
AcDbEntity
  8
0
  6
Continuous
 62
     7
370
    15
100
AcDbLine
 10
-798.6831706367
 20
1415.2133251519
 30
0.0
 11
-750.2956652898
 21
1415.2133251519
 31
0.0
  0
LINE
  5
48
330
1F
100
AcDbEntity
  8
0
  6
Continuous
 62
     7
370
    15
100
AcDbLine
 10
-719.0706731636
 20
1415.2133251519
 30
0.0
 11
-715.6831698376
 21
1415.2133251519
 31
0.0
  0
LINE
  5
49
330
1F
100
AcDbEntity
  8
0
  6
Continuous
 62
     7
370
    15
100
AcDbLine
 10
-685.6831686455
 20
1415.2133251519
 30
0.0
 11
-15.6831445057
 21
1415.2133251519
 31
0.0
  0
LINE
  5
4A
330
1F
100
AcDbEntity
  8
0
  6
Continuous
 62
     7
370
    15
100
AcDbLine
 10
14.3168268841
 20
1415.2133251519
 30
0.0
 11
1221.7043338459
 21
1415.2133251519
 31
0.0
  0
LINE
  5
4B
330
1F
100
AcDbEntity
  8
0
  6
Continuous
 62
     7
370
    15
100
AcDbLine
 10
1252.9292998951
 20
1415.2133251519
 30
0.0
 11
1301.3168273609
 21
1415.2133251519
 31
0.0
  0
LINE
  5
4C
330
1F
100
AcDbEntity
  8
0
  6
Continuous
 62
     7
370
    15
100
AcDbLine
 10
-800.4831707368
 20
1415.2133251519
 30
0.0
 11
-798.8831707626
 21
1415.2133251519
 31
0.0
  0
LINE
  5
4D
330
1F
100
AcDbEntity
  8
0
  6
Continuous
 62
     7
370
    15
100
AcDbLine
 10
-798.8831707626
 20
1440.2133273871
 30
0.0
 11
-800.4831707368
 21
1440.2133273871
 31
0.0
  0
LINE
  5
4E
330
1F
100
AcDbEntity
  8
0
  6
Continuous
 62
     7
370
    15
100
AcDbLine
 10
-798.8831707626
 20
1415.2133251519
 30
0.0
 11
-798.6831706367
 21
1415.4133266748
 31
0.0
  0
LINE
  5
4F
330
1F
100
AcDbEntity
  8
0
  6
Continuous
 62
     7
370
    15
100
AcDbLine
 10
-798.6831706367
 20
1440.0133277268
 30
0.0
 11
-798.8831707626
 21
1440.2133273871
 31
0.0
  0
LINE
  5
50
330
1F
100
AcDbEntity
  8
0
  6
Continuous
 62
     7
370
    15
100
AcDbLine
 10
-800.4831707368
 20
1440.2133273871
 30
0.0
 11
-800.6831707317
 21
1440.0133277268
 31
0.0
  0
LINE
  5
51
330
1F
100
AcDbEntity
  8
0
  6
Continuous
 62
     7
370
    15
100
AcDbLine
 10
-800.6831707317
 20
1415.4133266748
 30
0.0
 11
-800.4831707368
 21
1415.2133251519
 31
0.0
  0
LINE
  5
52
330
1F
100
AcDbEntity
  8
0
  6
Continuous
 62
     7
370
    15
100
AcDbLine
 10
1301.5168605488
 20
1440.2133273871
 30
0.0
 11
1301.3168273609
 21
1440.0133277268
 31
0.0
  0
LINE
  5
53
330
1F
100
AcDbEntity
  8
0
  6
Continuous
 62
     7
370
    15
100
AcDbLine
 10
1301.3168273609
 20
1415.4133266748
 30
0.0
 11
1301.5168605488
 21
1415.2133251519
 31
0.0
  0
LINE
  5
54
330
1F
100
AcDbEntity
  8
0
  6
Continuous
 62
     7
370
    15
100
AcDbLine
 10
1303.1168876332
 20
1440.2133273871
 30
0.0
 11
1301.5168605488
 21
1440.2133273871
 31
0.0
  0
LINE
  5
55
330
1F
100
AcDbEntity
  8
0
  6
Continuous
 62
     7
370
    15
100
AcDbLine
 10
1301.5168605488
 20
1415.2133251519
 30
0.0
 11
1303.1168876332
 21
1415.2133251519
 31
0.0
  0
LINE
  5
56
330
1F
100
AcDbEntity
  8
0
  6
Continuous
 62
     7
370
    15
100
AcDbLine
 10
1303.1168876332
 20
1415.2133251519
 30
0.0
 11
1303.316920821
 21
1415.4133266748
 31
0.0
  0
LINE
  5
57
330
1F
100
AcDbEntity
  8
0
  6
Continuous
 62
     7
370
    15
100
AcDbLine
 10
1303.316920821
 20
1440.0133277268
 30
0.0
 11
1303.1168876332
 21
1440.2133273871
 31
0.0
  0
LINE
  5
58
330
1F
100
AcDbEntity
  8
0
  6
Continuous
 62
     7
370
    15
100
AcDbLine
 10
97.3168311756
 20
1387.3133259804
 30
0.0
 11
14.3168268841
 21
1387.3133259804
 31
0.0
  0
LINE
  5
59
330
1F
100
AcDbEntity
  8
0
  6
Continuous
 62
     7
370
    15
100
AcDbLine
 10
-15.6831445057
 20
1387.3133259804
 30
0.0
 11
-685.6831686455
 21
1387.3133259804
 31
0.0
  0
LINE
  5
5A
330
1F
100
AcDbEntity
  8
0
  6
Continuous
 62
     7
370
    15
100
AcDbLine
 10
-715.6831698376
 20
1387.3133259804
 30
0.0
 11
-798.6831706367
 21
1387.3133259804
 31
0.0
  0
LINE
  5
5B
330
1F
100
AcDbEntity
  8
0
  6
Continuous
 62
     7
370
    15
100
AcDbLine
 10
99.3168054264
 20
-660.6867712943
 30
0.0
 11
99.3168054264
 21
1385.3133258854
 31
0.0
  0
LINE
  5
5C
330
1F
100
AcDbEntity
  8
0
  6
Continuous
 62
     7
370
    15
100
AcDbLine
 10
-798.6831706367
 20
-662.6866263359
 30
0.0
 11
39.3168030422
 21
-662.6866263359
 31
0.0
  0
LINE
  5
5D
330
1F
100
AcDbEntity
  8
0
  6
Continuous
 62
     7
370
    15
100
AcDbLine
 10
79.3168244999
 20
-662.6866263359
 30
0.0
 11
97.3168311756
 21
-662.6866263359
 31
0.0
  0
ARC
  5
5E
330
1F
100
AcDbEntity
  8
0
  6
Continuous
 62
     7
370
    15
100
AcDbCircle
 10
-798.6831707317
 20
-660.6866740196
 30
0.0
 40
2.0
100
AcDbArc
 50
180.0
 51
270.0
  0
LINE
  5
5F
330
1F
100
AcDbEntity
  8
0
  6
Continuous
 62
     7
370
    15
100
AcDbLine
 10
-800.6831707317
 20
1385.3133258854
 30
0.0
 11
-800.6831707317
 21
-660.6867712943
 31
0.0
  0
ARC
  5
60
330
1F
100
AcDbEntity
  8
0
  6
Continuous
 62
     7
370
    15
100
AcDbCircle
 10
97.3168292683
 20
-660.6866740196
 30
0.0
 40
2.0
100
AcDbArc
 50
270.0
 51
0.0
  0
ARC
  5
61
330
1F
100
AcDbEntity
  8
0
  6
Continuous
 62
     7
370
    15
100
AcDbCircle
 10
97.3168292683
 20
1385.3133259804
 30
0.0
 40
2.000000000000227
100
AcDbArc
 50
0.0
 51
90.0
  0
ARC
  5
62
330
1F
100
AcDbEntity
  8
0
  6
Continuous
 62
     7
370
    15
100
AcDbCircle
 10
-798.6831707317
 20
1385.3133259804
 30
0.0
 40
2.000000000000227
100
AcDbArc
 50
90.0
 51
180.0
  0
LINE
  5
63
330
1F
100
AcDbEntity
  8
0
  6
Continuous
 62
     7
370
    15
100
AcDbLine
 10
1301.3168273609
 20
1427.7133244069
 30
0.0
 11
1301.3168273609
 21
1440.2133273871
 31
0.0
  0
LINE
  5
64
330
1F
100
AcDbEntity
  8
0
  6
Continuous
 62
     7
370
    15
100
AcDbLine
 10
1301.3168273609
 20
1415.2133251519
 30
0.0
 11
1301.3168273609
 21
1427.7133244069
 31
0.0
  0
LINE
  5
65
330
1F
100
AcDbEntity
  8
0
  6
Continuous
 62
     7
370
    15
100
AcDbLine
 10
-798.6831706367
 20
1427.7133244069
 30
0.0
 11
-798.6831706367
 21
1440.2133273871
 31
0.0
  0
LINE
  5
66
330
1F
100
AcDbEntity
  8
0
  6
Continuous
 62
     7
370
    15
100
AcDbLine
 10
-798.6831706367
 20
1415.2133251519
 30
0.0
 11
-798.6831706367
 21
1427.7133244069
 31
0.0
  0
SPLINE
  5
67
330
1F
100
AcDbEntity
  8
0
  6
Continuous
 62
     7
370
    15
100
AcDbSpline
210
0.0
220
0.0
230
1.0
 70
    11
 71
     3
 72
    28
 73
    24
 74
     0
 42
0.00000001
 43
0.00000001
 40
0.0
 40
0.0
 40
0.0
 40
0.0
 40
0.0475551962172586
 40
0.094966058055548
 40
0.1460692979146097
 40
0.2034576504058641
 40
0.2467853138921504
 40
0.2901852262648615
 40
0.3330340897130863
 40
0.3834827816690189
 40
0.4410923335710845
 40
0.4950486619011086
 40
0.5415905929809874
 40
0.5869406796906145
 40
0.6370241624495866
 40
0.6937080530678061
 40
0.7381336735717503
 40
0.7826948873685479
 40
0.82497006856251
 40
0.873731456464432
 40
0.9306921272058591
 40
0.9860187838525584
 40
0.9999999999999999
 40
0.9999999999999999
 40
0.9999999999999999
 40
0.9999999999999999
 10
-48.1331648189266
 20
1427.713324406871
 30
0.0
 10
-48.20315128659269
 20
1426.940528887784
 30
0.0
 10
-48.34291180658123
 20
1425.397283354838
 30
0.0
 10
-49.4157587851447
 20
1423.311547546684
 30
0.0
 10
-51.07016732919478
 20
1421.560274018121
 30
0.0
 10
-53.19824460806822
 20
1420.44671974885
 30
0.0
 10
-55.52369916490019
 20
1420.064229545654
 30
0.0
 10
-57.63843913043265
 20
1420.322122054155
 30
0.0
 10
-59.63363163260959
 20
1421.157914522913
 30
0.0
 10
-61.44963080341537
 20
1422.629233887473
 30
0.0
 10
-62.82016654328737
 20
1424.798865211692
 30
0.0
 10
-63.36044969777244
 20
1427.348594904395
 30
0.0
 10
-63.07154068219045
 20
1429.732561515607
 30
0.0
 10
-62.15605786073075
 20
1431.810181215508
 30
0.0
 10
-60.61553228327821
 20
1433.604967385425
 30
0.0
 10
-58.58117230956184
 20
1434.823654326217
 30
0.0
 10
-56.27240980360859
 20
1435.346452481276
 30
0.0
 10
-54.10878858370083
 20
1435.19764074592
 30
0.0
 10
-52.07864605899604
 20
1434.460594827466
 30
0.0
 10
-50.21944735243
 20
1433.112906944842
 30
0.0
 10
-48.74386215230964
 20
1431.061221541776
 30
0.0
 10
-48.17075425868944
 20
1429.060525931421
 30
0.0
 10
-48.13947472204683
 20
1427.939470663821
 30
0.0
 10
-48.13316481892649
 20
1427.713324406871
 30
0.0
  0
SPLINE
  5
68
330
1F
100
AcDbEntity
  8
0
  6
Continuous
 62
     7
370
    15
100
AcDbSpline
210
0.0
220
0.0
230
1.0
 70
    11
 71
     3
 72
    28
 73
    24
 74
     0
 42
0.00000001
 43
0.00000001
 40
0.0
 40
0.0
 40
0.0
 40
0.0
 40
0.0475551085890468
 40
0.0949663683926019
 40
0.1460694132410154
 40
0.2034572476244318
 40
0.2467855184045673
 40
0.2901854357699716
 40
0.3330337540003755
 40
0.3834831317651988
 40
0.441092377931357
 40
0.4950486814856493
 40
0.5415905096130255
 40
0.5869407808360846
 40
0.6370246492094731
 40
0.6937085463485646
 40
0.7381338757213403
 40
0.7826954006588828
 40
0.8249694594643773
 40
0.8737310897145885
 40
0.930692279102524
 40
0.98601878224417
 40
1.0
 40
1.0
 40
1.0
 40
1.0
 10
-661.1331703025539
 20
1427.713324406871
 30
0.0
 10
-661.203140289292
 20
1426.940526654261
 30
0.0
 10
-661.3428686115304
 20
1425.397268774197
 30
0.0
 10
-662.4157926478485
 20
1423.311563187614
 30
0.0
 10
-664.0701630001126
 20
1421.560276706578
 30
0.0
 10
-666.1982368128628
 20
1420.44670952082
 30
0.0
 10
-668.5236943015055
 20
1420.064233133726
 30
0.0
 10
-670.6384398953883
 20
1420.322113933928
 30
0.0
 10
-672.6336140442947
 20
1421.157935428464
 30
0.0
 10
-674.4496556415692
 20
1422.629208433543
 30
0.0
 10
-675.8201575633205
 20
1424.798876491894
 30
0.0
 10
-676.3604119204527
 20
1427.348589919973
 30
0.0
 10
-676.071588248267
 20
1429.732569830357
 30
0.0
 10
-675.1560557615688
 20
1431.810184730913
 30
0.0
 10
-673.6155089614145
 20
1433.604959390415
 30
0.0
 10
-671.5811522361896
 20
1434.823653123235
 30
0.0
 10
-669.2723919968004
 20
1435.346451411168
 30
0.0
 10
-667.1087834312083
 20
1435.197651821383
 30
0.0
 10
-665.078665982603
 20
1434.460576683454
 30
0.0
 10
-663.2194731248511
 20
1433.112902438584
 30
0.0
 10
-661.7438193646918
 20
1431.061240517358
 30
0.0
 10
-661.170762096908
 20
1429.06052255249
 30
0.0
 10
-661.1394806130369
 20
1427.939470530698
 30
0.0
 10
-661.1331703025539
 20
1427.713324406871
 30
0.0
  0
SPLINE
  5
69
330
1F
100
AcDbEntity
  8
0
  6
Continuous
 62
     7
370
    15
100
AcDbSpline
210
0.0
220
0.0
230
1.0
 70
    11
 71
     3
 72
    28
 73
    24
 74
     0
 42
0.00000001
 43
0.00000001
 40
0.0
 40
0.0
 40
0.0
 40
0.0
 40
0.0475549957242663
 40
0.0949663666542447
 40
0.1460687875917712
 40
0.2034571228225822
 40
0.246785977896164
 40
0.2901846621575662
 40
0.333033512718326
 40
0.3834821895010266
 40
0.4410917240761197
 40
0.4950480361779354
 40
0.5415898088547894
 40
0.5869403600570052
 40
0.6370238277525876
 40
0.6937077013222417
 40
0.7381321234984295
 40
0.7826957720077913
 40
0.8249698132355285
 40
0.8737311864717016
 40
0.930692522875049
 40
0.9860188431483008
 40
1.0
 40
1.0
 40
1.0
 40
1.0
 10
565.8667979877753
 20
1427.713324406871
 30
0.0
 10
565.7968423792602
 20
1426.940525148408
 30
0.0
 10
565.6571424409767
 20
1425.397260626742
 30
0.0
 10
564.5841808180331
 20
1423.311582786686
 30
0.0
 10
562.9298666657104
 20
1421.560252869198
 30
0.0
 10
560.8017567651567
 20
1420.446713229141
 30
0.0
 10
558.4763024167539
 20
1420.064230423156
 30
0.0
 10
556.36156559913
 20
1420.322129212754
 30
0.0
 10
554.3663903252007
 20
1421.157914684644
 30
0.0
 10
552.5503938573887
 20
1422.629233470409
 30
0.0
 10
551.179846428204
 20
1424.798866853202
 30
0.0
 10
550.6396039325575
 20
1427.348587254913
 30
0.0
 10
550.9283853512616
 20
1429.732581285009
 30
0.0
 10
551.8439869309194
 20
1431.810165995742
 30
0.0
 10
553.3844809921154
 20
1433.604970678703
 30
0.0
 10
555.4188375259182
 20
1434.823643261997
 30
0.0
 10
557.7276079246752
 20
1435.346457674904
 30
0.0
 10
559.8912417525738
 20
1435.197660979472
 30
0.0
 10
561.9213900808713
 20
1434.460581285403
 30
0.0
 10
563.7805720496992
 20
1433.11289248558
 30
0.0
 10
565.2562234490238
 20
1431.061250324474
 30
0.0
 10
565.8293355475582
 20
1429.060523407097
 30
0.0
 10
565.8605093955903
 20
1427.939470516289
 30
0.0
 10
565.8667979877753
 20
1427.713324406871
 30
0.0
  0
SPLINE
  5
6A
330
1F
100
AcDbEntity
  8
0
  6
Continuous
 62
     7
370
    15
100
AcDbSpline
210
0.0
220
0.0
230
1.0
 70
    11
 71
     3
 72
    28
 73
    24
 74
     0
 42
0.00000001
 43
0.00000001
 40
0.0
 40
0.0
 40
0.0
 40
0.0
 40
0.0475550657658079
 40
0.0949665065257897
 40
0.1460706098518265
 40
0.2034569307766782
 40
0.2467858496673156
 40
0.2901870279691625
 40
0.3330337410596264
 40
0.3834843055122654
 40
0.4410926755124987
 40
0.4950490670840572
 40
0.5415909083101237
 40
0.5869405700692065
 40
0.6370256309713086
 40
0.6937095880280041
 40
0.7381340756348571
 40
0.7826953416612933
 40
0.8249694451524999
 40
0.8737308902070319
 40
0.9306923105060828
 40
0.9860187122668987
 40
1.0
 40
1.0
 40
1.0
 40
1.0
 10
1178.866833273725
 20
1427.713324406871
 30
0.0
 10
1178.796875802871
 20
1426.940526732229
 30
0.0
 10
1178.657172145535
 20
1425.397265373419
 30
0.0
 10
1177.584227267405
 20
1423.311540305413
 30
0.0
 10
1175.92978849309
 20
1421.560327014742
 30
0.0
 10
1173.801772659006
 20
1420.446682435826
 30
0.0
 10
1171.476299970582
 20
1420.064243167051
 30
0.0
 10
1169.361538154059
 20
1420.322084451541
 30
0.0
 10
1167.366404963173
 20
1421.157983668637
 30
0.0
 10
1165.550285393445
 20
1422.629154722797
 30
0.0
 10
1164.179917003437
 20
1424.79890810942
 30
0.0
 10
1163.639618043942
 20
1427.34858819422
 30
0.0
 10
1163.928462491992
 20
1429.732548022307
 30
0.0
 10
1164.843857614154
 20
1431.810232537803
 30
0.0
 10
1166.384542845989
 20
1433.604928808837
 30
0.0
 10
1168.418862575753
 20
1434.82364748699
 30
0.0
 10
1170.727607216805
 20
1435.346453776944
 30
0.0
 10
1172.891193615739
 20
1435.197648580313
 30
0.0
 10
1174.921309048204
 20
1434.460581125798
 30
0.0
 10
1176.780474679302
 20
1433.112891978745
 30
0.0
 10
1178.256198112339
 20
1431.061252931471
 30
0.0
 10
1178.829107977217
 20
1429.060515177565
 30
0.0
 10
1178.860500524268
 20
1427.939470319854
 30
0.0
 10
1178.866833273725
 20
1427.713324406871
 30
0.0
  0
CIRCLE
  5
6B
330
1F
100
AcDbEntity
  8
0
  6
Continuous
 62
     7
370
    15
100
AcDbCircle
 10
1171.3168292683
 20
1427.7133259804
 30
0.0
 40
6.449999999999894
  0
CIRCLE
  5
6C
330
1F
100
AcDbEntity
  8
0
  6
Continuous
 62
     7
370
    15
100
AcDbCircle
 10
1171.3168292683
 20
1427.7133259804
 30
0.0
 40
7.449999999999996
  0
LINE
  5
6D
330
1F
100
AcDbEntity
  8
0
  6
Continuous
 62
     7
370
    15
100
AcDbLine
 10
1172.4090276402
 20
1430.3854788632
 30
0.0
 11
1169.5487199467
 21
1429.9952807815
 31
0.0
  0
LINE
  5
6E
330
1F
100
AcDbEntity
  8
0
  6
Continuous
 62
     7
370
    15
100
AcDbLine
 10
1168.4565244358
 20
1427.3231263251
 30
0.0
 11
1170.2246366185
 21
1425.0411699505
 31
0.0
  0
LINE
  5
6F
330
1F
100
AcDbEntity
  8
0
  6
Continuous
 62
     7
370
    15
100
AcDbLine
 10
1169.5487199467
 20
1429.9952807815
 30
0.0
 11
1168.4565244358
 21
1427.3231263251
 31
0.0
  0
LINE
  5
70
330
1F
100
AcDbEntity
  8
0
  6
Continuous
 62
     7
370
    15
100
AcDbLine
 10
1173.0848251026
 20
1425.4313680322
 30
0.0
 11
1174.1771398228
 21
1428.1035224886
 31
0.0
  0
LINE
  5
71
330
1F
100
AcDbEntity
  8
0
  6
Continuous
 62
     7
370
    15
100
AcDbLine
 10
1174.1771398228
 20
1428.1035224886
 30
0.0
 11
1172.4090276402
 21
1430.3854788632
 31
0.0
  0
LINE
  5
72
330
1F
100
AcDbEntity
  8
0
  6
Continuous
 62
     7
370
    15
100
AcDbLine
 10
1170.2246366185
 20
1425.0411699505
 30
0.0
 11
1173.0848251026
 21
1425.4313680322
 31
0.0
  0
CIRCLE
  5
73
330
1F
100
AcDbEntity
  8
0
  6
Continuous
 62
     7
370
    15
100
AcDbCircle
 10
-668.6831707317
 20
1427.7133259804
 30
0.0
 40
6.45000000000017
  0
CIRCLE
  5
74
330
1F
100
AcDbEntity
  8
0
  6
Continuous
 62
     7
370
    15
100
AcDbCircle
 10
-668.6831707317
 20
1427.7133259804
 30
0.0
 40
7.449999999999905
  0
LINE
  5
75
330
1F
100
AcDbEntity
  8
0
  6
Continuous
 62
     7
370
    15
100
AcDbLine
 10
-670.4512240249
 20
1429.9952807815
 30
0.0
 11
-671.543434437
 21
1427.3231263251
 31
0.0
  0
LINE
  5
76
330
1F
100
AcDbEntity
  8
0
  6
Continuous
 62
     7
370
    15
100
AcDbLine
 10
-671.543434437
 20
1427.3231263251
 30
0.0
 11
-669.775381859
 21
1425.0411699505
 31
0.0
  0
LINE
  5
77
330
1F
100
AcDbEntity
  8
0
  6
Continuous
 62
     7
370
    15
100
AcDbLine
 10
-669.775381859
 20
1425.0411699505
 30
0.0
 11
-666.915118869
 21
1425.4313680322
 31
0.0
  0
LINE
  5
78
330
1F
100
AcDbEntity
  8
0
  6
Continuous
 62
     7
370
    15
100
AcDbLine
 10
-666.915118869
 20
1425.4313680322
 30
0.0
 11
-665.822908457
 21
1428.1035224886
 31
0.0
  0
LINE
  5
79
330
1F
100
AcDbEntity
  8
0
  6
Continuous
 62
     7
370
    15
100
AcDbLine
 10
-667.5909610349
 20
1430.3854788632
 30
0.0
 11
-670.4512240249
 21
1429.9952807815
 31
0.0
  0
LINE
  5
7A
330
1F
100
AcDbEntity
  8
0
  6
Continuous
 62
     7
370
    15
100
AcDbLine
 10
-665.822908457
 20
1428.1035224886
 30
0.0
 11
-667.5909610349
 21
1430.3854788632
 31
0.0
  0
CIRCLE
  5
7B
330
1F
100
AcDbEntity
  8
0
  6
Continuous
 62
     7
370
    15
100
AcDbCircle
 10
-55.6831707317
 20
1427.7133259804
 30
0.0
 40
6.450000000000175
  0
CIRCLE
  5
7C
330
1F
100
AcDbEntity
  8
0
  6
Continuous
 62
     7
370
    15
100
AcDbCircle
 10
-55.6831707317
 20
1427.7133259804
 30
0.0
 40
7.450000000000158
  0
LINE
  5
7D
330
1F
100
AcDbEntity
  8
0
  6
Continuous
 62
     7
370
    15
100
AcDbLine
 10
-53.9151133854
 20
1425.4313680322
 30
0.0
 11
-52.8229178745
 21
1428.1035224886
 31
0.0
  0
LINE
  5
7E
330
1F
100
AcDbEntity
  8
0
  6
Continuous
 62
     7
370
    15
100
AcDbLine
 10
-52.8229178745
 20
1428.1035224886
 30
0.0
 11
-54.5909704525
 21
1430.3854788632
 31
0.0
  0
LINE
  5
7F
330
1F
100
AcDbEntity
  8
0
  6
Continuous
 62
     7
370
    15
100
AcDbLine
 10
-56.7753614742
 20
1425.0411699505
 30
0.0
 11
-53.9151133854
 21
1425.4313680322
 31
0.0
  0
LINE
  5
80
330
1F
100
AcDbEntity
  8
0
  6
Continuous
 62
     7
370
    15
100
AcDbLine
 10
-58.5434140522
 20
1427.3231263251
 30
0.0
 11
-56.7753614742
 21
1425.0411699505
 31
0.0
  0
LINE
  5
81
330
1F
100
AcDbEntity
  8
0
  6
Continuous
 62
     7
370
    15
100
AcDbLine
 10
-54.5909704525
 20
1430.3854788632
 30
0.0
 11
-57.4512185413
 21
1429.9952807815
 31
0.0
  0
LINE
  5
82
330
1F
100
AcDbEntity
  8
0
  6
Continuous
 62
     7
370
    15
100
AcDbLine
 10
-57.4512185413
 20
1429.9952807815
 30
0.0
 11
-58.5434140522
 21
1427.3231263251
 31
0.0
  0
CIRCLE
  5
83
330
1F
100
AcDbEntity
  8
0
  6
Continuous
 62
     7
370
    15
100
AcDbCircle
 10
558.3168292683
 20
1427.7133259804
 30
0.0
 40
6.449999999999804
  0
LINE
  5
84
330
1F
100
AcDbEntity
  8
0
  6
Continuous
 62
     7
370
    15
100
AcDbLine
 10
559.4089923542
 20
1430.3854788632
 30
0.0
 11
556.54880387
 21
1429.9952807815
 31
0.0
  0
LINE
  5
85
330
1F
100
AcDbEntity
  8
0
  6
Continuous
 62
     7
370
    15
100
AcDbLine
 10
556.54880387
 20
1429.9952807815
 30
0.0
 11
555.4566083592
 21
1427.3231263251
 31
0.0
  0
LINE
  5
86
330
1F
100
AcDbEntity
  8
0
  6
Continuous
 62
     7
370
    15
100
AcDbLine
 10
555.4566083592
 20
1427.3231263251
 30
0.0
 11
557.2246013325
 21
1425.0411699505
 31
0.0
  0
LINE
  5
87
330
1F
100
AcDbEntity
  8
0
  6
Continuous
 62
     7
370
    15
100
AcDbLine
 10
560.084909026
 20
1425.4313680322
 30
0.0
 11
561.1771045368
 21
1428.1035224886
 31
0.0
  0
LINE
  5
88
330
1F
100
AcDbEntity
  8
0
  6
Continuous
 62
     7
370
    15
100
AcDbLine
 10
561.1771045368
 20
1428.1035224886
 30
0.0
 11
559.4089923542
 21
1430.3854788632
 31
0.0
  0
LINE
  5
89
330
1F
100
AcDbEntity
  8
0
  6
Continuous
 62
     7
370
    15
100
AcDbLine
 10
557.2246013325
 20
1425.0411699505
 30
0.0
 11
560.084909026
 21
1425.4313680322
 31
0.0
  0
CIRCLE
  5
8A
330
1F
100
AcDbEntity
  8
0
  6
Continuous
 62
     7
370
    15
100
AcDbCircle
 10
558.3168292683
 20
1427.7133259804
 30
0.0
 40
7.449999999999905
  0
LINE
  5
8B
330
1F
100
AcDbEntity
  8
0
  6
Continuous
 62
     7
370
    15
100
AcDbLine
 10
-732.524976309
 20
1428.535242656
 30
0.0
 11
-734.3158723671
 21
1429.9933324547
 31
0.0
  0
LINE
  5
8C
330
1F
100
AcDbEntity
  8
0
  6
Continuous
 62
     7
370
    15
100
AcDbLine
 10
-732.524976309
 20
1428.535242656
 30
0.0
 11
-732.8922750313
 21
1426.2552346082
 31
0.0
  0
LINE
  5
8D
330
1F
100
AcDbEntity
  8
0
  6
Continuous
 62
     7
370
    15
100
AcDbLine
 10
-732.8922750313
 20
1426.2552346082
 30
0.0
 11
-735.0504698116
 21
1425.4333200843
 31
0.0
  0
LINE
  5
8E
330
1F
100
AcDbEntity
  8
0
  6
Continuous
 62
     7
370
    15
100
AcDbLine
 10
-736.8413584191
 20
1426.891409883
 30
0.0
 11
-735.0504698116
 21
1425.4333200843
 31
0.0
  0
LINE
  5
8F
330
1F
100
AcDbEntity
  8
0
  6
Continuous
 62
     7
370
    15
100
AcDbLine
 10
-736.4740671474
 20
1429.1714179309
 30
0.0
 11
-736.8413584191
 21
1426.891409883
 31
0.0
  0
LINE
  5
90
330
1F
100
AcDbEntity
  8
0
  6
Continuous
 62
     7
370
    15
100
AcDbLine
 10
-736.4740671474
 20
1429.1714179309
 30
0.0
 11
-734.3158723671
 21
1429.9933324547
 31
0.0
  0
LINE
  5
91
330
1F
100
AcDbEntity
  8
0
  6
Continuous
 62
     7
370
    15
100
AcDbLine
 10
1235.1585326832
 20
1426.891409883
 30
0.0
 11
1236.9495330494
 21
1425.4333200843
 31
0.0
  0
LINE
  5
92
330
1F
100
AcDbEntity
  8
0
  6
Continuous
 62
     7
370
    15
100
AcDbLine
 10
1239.4751010578
 20
1428.535242656
 30
0.0
 11
1239.1076980274
 21
1426.2552346082
 31
0.0
  0
LINE
  5
93
330
1F
100
AcDbEntity
  8
0
  6
Continuous
 62
     7
370
    15
100
AcDbLine
 10
1239.4751010578
 20
1428.535242656
 30
0.0
 11
1237.6841006916
 21
1429.9933324547
 31
0.0
  0
LINE
  5
94
330
1F
100
AcDbEntity
  8
0
  6
Continuous
 62
     7
370
    15
100
AcDbLine
 10
1235.5259357136
 20
1429.1714179309
 30
0.0
 11
1237.6841006916
 21
1429.9933324547
 31
0.0
  0
LINE
  5
95
330
1F
100
AcDbEntity
  8
0
  6
Continuous
 62
     7
370
    15
100
AcDbLine
 10
1235.5259357136
 20
1429.1714179309
 30
0.0
 11
1235.1585326832
 21
1426.891409883
 31
0.0
  0
LINE
  5
96
330
1F
100
AcDbEntity
  8
0
  6
Continuous
 62
     7
370
    15
100
AcDbLine
 10
1239.1076980274
 20
1426.2552346082
 30
0.0
 11
1236.9495330494
 21
1425.4333200843
 31
0.0
  0
CIRCLE
  5
97
330
1F
100
AcDbEntity
  8
0
  6
Continuous
 62
     7
370
    15
100
AcDbCircle
 10
1237.3168292683
 20
1427.7133259804
 30
0.0
 40
20.00000000000009
  0
CIRCLE
  5
98
330
1F
100
AcDbEntity
  8
0
  6
Continuous
 62
     7
370
    15
100
AcDbCircle
 10
-734.6831707317
 20
1427.7133259804
 30
0.0
 40
19.99999999999999
  0
ARC
  5
99
330
1F
100
AcDbEntity
  8
0
  6
Continuous
 62
     7
370
    15
100
AcDbCircle
 10
-55.6831707317
 20
1427.7133259804
 30
0.0
 40
24.0000000000001
100
AcDbArc
 50
31.3881664643
 51
148.6118335357
  0
ARC
  5
9A
330
1F
100
AcDbEntity
  8
0
  6
Continuous
 62
     7
370
    15
100
AcDbCircle
 10
-55.6831707317
 20
1427.7133259804
 30
0.0
 40
23.9999999999999
100
AcDbArc
 50
211.3881664643
 51
328.6118335357
  0
ARC
  5
9B
330
1F
100
AcDbEntity
  8
0
  6
Continuous
 62
     7
370
    15
100
AcDbCircle
 10
-55.6831707317
 20
1427.7133259804
 30
0.0
 40
24.9999999999999
100
AcDbArc
 50
210.0
 51
330.0
  0
ARC
  5
9C
330
1F
100
AcDbEntity
  8
0
  6
Continuous
 62
     7
370
    15
100
AcDbCircle
 10
-55.6831707317
 20
1427.7133259804
 30
0.0
 40
25.0000000000001
100
AcDbArc
 50
30.0
 51
150.0
  0
ARC
  5
9D
330
1F
100
AcDbEntity
  8
0
  6
Continuous
 62
     7
370
    15
100
AcDbCircle
 10
-668.6831707317
 20
1427.7133259804
 30
0.0
 40
24.00000000000006
100
AcDbArc
 50
31.3881664643
 51
108.8005444417
  0
ARC
  5
9E
330
1F
100
AcDbEntity
  8
0
  6
Continuous
 62
     7
370
    15
100
AcDbCircle
 10
-668.6831707317
 20
1427.7133259804
 30
0.0
 40
24.00000000000009
100
AcDbArc
 50
224.9005279607
 51
328.6118335357
  0
ARC
  5
9F
330
1F
100
AcDbEntity
  8
0
  6
Continuous
 62
     7
370
    15
100
AcDbCircle
 10
-668.6831707317
 20
1427.7133259804
 30
0.0
 40
25.00000000000003
100
AcDbArc
 50
227.1563569564
 51
330.0
  0
ARC
  5
A0
330
1F
100
AcDbEntity
  8
0
  6
Continuous
 62
     7
370
    15
100
AcDbCircle
 10
-668.6831707317
 20
1427.7133259804
 30
0.0
 40
24.99999999999999
100
AcDbArc
 50
30.0
 51
106.0973005297
  0
ARC
  5
A1
330
1F
100
AcDbEntity
  8
0
  6
Continuous
 62
     7
370
    15
100
AcDbCircle
 10
1171.3168292683
 20
1427.7133259804
 30
0.0
 40
24.00000000000012
100
AcDbArc
 50
31.3881664643
 51
148.6118335357
  0
ARC
  5
A2
330
1F
100
AcDbEntity
  8
0
  6
Continuous
 62
     7
370
    15
100
AcDbCircle
 10
1171.3168292683
 20
1427.7133259804
 30
0.0
 40
24.00000000000028
100
AcDbArc
 50
211.3881664643
 51
328.6118335357
  0
ARC
  5
A3
330
1F
100
AcDbEntity
  8
0
  6
Continuous
 62
     7
370
    15
100
AcDbCircle
 10
1171.3168292683
 20
1427.7133259804
 30
0.0
 40
25.0000000000002
100
AcDbArc
 50
210.0
 51
330.0
  0
ARC
  5
A4
330
1F
100
AcDbEntity
  8
0
  6
Continuous
 62
     7
370
    15
100
AcDbCircle
 10
1171.3168292683
 20
1427.7133259804
 30
0.0
 40
25.00000000000005
100
AcDbArc
 50
30.0
 51
150.0
  0
ARC
  5
A5
330
1F
100
AcDbEntity
  8
0
  6
Continuous
 62
     7
370
    15
100
AcDbCircle
 10
558.3168292683
 20
1427.7133259804
 30
0.0
 40
23.99999999999993
100
AcDbArc
 50
31.3881664643
 51
148.6118335357
  0
ARC
  5
A6
330
1F
100
AcDbEntity
  8
0
  6
Continuous
 62
     7
370
    15
100
AcDbCircle
 10
558.3168292683
 20
1427.7133259804
 30
0.0
 40
24.00000000000009
100
AcDbArc
 50
211.3881664643
 51
328.6118335357
  0
ARC
  5
A7
330
1F
100
AcDbEntity
  8
0
  6
Continuous
 62
     7
370
    15
100
AcDbCircle
 10
558.3168292683
 20
1427.7133259804
 30
0.0
 40
25.00000000000011
100
AcDbArc
 50
210.0
 51
330.0
  0
ARC
  5
A8
330
1F
100
AcDbEntity
  8
0
  6
Continuous
 62
     7
370
    15
100
AcDbCircle
 10
558.3168292683
 20
1427.7133259804
 30
0.0
 40
24.99999999999985
100
AcDbArc
 50
30.0
 51
150.0
  0
LINE
  5
A9
330
1F
100
AcDbEntity
  8
0
  6
Continuous
 62
     7
370
    15
100
AcDbLine
 10
-800.4831707368
 20
1440.2133273871
 30
0.0
 11
-800.4831707368
 21
1415.2133251519
 31
0.0
  0
LINE
  5
AA
330
1F
100
AcDbEntity
  8
0
  6
Continuous
 62
     7
370
    15
100
AcDbLine
 10
-798.8831707626
 20
1415.2133251519
 30
0.0
 11
-798.8831707626
 21
1440.2133273871
 31
0.0
  0
LINE
  5
AB
330
1F
100
AcDbEntity
  8
0
  6
Continuous
 62
     7
370
    15
100
AcDbLine
 10
-800.6831707317
 20
1415.4133266748
 30
0.0
 11
-800.6831707317
 21
1440.0133277268
 31
0.0
  0
LINE
  5
AC
330
1F
100
AcDbEntity
  8
0
  6
Continuous
 62
     7
370
    15
100
AcDbLine
 10
1301.5168605488
 20
1440.2133273871
 30
0.0
 11
1301.5168605488
 21
1415.2133251519
 31
0.0
  0
LINE
  5
AD
330
1F
100
AcDbEntity
  8
0
  6
Continuous
 62
     7
370
    15
100
AcDbLine
 10
1303.1168876332
 20
1415.2133251519
 30
0.0
 11
1303.1168876332
 21
1440.2133273871
 31
0.0
  0
LINE
  5
AE
330
1F
100
AcDbEntity
  8
0
  6
Continuous
 62
     7
370
    15
100
AcDbLine
 10
1303.316920821
 20
1440.0133277268
 30
0.0
 11
1303.316920821
 21
1415.4133266748
 31
0.0
  0
ARC
  5
AF
330
1F
100
AcDbEntity
  8
0
  6
Continuous
 62
     7
370
    15
100
AcDbCircle
 10
76.8168292683
 20
-653.1866740196
 30
0.0
 40
2.300000000000068
100
AcDbArc
 50
0.0
 51
90.0
  0
LINE
  5
B0
330
1F
100
AcDbEntity
  8
0
  6
Continuous
 62
     7
370
    15
100
AcDbLine
 10
76.8168268841
 20
-650.8865756004
 30
0.0
 11
76.8168268841
 21
-650.6867808311
 31
0.0
  0
ARC
  5
B1
330
1F
100
AcDbEntity
  8
0
  6
Continuous
 62
     7
370
    15
100
AcDbCircle
 10
76.8168292683
 20
-653.1866740196
 30
0.0
 40
2.500000000000057
100
AcDbArc
 50
0.0
 51
90.0
  0
LINE
  5
B2
330
1F
100
AcDbEntity
  8
0
  6
Continuous
 62
     7
370
    15
100
AcDbLine
 10
79.1168509167
 20
-653.186599633
 30
0.0
 11
79.3168244999
 21
-653.186599633
 31
0.0
  0
LINE
  5
B3
330
1F
100
AcDbEntity
  8
0
  6
Continuous
 62
     7
370
    15
100
AcDbLine
 10
79.1168509167
 20
-670.4867285697
 30
0.0
 11
79.1168509167
 21
-653.186599633
 31
0.0
  0
LINE
  5
B4
330
1F
100
AcDbEntity
  8
0
  6
Continuous
 62
     7
370
    15
100
AcDbLine
 10
79.3168244999
 20
-653.186599633
 30
0.0
 11
79.3168244999
 21
-670.4867285697
 31
0.0
  0
LINE
  5
B5
330
1F
100
AcDbEntity
  8
0
  6
Continuous
 62
     7
370
    15
100
AcDbLine
 10
79.3168244999
 20
-670.4867285697
 30
0.0
 11
79.1168509167
 21
-670.4867285697
 31
0.0
  0
LINE
  5
B6
330
1F
100
AcDbEntity
  8
0
  6
Continuous
 62
     7
370
    15
100
AcDbLine
 10
79.1168509167
 20
-670.6867617576
 30
0.0
 11
39.5168362301
 21
-670.6867617576
 31
0.0
  0
LINE
  5
B7
330
1F
100
AcDbEntity
  8
0
  6
Continuous
 62
     7
370
    15
100
AcDbLine
 10
39.5168362301
 20
-670.6867617576
 30
0.0
 11
39.5168362301
 21
-670.4867285697
 31
0.0
  0
LINE
  5
B8
330
1F
100
AcDbEntity
  8
0
  6
Continuous
 62
     7
370
    15
100
AcDbLine
 10
39.5168362301
 20
-670.4867285697
 30
0.0
 11
79.1168509167
 21
-670.4867285697
 31
0.0
  0
LINE
  5
B9
330
1F
100
AcDbEntity
  8
0
  6
Continuous
 62
     7
370
    15
100
AcDbLine
 10
79.1168509167
 20
-670.6867617576
 30
0.0
 11
79.1168509167
 21
-670.4867285697
 31
0.0
  0
LINE
  5
BA
330
1F
100
AcDbEntity
  8
0
  6
Continuous
 62
     7
370
    15
100
AcDbLine
 10
39.5168362301
 20
-653.186599633
 30
0.0
 11
39.5168362301
 21
-670.4867285697
 31
0.0
  0
LINE
  5
BB
330
1F
100
AcDbEntity
  8
0
  6
Continuous
 62
     7
370
    15
100
AcDbLine
 10
39.3168030422
 20
-670.4867285697
 30
0.0
 11
39.5168362301
 21
-670.4867285697
 31
0.0
  0
LINE
  5
BC
330
1F
100
AcDbEntity
  8
0
  6
Continuous
 62
     7
370
    15
100
AcDbLine
 10
39.3168030422
 20
-670.4867285697
 30
0.0
 11
39.3168030422
 21
-653.186599633
 31
0.0
  0
LINE
  5
BD
330
1F
100
AcDbEntity
  8
0
  6
Continuous
 62
     7
370
    15
100
AcDbLine
 10
39.5168362301
 20
-653.186599633
 30
0.0
 11
39.3168030422
 21
-653.186599633
 31
0.0
  0
LINE
  5
BE
330
1F
100
AcDbEntity
  8
0
  6
Continuous
 62
     7
370
    15
100
AcDbLine
 10
39.3168030422
 20
-670.4867285697
 30
0.0
 11
39.5168362301
 21
-670.6867617576
 31
0.0
  0
ARC
  5
BF
330
1F
100
AcDbEntity
  8
0
  6
Continuous
 62
     7
370
    15
100
AcDbCircle
 10
41.8168292683
 20
-653.1866740196
 30
0.0
 40
2.300000000000075
100
AcDbArc
 50
90.0
 51
180.0
  0
ARC
  5
C0
330
1F
100
AcDbEntity
  8
0
  6
Continuous
 62
     7
370
    15
100
AcDbCircle
 10
41.8168292683
 20
-653.1866740196
 30
0.0
 40
2.500000000000057
100
AcDbArc
 50
90.0
 51
180.0
  0
LINE
  5
C1
330
1F
100
AcDbEntity
  8
0
  6
Continuous
 62
     7
370
    15
100
AcDbLine
 10
41.8168006581
 20
-650.8865756004
 30
0.0
 11
41.8168006581
 21
-650.6867808311
 31
0.0
  0
LINE
  5
C2
330
1F
100
AcDbEntity
  8
0
  6
Continuous
 62
     7
370
    15
100
AcDbLine
 10
76.8168268841
 20
-650.8865756004
 30
0.0
 11
41.8168006581
 21
-650.8865756004
 31
0.0
  0
LINE
  5
C3
330
1F
100
AcDbEntity
  8
0
  6
Continuous
 62
     7
370
    15
100
AcDbLine
 10
41.8168006581
 20
-650.6867808311
 30
0.0
 11
76.8168268841
 21
-650.6867808311
 31
0.0
  0
LINE
  5
C4
330
1F
100
AcDbEntity
  8
0
  6
Continuous
 62
     7
370
    15
100
AcDbLine
 10
79.1168509167
 20
-670.6867617576
 30
0.0
 11
79.3168244999
 21
-670.4867285697
 31
0.0
  0
LINE
  5
C5
330
1F
100
AcDbEntity
  8
0
  6
Continuous
 62
     7
370
    15
100
AcDbLine
 10
1.8267331761
 20
1278.7626507671
 30
0.0
 11
1.82691199
 21
1275.8643525632
 31
0.0
  0
LINE
  5
C6
330
1F
100
AcDbEntity
  8
0
  6
Continuous
 62
     7
370
    15
100
AcDbLine
 10
-3.1932892162
 20
1278.7623005898
 30
0.0
 11
-0.6833972294
 21
1280.2116247804
 31
0.0
  0
LINE
  5
C7
330
1F
100
AcDbEntity
  8
0
  6
Continuous
 62
     7
370
    15
100
AcDbLine
 10
-0.6829799968
 20
1274.4150283725
 30
0.0
 11
-3.1930507976
 21
1275.8640023859
 31
0.0
  0
CIRCLE
  5
C8
330
1F
100
AcDbEntity
  8
0
  6
Continuous
 62
     7
370
    15
100
AcDbCircle
 10
-0.6831707317
 20
1277.3133259804
 30
0.0
 40
7.784999999999989
  0
LINE
  5
C9
330
1F
100
AcDbEntity
  8
0
  6
Continuous
 62
     7
370
    15
100
AcDbLine
 10
1.82691199
 20
1275.8643525632
 30
0.0
 11
-0.6829799968
 21
1274.4150283725
 31
0.0
  0
LINE
  5
CA
330
1F
100
AcDbEntity
  8
0
  6
Continuous
 62
     7
370
    15
100
AcDbLine
 10
-3.1930507976
 20
1275.8640023859
 30
0.0
 11
-3.1932892162
 21
1278.7623005898
 31
0.0
  0
LINE
  5
CB
330
1F
100
AcDbEntity
  8
0
  6
Continuous
 62
     7
370
    15
100
AcDbLine
 10
-0.6833972294
 20
1280.2116247804
 30
0.0
 11
1.8267331761
 21
1278.7626507671
 31
0.0
  0
ARC
  5
CC
330
1F
100
AcDbEntity
  8
0
  6
Continuous
 62
     7
370
    15
100
AcDbCircle
 10
-0.6831707317
 20
1277.3133259804
 30
0.0
 40
2.510000000000091
100
AcDbArc
 50
300.0040336572
 51
0.0040336572
  0
ARC
  5
CD
330
1F
100
AcDbEntity
  8
0
  6
Continuous
 62
     7
370
    15
100
AcDbCircle
 10
-0.6831707317
 20
1277.3133259804
 30
0.0
 40
2.510000000000091
100
AcDbArc
 50
240.0040336572
 51
300.0040336572
  0
ARC
  5
CE
330
1F
100
AcDbEntity
  8
0
  6
Continuous
 62
     7
370
    15
100
AcDbCircle
 10
-0.6831707317
 20
1277.3133259804
 30
0.0
 40
2.510000000000071
100
AcDbArc
 50
180.0040336572
 51
240.0040336572
  0
ARC
  5
CF
330
1F
100
AcDbEntity
  8
0
  6
Continuous
 62
     7
370
    15
100
AcDbCircle
 10
-0.6831707317
 20
1277.3133259804
 30
0.0
 40
2.510000000000091
100
AcDbArc
 50
120.0040336572
 51
180.0040336572
  0
ARC
  5
D0
330
1F
100
AcDbEntity
  8
0
  6
Continuous
 62
     7
370
    15
100
AcDbCircle
 10
-0.6831707317
 20
1277.3133259804
 30
0.0
 40
2.510000000000091
100
AcDbArc
 50
60.0040336572
 51
120.0040336572
  0
ARC
  5
D1
330
1F
100
AcDbEntity
  8
0
  6
Continuous
 62
     7
370
    15
100
AcDbCircle
 10
-0.6831707317
 20
1277.3133259804
 30
0.0
 40
2.510000000000071
100
AcDbArc
 50
0.0040336572
 51
60.0040336572
  0
LINE
  5
D2
330
1F
100
AcDbEntity
  8
0
  6
Continuous
 62
     7
370
    15
100
AcDbLine
 10
0.1231132191
 20
1335.0972245426
 30
0.0
 11
2.1308956784
 21
1333.007038662
 31
0.0
  0
LINE
  5
D3
330
1F
100
AcDbEntity
  8
0
  6
Continuous
 62
     7
370
    15
100
AcDbLine
 10
-3.4972132999
 20
1331.6196138949
 30
0.0
 11
-2.69094127
 21
1334.4035121591
 31
0.0
  0
LINE
  5
D4
330
1F
100
AcDbEntity
  8
0
  6
Continuous
 62
     7
370
    15
100
AcDbLine
 10
2.1308956784
 20
1333.007038662
 30
0.0
 11
1.3246236485
 21
1330.2231403978
 31
0.0
  0
LINE
  5
D5
330
1F
100
AcDbEntity
  8
0
  6
Continuous
 62
     7
370
    15
100
AcDbLine
 10
-2.69094127
 20
1334.4035121591
 30
0.0
 11
0.1231132191
 21
1335.0972245426
 31
0.0
  0
LINE
  5
D6
330
1F
100
AcDbEntity
  8
0
  6
Continuous
 62
     7
370
    15
100
AcDbLine
 10
-1.4894308407
 20
1329.5294280143
 30
0.0
 11
-3.4972132999
 21
1331.6196138949
 31
0.0
  0
CIRCLE
  5
D7
330
1F
100
AcDbEntity
  8
0
  6
Continuous
 62
     7
370
    15
100
AcDbCircle
 10
-0.6831707317
 20
1332.3133259804
 30
0.0
 40
7.784999999999936
  0
LINE
  5
D8
330
1F
100
AcDbEntity
  8
0
  6
Continuous
 62
     7
370
    15
100
AcDbLine
 10
1.3246236485
 20
1330.2231403978
 30
0.0
 11
-1.4894308407
 21
1329.5294280143
 31
0.0
  0
ARC
  5
D9
330
1F
100
AcDbEntity
  8
0
  6
Continuous
 62
     7
370
    15
100
AcDbCircle
 10
-0.6831707317
 20
1332.3133259804
 30
0.0
 40
2.509999999999919
100
AcDbArc
 50
283.8482527894
 51
343.8482527894
  0
ARC
  5
DA
330
1F
100
AcDbEntity
  8
0
  6
Continuous
 62
     7
370
    15
100
AcDbCircle
 10
-0.6831707317
 20
1332.3133259804
 30
0.0
 40
2.509999999999957
100
AcDbArc
 50
223.8482527894
 51
283.8482527894
  0
ARC
  5
DB
330
1F
100
AcDbEntity
  8
0
  6
Continuous
 62
     7
370
    15
100
AcDbCircle
 10
-0.6831707317
 20
1332.3133259804
 30
0.0
 40
2.509999999999982
100
AcDbArc
 50
163.8482527894
 51
223.8482527894
  0
ARC
  5
DC
330
1F
100
AcDbEntity
  8
0
  6
Continuous
 62
     7
370
    15
100
AcDbCircle
 10
-0.6831707317
 20
1332.3133259804
 30
0.0
 40
2.510000000000029
100
AcDbArc
 50
103.8482527894
 51
163.8482527894
  0
ARC
  5
DD
330
1F
100
AcDbEntity
  8
0
  6
Continuous
 62
     7
370
    15
100
AcDbCircle
 10
-0.6831707317
 20
1332.3133259804
 30
0.0
 40
2.510000000000114
100
AcDbArc
 50
43.8482527894
 51
103.8482527894
  0
ARC
  5
DE
330
1F
100
AcDbEntity
  8
0
  6
Continuous
 62
     7
370
    15
100
AcDbCircle
 10
-0.6831707317
 20
1332.3133259804
 30
0.0
 40
2.510000000000114
100
AcDbArc
 50
343.8482527894
 51
43.8482527894
  0
LINE
  5
DF
330
1F
100
AcDbEntity
  8
0
  6
Continuous
 62
     7
370
    15
100
AcDbLine
 10
-698.6753718812
 20
1330.2231403978
 30
0.0
 11
-701.4894263703
 21
1329.5294280143
 31
0.0
  0
LINE
  5
E0
330
1F
100
AcDbEntity
  8
0
  6
Continuous
 62
     7
370
    15
100
AcDbLine
 10
-702.690966602
 20
1334.4035121591
 30
0.0
 11
-699.8769121129
 21
1335.0972245426
 31
0.0
  0
LINE
  5
E1
330
1F
100
AcDbEntity
  8
0
  6
Continuous
 62
     7
370
    15
100
AcDbLine
 10
-703.4972237307
 20
1331.6196138949
 30
0.0
 11
-702.690966602
 21
1334.4035121591
 31
0.0
  0
LINE
  5
E2
330
1F
100
AcDbEntity
  8
0
  6
Continuous
 62
     7
370
    15
100
AcDbLine
 10
-701.4894263703
 20
1329.5294280143
 30
0.0
 11
-703.4972237307
 21
1331.6196138949
 31
0.0
  0
LINE
  5
E3
330
1F
100
AcDbEntity
  8
0
  6
Continuous
 62
     7
370
    15
100
AcDbLine
 10
-697.8691147525
 20
1333.007038662
 30
0.0
 11
-698.6753718812
 21
1330.2231403978
 31
0.0
  0
CIRCLE
  5
E4
330
1F
100
AcDbEntity
  8
0
  6
Continuous
 62
     7
370
    15
100
AcDbCircle
 10
-700.6831707317
 20
1332.3133259804
 30
0.0
 40
7.784999999999961
  0
LINE
  5
E5
330
1F
100
AcDbEntity
  8
0
  6
Continuous
 62
     7
370
    15
100
AcDbLine
 10
-699.8769121129
 20
1335.0972245426
 30
0.0
 11
-697.8691147525
 21
1333.007038662
 31
0.0
  0
ARC
  5
E6
330
1F
100
AcDbEntity
  8
0
  6
Continuous
 62
     7
370
    15
100
AcDbCircle
 10
-700.6831707317
 20
1332.3133259804
 30
0.0
 40
2.509999999999942
100
AcDbArc
 50
223.8482527894
 51
283.8482527894
  0
ARC
  5
E7
330
1F
100
AcDbEntity
  8
0
  6
Continuous
 62
     7
370
    15
100
AcDbCircle
 10
-700.6831707317
 20
1332.3133259804
 30
0.0
 40
2.510000000000181
100
AcDbArc
 50
343.8482527894
 51
43.8482527894
  0
ARC
  5
E8
330
1F
100
AcDbEntity
  8
0
  6
Continuous
 62
     7
370
    15
100
AcDbCircle
 10
-700.6831707317
 20
1332.3133259804
 30
0.0
 40
2.510000000000002
100
AcDbArc
 50
283.8482527894
 51
343.8482527894
  0
ARC
  5
E9
330
1F
100
AcDbEntity
  8
0
  6
Continuous
 62
     7
370
    15
100
AcDbCircle
 10
-700.6831707317
 20
1332.3133259804
 30
0.0
 40
2.509999999999956
100
AcDbArc
 50
163.8482527894
 51
223.8482527894
  0
ARC
  5
EA
330
1F
100
AcDbEntity
  8
0
  6
Continuous
 62
     7
370
    15
100
AcDbCircle
 10
-700.6831707317
 20
1332.3133259804
 30
0.0
 40
2.510000000000027
100
AcDbArc
 50
103.8482527894
 51
163.8482527894
  0
ARC
  5
EB
330
1F
100
AcDbEntity
  8
0
  6
Continuous
 62
     7
370
    15
100
AcDbCircle
 10
-700.6831707317
 20
1332.3133259804
 30
0.0
 40
2.510000000000181
100
AcDbArc
 50
43.8482527894
 51
103.8482527894
  0
LINE
  5
EC
330
1F
100
AcDbEntity
  8
0
  6
Continuous
 62
     7
370
    15
100
AcDbLine
 10
-703.193068679
 20
1275.8640023859
 30
0.0
 11
-703.1932698447
 21
1278.7623005898
 31
0.0
  0
LINE
  5
ED
330
1F
100
AcDbEntity
  8
0
  6
Continuous
 62
     7
370
    15
100
AcDbLine
 10
-700.6829680759
 20
1274.4150283725
 30
0.0
 11
-703.193068679
 21
1275.8640023859
 31
0.0
  0
CIRCLE
  5
EE
330
1F
100
AcDbEntity
  8
0
  6
Continuous
 62
     7
370
    15
100
AcDbCircle
 10
-700.6831707317
 20
1277.3133259804
 30
0.0
 40
7.784999999999948
  0
LINE
  5
EF
330
1F
100
AcDbEntity
  8
0
  6
Continuous
 62
     7
370
    15
100
AcDbLine
 10
-703.1932698447
 20
1278.7623005898
 30
0.0
 11
-700.6833778578
 21
1280.2116247804
 31
0.0
  0
LINE
  5
F0
330
1F
100
AcDbEntity
  8
0
  6
Continuous
 62
     7
370
    15
100
AcDbLine
 10
-700.6833778578
 20
1280.2116247804
 30
0.0
 11
-698.1732698042
 21
1278.7626507671
 31
0.0
  0
LINE
  5
F1
330
1F
100
AcDbEntity
  8
0
  6
Continuous
 62
     7
370
    15
100
AcDbLine
 10
-698.1732698042
 20
1278.7626507671
 30
0.0
 11
-698.1730686385
 21
1275.8643525632
 31
0.0
  0
LINE
  5
F2
330
1F
100
AcDbEntity
  8
0
  6
Continuous
 62
     7
370
    15
100
AcDbLine
 10
-698.1730686385
 20
1275.8643525632
 30
0.0
 11
-700.6829680759
 21
1274.4150283725
 31
0.0
  0
ARC
  5
F3
330
1F
100
AcDbEntity
  8
0
  6
Continuous
 62
     7
370
    15
100
AcDbCircle
 10
-700.6831707317
 20
1277.3133259804
 30
0.0
 40
2.510000000000043
100
AcDbArc
 50
300.0040336572
 51
0.0040336572
  0
ARC
  5
F4
330
1F
100
AcDbEntity
  8
0
  6
Continuous
 62
     7
370
    15
100
AcDbCircle
 10
-700.6831707317
 20
1277.3133259804
 30
0.0
 40
2.510000000000039
100
AcDbArc
 50
240.0040336572
 51
300.0040336572
  0
ARC
  5
F5
330
1F
100
AcDbEntity
  8
0
  6
Continuous
 62
     7
370
    15
100
AcDbCircle
 10
-700.6831707317
 20
1277.3133259804
 30
0.0
 40
2.510000000000039
100
AcDbArc
 50
180.0040336572
 51
240.0040336572
  0
ARC
  5
F6
330
1F
100
AcDbEntity
  8
0
  6
Continuous
 62
     7
370
    15
100
AcDbCircle
 10
-700.6831707317
 20
1277.3133259804
 30
0.0
 40
2.510000000000248
100
AcDbArc
 50
120.0040336572
 51
180.0040336572
  0
ARC
  5
F7
330
1F
100
AcDbEntity
  8
0
  6
Continuous
 62
     7
370
    15
100
AcDbCircle
 10
-700.6831707317
 20
1277.3133259804
 30
0.0
 40
2.510000000000248
100
AcDbArc
 50
60.0040336572
 51
120.0040336572
  0
ARC
  5
F8
330
1F
100
AcDbEntity
  8
0
  6
Continuous
 62
     7
370
    15
100
AcDbCircle
 10
-700.6831707317
 20
1277.3133259804
 30
0.0
 40
2.510000000000096
100
AcDbArc
 50
0.0040336572
 51
60.0040336572
  0
LINE
  5
F9
330
1F
100
AcDbEntity
  8
0
  6
Continuous
 62
     7
370
    15
100
AcDbLine
 10
-3.1932892162
 20
1407.7622975202
 30
0.0
 11
-0.6833972294
 21
1409.2116235734
 31
0.0
  0
LINE
  5
FA
330
1F
100
AcDbEntity
  8
0
  6
Continuous
 62
     7
370
    15
100
AcDbLine
 10
-3.1930507976
 20
1404.8639993162
 30
0.0
 11
-3.1932892162
 21
1407.7622975202
 31
0.0
  0
LINE
  5
FB
330
1F
100
AcDbEntity
  8
0
  6
Continuous
 62
     7
370
    15
100
AcDbLine
 10
-0.6829799968
 20
1403.4150271655
 30
0.0
 11
-3.1930507976
 21
1404.8639993162
 31
0.0
  0
CIRCLE
  5
FC
330
1F
100
AcDbEntity
  8
0
  6
Continuous
 62
     7
370
    15
100
AcDbCircle
 10
-0.6831707317
 20
1406.3133259804
 30
0.0
 40
7.784999999999989
  0
LINE
  5
FD
330
1F
100
AcDbEntity
  8
0
  6
Continuous
 62
     7
370
    15
100
AcDbLine
 10
-0.6833972294
 20
1409.2116235734
 30
0.0
 11
1.8267331761
 21
1407.7626514227
 31
0.0
  0
LINE
  5
FE
330
1F
100
AcDbEntity
  8
0
  6
Continuous
 62
     7
370
    15
100
AcDbLine
 10
1.82691199
 20
1404.8643532188
 30
0.0
 11
-0.6829799968
 21
1403.4150271655
 31
0.0
  0
LINE
  5
FF
330
1F
100
AcDbEntity
  8
0
  6
Continuous
 62
     7
370
    15
100
AcDbLine
 10
1.8267331761
 20
1407.7626514227
 30
0.0
 11
1.82691199
 21
1404.8643532188
 31
0.0
  0
ARC
  5
100
330
1F
100
AcDbEntity
  8
0
  6
Continuous
 62
     7
370
    15
100
AcDbCircle
 10
-0.6831707317
 20
1406.3133259804
 30
0.0
 40
2.510000000000091
100
AcDbArc
 50
300.0040336572
 51
0.0040336572
  0
ARC
  5
101
330
1F
100
AcDbEntity
  8
0
  6
Continuous
 62
     7
370
    15
100
AcDbCircle
 10
-0.6831707317
 20
1406.3133259804
 30
0.0
 40
2.510000000000091
100
AcDbArc
 50
240.0040336572
 51
300.0040336572
  0
ARC
  5
102
330
1F
100
AcDbEntity
  8
0
  6
Continuous
 62
     7
370
    15
100
AcDbCircle
 10
-0.6831707317
 20
1406.3133259804
 30
0.0
 40
2.510000000000071
100
AcDbArc
 50
180.0040336572
 51
240.0040336572
  0
ARC
  5
103
330
1F
100
AcDbEntity
  8
0
  6
Continuous
 62
     7
370
    15
100
AcDbCircle
 10
-0.6831707317
 20
1406.3133259804
 30
0.0
 40
2.509999999999963
100
AcDbArc
 50
120.0040336572
 51
180.0040336572
  0
ARC
  5
104
330
1F
100
AcDbEntity
  8
0
  6
Continuous
 62
     7
370
    15
100
AcDbCircle
 10
-0.6831707317
 20
1406.3133259804
 30
0.0
 40
2.509999999999894
100
AcDbArc
 50
60.0040336572
 51
120.0040336572
  0
ARC
  5
105
330
1F
100
AcDbEntity
  8
0
  6
Continuous
 62
     7
370
    15
100
AcDbCircle
 10
-0.6831707317
 20
1406.3133259804
 30
0.0
 40
2.509999999999963
100
AcDbArc
 50
0.0040336572
 51
60.0040336572
  0
LINE
  5
106
330
1F
100
AcDbEntity
  8
0
  6
Continuous
 62
     7
370
    15
100
AcDbLine
 10
-1.5618504841
 20
1469.0752151401
 30
0.0
 11
1.2693701428
 21
1468.4552448781
 31
0.0
  0
LINE
  5
107
330
1F
100
AcDbEntity
  8
0
  6
Continuous
 62
     7
370
    15
100
AcDbLine
 10
-3.5143794376
 20
1466.9332924278
 30
0.0
 11
-1.5618504841
 21
1469.0752151401
 31
0.0
  0
LINE
  5
108
330
1F
100
AcDbEntity
  8
0
  6
Continuous
 62
     7
370
    15
100
AcDbLine
 10
-2.6356877643
 20
1464.171406904
 30
0.0
 11
-3.5143794376
 21
1466.9332924278
 31
0.0
  0
LINE
  5
109
330
1F
100
AcDbEntity
  8
0
  6
Continuous
 62
     7
370
    15
100
AcDbLine
 10
0.1955328625
 20
1463.5514366419
 30
0.0
 11
-2.6356877643
 21
1464.171406904
 31
0.0
  0
LINE
  5
10A
330
1F
100
AcDbEntity
  8
0
  6
Continuous
 62
     7
370
    15
100
AcDbLine
 10
2.1480618161
 20
1465.6933593543
 30
0.0
 11
0.1955328625
 21
1463.5514366419
 31
0.0
  0
LINE
  5
10B
330
1F
100
AcDbEntity
  8
0
  6
Continuous
 62
     7
370
    15
100
AcDbLine
 10
1.2693701428
 20
1468.4552448781
 30
0.0
 11
2.1480618161
 21
1465.6933593543
 31
0.0
  0
CIRCLE
  5
10C
330
1F
100
AcDbEntity
  8
0
  6
Continuous
 62
     7
370
    15
100
AcDbCircle
 10
-0.6831707317
 20
1466.3133259804
 30
0.0
 40
7.784999999999838
  0
ARC
  5
10D
330
1F
100
AcDbEntity
  8
0
  6
Continuous
 62
     7
370
    15
100
AcDbCircle
 10
-0.6831707317
 20
1466.3133259804
 30
0.0
 40
2.509999999999995
100
AcDbArc
 50
137.6486180877
 51
197.6486180877
  0
ARC
  5
10E
330
1F
100
AcDbEntity
  8
0
  6
Continuous
 62
     7
370
    15
100
AcDbCircle
 10
-0.6831707317
 20
1466.3133259804
 30
0.0
 40
2.510000000000057
100
AcDbArc
 50
197.6486180877
 51
257.6486180877
  0
ARC
  5
10F
330
1F
100
AcDbEntity
  8
0
  6
Continuous
 62
     7
370
    15
100
AcDbCircle
 10
-0.6831707317
 20
1466.3133259804
 30
0.0
 40
2.509999999999995
100
AcDbArc
 50
317.6486180877
 51
17.6486180877
  0
ARC
  5
110
330
1F
100
AcDbEntity
  8
0
  6
Continuous
 62
     7
370
    15
100
AcDbCircle
 10
-0.6831707317
 20
1466.3133259804
 30
0.0
 40
2.509999999999995
100
AcDbArc
 50
77.6486180877
 51
137.6486180877
  0
ARC
  5
111
330
1F
100
AcDbEntity
  8
0
  6
Continuous
 62
     7
370
    15
100
AcDbCircle
 10
-0.6831707317
 20
1466.3133259804
 30
0.0
 40
2.509999999999911
100
AcDbArc
 50
17.6486180877
 51
77.6486180877
  0
ARC
  5
112
330
1F
100
AcDbEntity
  8
0
  6
Continuous
 62
     7
370
    15
100
AcDbCircle
 10
-0.6831707317
 20
1466.3133259804
 30
0.0
 40
2.510000000000057
100
AcDbArc
 50
257.6486180877
 51
317.6486180877
  0
LINE
  5
113
330
1F
100
AcDbEntity
  8
0
  6
Continuous
 62
     7
370
    15
100
AcDbLine
 10
-701.561875816
 20
1469.0752151401
 30
0.0
 11
-698.7306551892
 21
1468.4552448781
 31
0.0
  0
LINE
  5
114
330
1F
100
AcDbEntity
  8
0
  6
Continuous
 62
     7
370
    15
100
AcDbLine
 10
-702.635683294
 20
1464.171406904
 30
0.0
 11
-703.5143824178
 21
1466.9332924278
 31
0.0
  0
LINE
  5
115
330
1F
100
AcDbEntity
  8
0
  6
Continuous
 62
     7
370
    15
100
AcDbLine
 10
-697.8519560653
 20
1465.6933593543
 30
0.0
 11
-699.8044701177
 21
1463.5514366419
 31
0.0
  0
LINE
  5
116
330
1F
100
AcDbEntity
  8
0
  6
Continuous
 62
     7
370
    15
100
AcDbLine
 10
-698.7306551892
 20
1468.4552448781
 30
0.0
 11
-697.8519560653
 21
1465.6933593543
 31
0.0
  0
CIRCLE
  5
117
330
1F
100
AcDbEntity
  8
0
  6
Continuous
 62
     7
370
    15
100
AcDbCircle
 10
-700.6831707317
 20
1466.3133259804
 30
0.0
 40
7.784999999999831
  0
LINE
  5
118
330
1F
100
AcDbEntity
  8
0
  6
Continuous
 62
     7
370
    15
100
AcDbLine
 10
-699.8044701177
 20
1463.5514366419
 30
0.0
 11
-702.635683294
 21
1464.171406904
 31
0.0
  0
LINE
  5
119
330
1F
100
AcDbEntity
  8
0
  6
Continuous
 62
     7
370
    15
100
AcDbLine
 10
-703.5143824178
 20
1466.9332924278
 30
0.0
 11
-701.561875816
 21
1469.0752151401
 31
0.0
  0
ARC
  5
11A
330
1F
100
AcDbEntity
  8
0
  6
Continuous
 62
     7
370
    15
100
AcDbCircle
 10
-700.6831707317
 20
1466.3133259804
 30
0.0
 40
2.510000000000108
100
AcDbArc
 50
317.6486180877
 51
17.6486180877
  0
ARC
  5
11B
330
1F
100
AcDbEntity
  8
0
  6
Continuous
 62
     7
370
    15
100
AcDbCircle
 10
-700.6831707317
 20
1466.3133259804
 30
0.0
 40
2.510000000000036
100
AcDbArc
 50
17.6486180877
 51
77.6486180877
  0
ARC
  5
11C
330
1F
100
AcDbEntity
  8
0
  6
Continuous
 62
     7
370
    15
100
AcDbCircle
 10
-700.6831707317
 20
1466.3133259804
 30
0.0
 40
2.510000000000024
100
AcDbArc
 50
77.6486180877
 51
137.6486180877
  0
ARC
  5
11D
330
1F
100
AcDbEntity
  8
0
  6
Continuous
 62
     7
370
    15
100
AcDbCircle
 10
-700.6831707317
 20
1466.3133259804
 30
0.0
 40
2.510000000000053
100
AcDbArc
 50
197.6486180877
 51
257.6486180877
  0
ARC
  5
11E
330
1F
100
AcDbEntity
  8
0
  6
Continuous
 62
     7
370
    15
100
AcDbCircle
 10
-700.6831707317
 20
1466.3133259804
 30
0.0
 40
2.510000000000108
100
AcDbArc
 50
257.6486180877
 51
317.6486180877
  0
ARC
  5
11F
330
1F
100
AcDbEntity
  8
0
  6
Continuous
 62
     7
370
    15
100
AcDbCircle
 10
-700.6831707317
 20
1466.3133259804
 30
0.0
 40
2.510000000000024
100
AcDbArc
 50
137.6486180877
 51
197.6486180877
  0
LINE
  5
120
330
1F
100
AcDbEntity
  8
0
  6
Continuous
 62
     7
370
    15
100
AcDbLine
 10
-700.6829680759
 20
1403.4150271655
 30
0.0
 11
-703.193068679
 21
1404.8639993162
 31
0.0
  0
LINE
  5
121
330
1F
100
AcDbEntity
  8
0
  6
Continuous
 62
     7
370
    15
100
AcDbLine
 10
-698.1730686385
 20
1404.8643532188
 30
0.0
 11
-700.6829680759
 21
1403.4150271655
 31
0.0
  0
LINE
  5
122
330
1F
100
AcDbEntity
  8
0
  6
Continuous
 62
     7
370
    15
100
AcDbLine
 10
-703.1932698447
 20
1407.7622975202
 30
0.0
 11
-700.6833778578
 21
1409.2116235734
 31
0.0
  0
LINE
  5
123
330
1F
100
AcDbEntity
  8
0
  6
Continuous
 62
     7
370
    15
100
AcDbLine
 10
-698.1732698042
 20
1407.7626514227
 30
0.0
 11
-698.1730686385
 21
1404.8643532188
 31
0.0
  0
LINE
  5
124
330
1F
100
AcDbEntity
  8
0
  6
Continuous
 62
     7
370
    15
100
AcDbLine
 10
-703.193068679
 20
1404.8639993162
 30
0.0
 11
-703.1932698447
 21
1407.7622975202
 31
0.0
  0
LINE
  5
125
330
1F
100
AcDbEntity
  8
0
  6
Continuous
 62
     7
370
    15
100
AcDbLine
 10
-700.6833778578
 20
1409.2116235734
 30
0.0
 11
-698.1732698042
 21
1407.7626514227
 31
0.0
  0
CIRCLE
  5
126
330
1F
100
AcDbEntity
  8
0
  6
Continuous
 62
     7
370
    15
100
AcDbCircle
 10
-700.6831707317
 20
1406.3133259804
 30
0.0
 40
7.784999999999947
  0
ARC
  5
127
330
1F
100
AcDbEntity
  8
0
  6
Continuous
 62
     7
370
    15
100
AcDbCircle
 10
-700.6831707317
 20
1406.3133259804
 30
0.0
 40
2.50999999999993
100
AcDbArc
 50
0.0040336572
 51
60.0040336572
  0
ARC
  5
128
330
1F
100
AcDbEntity
  8
0
  6
Continuous
 62
     7
370
    15
100
AcDbCircle
 10
-700.6831707317
 20
1406.3133259804
 30
0.0
 40
2.50999999999993
100
AcDbArc
 50
120.0040336572
 51
180.0040336572
  0
ARC
  5
129
330
1F
100
AcDbEntity
  8
0
  6
Continuous
 62
     7
370
    15
100
AcDbCircle
 10
-700.6831707317
 20
1406.3133259804
 30
0.0
 40
2.510000000000293
100
AcDbArc
 50
240.0040336572
 51
300.0040336572
  0
ARC
  5
12A
330
1F
100
AcDbEntity
  8
0
  6
Continuous
 62
     7
370
    15
100
AcDbCircle
 10
-700.6831707317
 20
1406.3133259804
 30
0.0
 40
2.509999999999911
100
AcDbArc
 50
60.0040336572
 51
120.0040336572
  0
ARC
  5
12B
330
1F
100
AcDbEntity
  8
0
  6
Continuous
 62
     7
370
    15
100
AcDbCircle
 10
-700.6831707317
 20
1406.3133259804
 30
0.0
 40
2.510000000000248
100
AcDbArc
 50
300.0040336572
 51
0.0040336572
  0
ARC
  5
12C
330
1F
100
AcDbEntity
  8
0
  6
Continuous
 62
     7
370
    15
100
AcDbCircle
 10
-700.6831707317
 20
1406.3133259804
 30
0.0
 40
2.510000000000293
100
AcDbArc
 50
180.0040336572
 51
240.0040336572
  0
CIRCLE
  5
12D
330
1F
100
AcDbEntity
  8
0
  6
Continuous
 62
     7
370
    15
100
AcDbCircle
 10
1237.3168292683
 20
1427.7133259804
 30
0.0
 40
12.91715728752543
  0
CIRCLE
  5
12E
330
1F
100
AcDbEntity
  8
0
  6
Continuous
 62
     7
370
    15
100
AcDbCircle
 10
1237.3168292683
 20
1427.7133259804
 30
0.0
 40
13.05857864376257
  0
LINE
  5
12F
330
1F
100
AcDbEntity
  8
0
  6
Continuous
 62
     7
370
    15
100
AcDbLine
 10
1240.1967940968
 20
1428.907555619
 30
0.0
 11
1239.7910056752
 21
1425.8163730593
 31
0.0
  0
LWPOLYLINE
  5
130
330
1F
100
AcDbEntity
  8
0
  6
Continuous
 62
     7
370
    15
100
AcDbPolyline
 90
       10
 70
   128
 43
0.0
 10
1239.7910056752
 20
1425.8163730593
 10
1239.7592960041
 20
1425.8407737107
 10
1239.7283015888
 20
1425.8644330294
 10
1239.6994529408
 20
1425.8866320343
 10
1239.6732268971
 20
1425.9066964479
 10
1239.6505771321
 20
1425.9240153225
 10
1239.6322189015
 20
1425.9380633922
 10
1239.618867461
 20
1425.9484159739
 10
1239.6105228108
 20
1425.954756418
 10
1239.6076617878
 20
1425.9568910093
  0
LINE
  5
131
330
1F
100
AcDbEntity
  8
0
  6
Continuous
 62
     7
370
    15
100
AcDbLine
 10
1239.6076617878
 20
1425.9568910093
 30
0.0
 11
1239.9834094685
 21
1428.8190948756
 31
0.0
  0
LINE
  5
132
330
1F
100
AcDbEntity
  8
0
  6
Continuous
 62
     7
370
    15
100
AcDbLine
 10
1239.9834094685
 20
1428.8190948756
 30
0.0
 11
1240.1967940968
 21
1428.907555619
 31
0.0
  0
LINE
  5
133
330
1F
100
AcDbEntity
  8
0
  6
Continuous
 62
     7
370
    15
100
AcDbLine
 10
1235.0259719532
 20
1429.4697615297
 30
0.0
 11
1234.6502242726
 21
1426.6075576634
 31
0.0
  0
LINE
  5
134
330
1F
100
AcDbEntity
  8
0
  6
Continuous
 62
     7
370
    15
100
AcDbLine
 10
1234.4368396443
 20
1426.51909692
 30
0.0
 11
1234.6502242726
 21
1426.6075576634
 31
0.0
  0
LINE
  5
135
330
1F
100
AcDbEntity
  8
0
  6
Continuous
 62
     7
370
    15
100
AcDbLine
 10
1234.4368396443
 20
1426.51909692
 30
0.0
 11
1234.8426280659
 21
1429.6102757545
 31
0.0
  0
ARC
  5
136
330
1F
100
AcDbEntity
  8
0
  6
Continuous
 62
     7
370
    15
100
AcDbCircle
 10
1240.7705140287
 20
1437.1551491908
 30
0.0
 40
9.59504805394471
100
AcDbArc
 50
231.843848099
 51
233.2232497362
  0
LINE
  5
137
330
1F
100
AcDbEntity
  8
0
  6
Continuous
 62
     7
370
    15
100
AcDbLine
 10
1239.9834094685
 20
1428.8190948756
 30
0.0
 11
1237.6924453419
 21
1430.5755282731
 31
0.0
  0
LWPOLYLINE
  5
138
330
1F
100
AcDbEntity
  8
0
  6
Continuous
 62
     7
370
    15
100
AcDbPolyline
 90
       10
 70
   128
 43
0.0
 10
1237.6924453419
 20
1430.5755282731
 10
1237.6929221791
 20
1430.5790076943
 10
1237.6943526905
 20
1430.5893379243
 10
1237.6964984577
 20
1430.6062060387
 10
1237.6995978993
 20
1430.6291016729
 10
1237.703174178
 20
1430.6573244722
 10
1237.7074657124
 20
1430.6900176199
 10
1237.712234084
 20
1430.7261901887
 10
1237.7172408741
 20
1430.764743218
 10
1237.7224860829
 20
1430.8045069666
  0
LINE
  5
139
330
1F
100
AcDbEntity
  8
0
  6
Continuous
 62
     7
370
    15
100
AcDbLine
 10
1237.7224860829
 20
1430.8045069666
 30
0.0
 11
1240.1967940968
 21
1428.907555619
 31
0.0
  0
LINE
  5
13A
330
1F
100
AcDbEntity
  8
0
  6
Continuous
 62
     7
370
    15
100
AcDbLine
 10
1237.6924453419
 20
1430.5755282731
 30
0.0
 11
1235.0259719532
 21
1429.4697615297
 31
0.0
  0
LINE
  5
13B
330
1F
100
AcDbEntity
  8
0
  6
Continuous
 62
     7
370
    15
100
AcDbLine
 10
1234.8426280659
 20
1429.6102757545
 30
0.0
 11
1237.7224860829
 21
1430.8045069666
 31
0.0
  0
LINE
  5
13C
330
1F
100
AcDbEntity
  8
0
  6
Continuous
 62
     7
370
    15
100
AcDbLine
 10
1239.7910056752
 20
1425.8163730593
 30
0.0
 11
1236.9111476582
 21
1424.6221455724
 31
0.0
  0
LWPOLYLINE
  5
13D
330
1F
100
AcDbEntity
  8
0
  6
Continuous
 62
     7
370
    15
100
AcDbPolyline
 90
        9
 70
   128
 43
0.0
 10
1236.9111476582
 20
1424.6221455724
 10
1236.9168697041
 20
1424.6668155284
 10
1236.92259175
 20
1424.7097718508
 10
1236.9278369587
 20
1424.7493567855
 10
1236.9323669117
 20
1424.7840578647
 10
1236.936181609
 20
1424.8125339837
 10
1236.9388042134
 20
1424.8336936326
 10
1236.9404731434
 20
1424.8467209728
 10
1236.9411883992
 20
1424.8511205406
  0
LINE
  5
13E
330
1F
100
AcDbEntity
  8
0
  6
Continuous
 62
     7
370
    15
100
AcDbLine
 10
1236.9411883992
 20
1424.8511205406
 30
0.0
 11
1239.6076617878
 21
1425.9568910093
 31
0.0
  0
LINE
  5
13F
330
1F
100
AcDbEntity
  8
0
  6
Continuous
 62
     7
370
    15
100
AcDbLine
 10
1234.6502242726
 20
1426.6075576634
 30
0.0
 11
1236.9411883992
 21
1424.8511205406
 31
0.0
  0
LINE
  5
140
330
1F
100
AcDbEntity
  8
0
  6
Continuous
 62
     7
370
    15
100
AcDbLine
 10
1236.9111476582
 20
1424.6221455724
 30
0.0
 11
1234.4368396443
 21
1426.51909692
 31
0.0
  0
CIRCLE
  5
141
330
1F
100
AcDbEntity
  8
0
  6
Continuous
 62
     7
370
    15
100
AcDbCircle
 10
1237.3168292683
 20
1427.7133259804
 30
0.0
 40
14.94142135623763
  0
CIRCLE
  5
142
330
1F
100
AcDbEntity
  8
0
  6
Continuous
 62
     7
370
    15
100
AcDbCircle
 10
1237.3168292683
 20
1427.7133259804
 30
0.0
 40
15.00000000000005
  0
LINE
  5
143
330
1F
100
AcDbEntity
  8
0
  6
Continuous
 62
     7
370
    15
100
AcDbLine
 10
-737.3497413356
 20
1426.6075576634
 30
0.0
 11
-735.0588368136
 21
1424.8511205406
 31
0.0
  0
LWPOLYLINE
  5
144
330
1F
100
AcDbEntity
  8
0
  6
Continuous
 62
     7
370
    15
100
AcDbPolyline
 90
        9
 70
   128
 43
0.0
 10
-735.0888850052
 20
1424.6221455724
 10
-735.0830213982
 20
1424.6668155284
 10
-735.0773887593
 20
1424.7097718508
 10
-735.072188254
 20
1424.7493567855
 10
-735.0676359493
 20
1424.7840578647
 10
-735.0639032084
 20
1424.8125339837
 10
-735.0611241419
 20
1424.8336936326
 10
-735.0594105083
 20
1424.8467209728
 10
-735.0588368136
 20
1424.8511205406
  0
LINE
  5
145
330
1F
100
AcDbEntity
  8
0
  6
Continuous
 62
     7
370
    15
100
AcDbLine
 10
-735.0888850052
 20
1424.6221455724
 30
0.0
 11
-737.5630663592
 21
1426.51909692
 31
0.0
  0
LWPOLYLINE
  5
146
330
1F
100
AcDbEntity
  8
0
  6
Continuous
 62
     7
370
    15
100
AcDbPolyline
 90
        9
 70
   128
 43
0.0
 10
-737.3497413356
 20
1426.6075576634
 10
-737.3538391549
 20
1426.6058589311
 10
-737.3659836013
 20
1426.6008260639
 10
-737.3856978375
 20
1426.5926490517
 10
-737.4122219044
 20
1426.5816482694
 10
-737.4445499737
 20
1426.5682446749
 10
-737.4814303476
 20
1426.552948633
 10
-737.5214548666
 20
1426.53635619
 10
-737.5630663592
 20
1426.51909692
  0
CIRCLE
  5
147
330
1F
100
AcDbEntity
  8
0
  6
Continuous
 62
     7
370
    15
100
AcDbCircle
 10
-734.6831707317
 20
1427.7133259804
 30
0.0
 40
12.91715728752555
  0
CIRCLE
  5
148
330
1F
100
AcDbEntity
  8
0
  6
Continuous
 62
     7
370
    15
100
AcDbCircle
 10
-734.6831707317
 20
1427.7133259804
 30
0.0
 40
13.05857864376278
  0
LINE
  5
149
330
1F
100
AcDbEntity
  8
0
  6
Continuous
 62
     7
370
    15
100
AcDbLine
 10
-732.0166008431
 20
1428.8190948756
 30
0.0
 11
-734.3075053651
 21
1430.5755282731
 31
0.0
  0
LWPOLYLINE
  5
14A
330
1F
100
AcDbEntity
  8
0
  6
Continuous
 62
     7
370
    15
100
AcDbPolyline
 90
       10
 70
   128
 43
0.0
 10
-734.3075053651
 20
1430.5755282731
 10
-734.3070508796
 20
1430.5790076943
 10
-734.305694874
 20
1430.5893379243
 10
-734.3034820515
 20
1430.6062060387
 10
-734.300472017
 20
1430.6291016729
 10
-734.2967690784
 20
1430.6573244722
 10
-734.292477544
 20
1430.6900176199
 10
-734.2877315242
 20
1430.7261901887
 10
-734.2826725799
 20
1430.764743218
 10
-734.2774571735
 20
1430.8045069666
  0
LINE
  5
14B
330
1F
100
AcDbEntity
  8
0
  6
Continuous
 62
     7
370
    15
100
AcDbLine
 10
-734.2774571735
 20
1430.8045069666
 30
0.0
 11
-731.8032683689
 21
1428.907555619
 31
0.0
  0
LWPOLYLINE
  5
14C
330
1F
100
AcDbEntity
  8
0
  6
Continuous
 62
     7
370
    15
100
AcDbPolyline
 90
       10
 70
   128
 43
0.0
 10
-731.8032683689
 20
1428.907555619
 10
-731.8403126556
 20
1428.8921925218
 10
-731.8762319047
 20
1428.8772988112
 10
-731.9099383313
 20
1428.8633252473
 10
-731.9403963048
 20
1428.8506927879
 10
-731.9666894037
 20
1428.8397888632
 10
-731.9880204159
 20
1428.830945024
 10
-732.0037336904
 20
1428.8244294913
 10
-732.0133598406
 20
1428.8204359801
 10
-732.0166008431
 20
1428.8190948756
  0
LINE
  5
14D
330
1F
100
AcDbEntity
  8
0
  6
Continuous
 62
     7
370
    15
100
AcDbLine
 10
-734.3075053651
 20
1430.5755282731
 30
0.0
 11
-736.9740830619
 21
1429.4697615297
 31
0.0
  0
LWPOLYLINE
  5
14E
330
1F
100
AcDbEntity
  8
0
  6
Continuous
 62
     7
370
    15
100
AcDbPolyline
 90
        9
 70
   128
 43
0.0
 10
-736.9740830619
 20
1429.4697615297
 10
-736.9775997359
 20
1429.4724623652
 10
-736.9880305487
 20
1429.4804568381
 10
-737.0049657184
 20
1429.4934432001
 10
-737.0277570445
 20
1429.5109185369
 10
-737.0555328089
 20
1429.5322122963
 10
-737.0872201282
 20
1429.5565049143
 10
-737.1215971071
 20
1429.5828650684
 10
-737.1573524434
 20
1429.6102757545
  0
LINE
  5
14F
330
1F
100
AcDbEntity
  8
0
  6
Continuous
 62
     7
370
    15
100
AcDbLine
 10
-737.1573524434
 20
1429.6102757545
 30
0.0
 11
-734.2774571735
 21
1430.8045069666
 31
0.0
  0
LINE
  5
150
330
1F
100
AcDbEntity
  8
0
  6
Continuous
 62
     7
370
    15
100
AcDbLine
 10
-731.8032683689
 20
1428.907555619
 30
0.0
 11
-732.2089897353
 21
1425.8163730593
 31
0.0
  0
LWPOLYLINE
  5
151
330
1F
100
AcDbEntity
  8
0
  6
Continuous
 62
     7
370
    15
100
AcDbPolyline
 90
       10
 70
   128
 43
0.0
 10
-732.2089897353
 20
1425.8163730593
 10
-732.240811165
 20
1425.8407737107
 10
-732.2716714699
 20
1425.8644330294
 10
-732.3006244261
 20
1425.8866320343
 10
-732.3267908651
 20
1425.9066964479
 10
-732.3493810255
 20
1425.9240153225
 10
-732.3677094537
 20
1425.9380633922
 10
-732.3812099058
 20
1425.9484159739
 10
-732.3894800502
 20
1425.954756418
 10
-732.3922591168
 20
1425.9568910093
  0
LINE
  5
152
330
1F
100
AcDbEntity
  8
0
  6
Continuous
 62
     7
370
    15
100
AcDbLine
 10
-732.3922591168
 20
1425.9568910093
 30
0.0
 11
-732.0166008431
 21
1428.8190948756
 31
0.0
  0
LINE
  5
153
330
1F
100
AcDbEntity
  8
0
  6
Continuous
 62
     7
370
    15
100
AcDbLine
 10
-736.9740830619
 20
1429.4697615297
 30
0.0
 11
-737.3497413356
 21
1426.6075576634
 31
0.0
  0
LINE
  5
154
330
1F
100
AcDbEntity
  8
0
  6
Continuous
 62
     7
370
    15
100
AcDbLine
 10
-737.5630663592
 20
1426.51909692
 30
0.0
 11
-737.1573524434
 21
1429.6102757545
 31
0.0
  0
LINE
  5
155
330
1F
100
AcDbEntity
  8
0
  6
Continuous
 62
     7
370
    15
100
AcDbLine
 10
-732.2089897353
 20
1425.8163730593
 30
0.0
 11
-735.0888850052
 21
1424.6221455724
 31
0.0
  0
LINE
  5
156
330
1F
100
AcDbEntity
  8
0
  6
Continuous
 62
     7
370
    15
100
AcDbLine
 10
-735.0588368136
 20
1424.8511205406
 30
0.0
 11
-732.3922591168
 21
1425.9568910093
 31
0.0
  0
CIRCLE
  5
157
330
1F
100
AcDbEntity
  8
0
  6
Continuous
 62
     7
370
    15
100
AcDbCircle
 10
-734.6831707317
 20
1427.7133259804
 30
0.0
 40
14.94142135623742
  0
CIRCLE
  5
158
330
1F
100
AcDbEntity
  8
0
  6
Continuous
 62
     7
370
    15
100
AcDbCircle
 10
-734.6831707317
 20
1427.7133259804
 30
0.0
 40
15.00000000000001
  0
CIRCLE
  5
159
330
1F
100
AcDbEntity
  8
0
  6
Continuous
 62
     7
370
    15
100
AcDbCircle
 10
-0.6831707317
 20
1332.3133259804
 30
0.0
 40
15.00000000000004
  0
CIRCLE
  5
15A
330
1F
100
AcDbEntity
  8
0
  6
Continuous
 62
     7
370
    15
100
AcDbCircle
 10
-0.6831707317
 20
1332.3133259804
 30
0.0
 40
12.99999999999982
  0
CIRCLE
  5
15B
330
1F
100
AcDbEntity
  8
0
  6
Continuous
 62
     7
370
    15
100
AcDbCircle
 10
-0.6831707317
 20
1332.3133259804
 30
0.0
 40
8.749999999999972
  0
CIRCLE
  5
15C
330
1F
100
AcDbEntity
  8
0
  6
Continuous
 62
     7
370
    15
100
AcDbCircle
 10
-0.6831707317
 20
1277.3133259804
 30
0.0
 40
15.00000000000013
  0
CIRCLE
  5
15D
330
1F
100
AcDbEntity
  8
0
  6
Continuous
 62
     7
370
    15
100
AcDbCircle
 10
-0.6831707317
 20
1277.3133259804
 30
0.0
 40
13.00000000000004
  0
CIRCLE
  5
15E
330
1F
100
AcDbEntity
  8
0
  6
Continuous
 62
     7
370
    15
100
AcDbCircle
 10
-0.6831707317
 20
1277.3133259804
 30
0.0
 40
8.749999999999892
  0
CIRCLE
  5
15F
330
1F
100
AcDbEntity
  8
0
  6
Continuous
 62
     7
370
    15
100
AcDbCircle
 10
-700.6831707317
 20
1332.3133259804
 30
0.0
 40
15.00000000000001
  0
CIRCLE
  5
160
330
1F
100
AcDbEntity
  8
0
  6
Continuous
 62
     7
370
    15
100
AcDbCircle
 10
-700.6831707317
 20
1332.3133259804
 30
0.0
 40
12.99999999999982
  0
CIRCLE
  5
161
330
1F
100
AcDbEntity
  8
0
  6
Continuous
 62
     7
370
    15
100
AcDbCircle
 10
-700.6831707317
 20
1332.3133259804
 30
0.0
 40
8.74999999999999
  0
CIRCLE
  5
162
330
1F
100
AcDbEntity
  8
0
  6
Continuous
 62
     7
370
    15
100
AcDbCircle
 10
-700.6831707317
 20
1277.3133259804
 30
0.0
 40
14.99999999999992
  0
CIRCLE
  5
163
330
1F
100
AcDbEntity
  8
0
  6
Continuous
 62
     7
370
    15
100
AcDbCircle
 10
-700.6831707317
 20
1277.3133259804
 30
0.0
 40
12.99999999999994
  0
CIRCLE
  5
164
330
1F
100
AcDbEntity
  8
0
  6
Continuous
 62
     7
370
    15
100
AcDbCircle
 10
-700.6831707317
 20
1277.3133259804
 30
0.0
 40
8.75000000000013
  0
CIRCLE
  5
165
330
1F
100
AcDbEntity
  8
0
  6
Continuous
 62
     7
370
    15
100
AcDbCircle
 10
-700.6831707317
 20
1406.3133259804
 30
0.0
 40
14.99999999999999
  0
CIRCLE
  5
166
330
1F
100
AcDbEntity
  8
0
  6
Continuous
 62
     7
370
    15
100
AcDbCircle
 10
-700.6831707317
 20
1406.3133259804
 30
0.0
 40
13.00000000000004
  0
CIRCLE
  5
167
330
1F
100
AcDbEntity
  8
0
  6
Continuous
 62
     7
370
    15
100
AcDbCircle
 10
-700.6831707317
 20
1406.3133259804
 30
0.0
 40
8.750000000000078
  0
CIRCLE
  5
168
330
1F
100
AcDbEntity
  8
0
  6
Continuous
 62
     7
370
    15
100
AcDbCircle
 10
-0.6831707317
 20
1406.3133259804
 30
0.0
 40
15.00000000000002
  0
CIRCLE
  5
169
330
1F
100
AcDbEntity
  8
0
  6
Continuous
 62
     7
370
    15
100
AcDbCircle
 10
-0.6831707317
 20
1406.3133259804
 30
0.0
 40
13.00000000000004
  0
CIRCLE
  5
16A
330
1F
100
AcDbEntity
  8
0
  6
Continuous
 62
     7
370
    15
100
AcDbCircle
 10
-0.6831707317
 20
1406.3133259804
 30
0.0
 40
8.749999999999952
  0
CIRCLE
  5
16B
330
1F
100
AcDbEntity
  8
0
  6
Continuous
 62
     7
370
    15
100
AcDbCircle
 10
-700.6831707317
 20
1466.3133259804
 30
0.0
 40
8.750000000000078
  0
CIRCLE
  5
16C
330
1F
100
AcDbEntity
  8
0
  6
Continuous
 62
     7
370
    15
100
AcDbCircle
 10
-700.6831707317
 20
1466.3133259804
 30
0.0
 40
13.00000000000004
  0
CIRCLE
  5
16D
330
1F
100
AcDbEntity
  8
0
  6
Continuous
 62
     7
370
    15
100
AcDbCircle
 10
-700.6831707317
 20
1466.3133259804
 30
0.0
 40
14.99999999999999
  0
CIRCLE
  5
16E
330
1F
100
AcDbEntity
  8
0
  6
Continuous
 62
     7
370
    15
100
AcDbCircle
 10
-0.6831707317
 20
1466.3133259804
 30
0.0
 40
8.749999999999952
  0
CIRCLE
  5
16F
330
1F
100
AcDbEntity
  8
0
  6
Continuous
 62
     7
370
    15
100
AcDbCircle
 10
-0.6831707317
 20
1466.3133259804
 30
0.0
 40
13.00000000000004
  0
CIRCLE
  5
170
330
1F
100
AcDbEntity
  8
0
  6
Continuous
 62
     7
370
    15
100
AcDbCircle
 10
-0.6831707317
 20
1466.3133259804
 30
0.0
 40
15.00000000000002
  0
ARC
  5
171
330
1F
100
AcDbEntity
  8
0
  6
Continuous
 62
     7
370
    15
100
AcDbCircle
 10
-700.6831707317
 20
1466.3133259804
 30
0.0
 40
29.0
100
AcDbArc
 50
301.1473899215
 51
180.0040336572
  0
ARC
  5
172
330
1F
100
AcDbEntity
  8
0
  6
Continuous
 62
     7
370
    15
100
AcDbCircle
 10
-700.6831707317
 20
1466.3133259804
 30
0.0
 40
29.00000000000018
100
AcDbArc
 50
180.0040336572
 51
238.8526100785
  0
ARC
  5
173
330
1F
100
AcDbEntity
  8
0
  6
Continuous
 62
     7
370
    15
100
AcDbCircle
 10
-0.6831707317
 20
1466.3133259804
 30
0.0
 40
28.99999999999994
100
AcDbArc
 50
301.1473899215
 51
180.0040336572
  0
ARC
  5
174
330
1F
100
AcDbEntity
  8
0
  6
Continuous
 62
     7
370
    15
100
AcDbCircle
 10
-0.6831707317
 20
1466.3133259804
 30
0.0
 40
29.00000000000024
100
AcDbArc
 50
180.0040336572
 51
238.8526100785
  0
LINE
  5
175
330
1F
100
AcDbEntity
  8
0
  6
Continuous
 62
     7
370
    15
100
AcDbLine
 10
-685.6831686455
 20
1466.3133296163
 30
0.0
 11
-685.6831686455
 21
1277.3133265765
 31
0.0
  0
LINE
  5
176
330
1F
100
AcDbEntity
  8
0
  6
Continuous
 62
     7
370
    15
100
AcDbLine
 10
-715.6831698376
 20
1277.3133265765
 30
0.0
 11
-715.6831698376
 21
1421.4683297069
 31
0.0
  0
LINE
  5
177
330
1F
100
AcDbEntity
  8
0
  6
Continuous
 62
     7
370
    15
100
AcDbLine
 10
-715.6831698376
 20
1433.9583228321
 30
0.0
 11
-715.6831698376
 21
1466.3133296163
 31
0.0
  0
LINE
  5
178
330
1F
100
AcDbEntity
  8
0
  6
Continuous
 62
     7
370
    15
100
AcDbLine
 10
14.3168268841
 20
1466.3133296163
 30
0.0
 11
14.3168268841
 21
1277.3133265765
 31
0.0
  0
LINE
  5
179
330
1F
100
AcDbEntity
  8
0
  6
Continuous
 62
     7
370
    15
100
AcDbLine
 10
-15.6831445057
 20
1277.3133265765
 30
0.0
 11
-15.6831445057
 21
1466.3133296163
 31
0.0
  0
LINE
  5
17A
330
1F
100
AcDbEntity
  8
0
  6
Continuous
 62
     7
370
    15
100
AcDbLine
 10
1461.8928670741
 20
1407.7133267166
 30
0.0
 11
1469.8928683854
 21
1407.7133267166
 31
0.0
  0
LINE
  5
17B
330
1F
100
AcDbEntity
  8
0
  6
Continuous
 62
     7
370
    15
100
AcDbLine
 10
1469.8928683854
 20
1447.7133276851
 30
0.0
 11
1461.8928670741
 21
1447.7133276851
 31
0.0
  0
LINE
  5
17C
330
1F
100
AcDbEntity
  8
0
  6
Continuous
 62
     7
370
    15
100
AcDbLine
 10
1431.092867241
 20
1443.7133270295
 30
0.0
 11
1429.2928675047
 21
1441.9133263619
 31
0.0
  0
LINE
  5
17D
330
1F
100
AcDbEntity
  8
0
  6
Continuous
 62
     7
370
    15
100
AcDbLine
 10
1429.2928675047
 20
1413.5133261771
 30
0.0
 11
1431.092867241
 21
1411.7133255096
 31
0.0
  0
LINE
  5
17E
330
1F
100
AcDbEntity
  8
0
  6
Continuous
 62
     7
370
    15
100
AcDbLine
 10
1431.092867241
 20
1411.7133255096
 30
0.0
 11
1461.8928670741
 21
1411.7133255096
 31
0.0
  0
LINE
  5
17F
330
1F
100
AcDbEntity
  8
0
  6
Continuous
 62
     7
370
    15
100
AcDbLine
 10
1461.8928670741
 20
1443.7133270295
 30
0.0
 11
1431.092867241
 21
1443.7133270295
 31
0.0
  0
LINE
  5
180
330
1F
100
AcDbEntity
  8
0
  6
Continuous
 62
     7
370
    15
100
AcDbLine
 10
1428.7928674228
 20
1420.2133278341
 30
0.0
 11
1429.2928675047
 21
1420.2133278341
 31
0.0
  0
LINE
  5
181
330
1F
100
AcDbEntity
  8
0
  6
Continuous
 62
     7
370
    15
100
AcDbLine
 10
1429.2928675047
 20
1435.2133247049
 30
0.0
 11
1428.7928674228
 21
1435.2133247049
 31
0.0
  0
LINE
  5
182
330
1F
100
AcDbEntity
  8
0
  6
Continuous
 62
     7
370
    15
100
AcDbLine
 10
1427.7928672588
 20
1402.713325897
 30
0.0
 11
1428.7928674228
 21
1403.7133260609
 31
0.0
  0
LINE
  5
183
330
1F
100
AcDbEntity
  8
0
  6
Continuous
 62
     7
370
    15
100
AcDbLine
 10
1428.7928674228
 20
1451.7133283408
 30
0.0
 11
1427.7928672588
 21
1452.7133229168
 31
0.0
  0
LINE
  5
184
330
1F
100
AcDbEntity
  8
0
  6
Continuous
 62
     7
370
    15
100
AcDbLine
 10
1425.792866931
 20
1402.713325897
 30
0.0
 11
1427.7928672588
 21
1402.713325897
 31
0.0
  0
LINE
  5
185
330
1F
100
AcDbEntity
  8
0
  6
Continuous
 62
     7
370
    15
100
AcDbLine
 10
1427.7928672588
 20
1452.7133229168
 30
0.0
 11
1425.792866931
 21
1452.7133229168
 31
0.0
  0
LINE
  5
186
330
1F
100
AcDbEntity
  8
0
  6
Continuous
 62
     7
370
    15
100
AcDbLine
 10
1452.766815745
 20
1346.8133258612
 30
0.0
 11
1451.2668164304
 21
1346.8133258612
 31
0.0
  0
LINE
  5
187
330
1F
100
AcDbEntity
  8
0
  6
Continuous
 62
     7
370
    15
100
AcDbLine
 10
1451.2668164304
 20
1317.8133266957
 30
0.0
 11
1452.766815745
 21
1317.8133266957
 31
0.0
  0
LINE
  5
188
330
1F
100
AcDbEntity
  8
0
  6
Continuous
 62
     7
370
    15
100
AcDbLine
 10
1452.766815745
 20
1291.8133261592
 30
0.0
 11
1451.2668164304
 21
1291.8133261592
 31
0.0
  0
LINE
  5
189
330
1F
100
AcDbEntity
  8
0
  6
Continuous
 62
     7
370
    15
100
AcDbLine
 10
1451.2668164304
 20
1262.8133269937
 30
0.0
 11
1452.766815745
 21
1262.8133269937
 31
0.0
  0
LINE
  5
18A
330
1F
100
AcDbEntity
  8
0
  6
Continuous
 62
     7
370
    15
100
AcDbLine
 10
1443.2668160505
 20
1346.3133248479
 30
0.0
 11
1441.2668159555
 21
1346.3133248479
 31
0.0
  0
LINE
  5
18B
330
1F
100
AcDbEntity
  8
0
  6
Continuous
 62
     7
370
    15
100
AcDbLine
 10
1441.2668159555
 20
1318.313327709
 30
0.0
 11
1443.2668160505
 21
1318.313327709
 31
0.0
  0
LINE
  5
18C
330
1F
100
AcDbEntity
  8
0
  6
Continuous
 62
     7
370
    15
100
AcDbLine
 10
1443.2668160505
 20
1291.313325146
 30
0.0
 11
1441.2668159555
 21
1291.313325146
 31
0.0
  0
LINE
  5
18D
330
1F
100
AcDbEntity
  8
0
  6
Continuous
 62
     7
370
    15
100
AcDbLine
 10
1441.2668159555
 20
1263.313328007
 30
0.0
 11
1443.2668160505
 21
1263.313328007
 31
0.0
  0
ARC
  5
18E
330
1F
100
AcDbEntity
  8
0
  6
Continuous
 62
     7
370
    15
100
AcDbCircle
 10
1470.0928674737
 20
1412.9133259804
 30
0.0
 40
0.2000000000000455
100
AcDbArc
 50
180.0
 51
270.0
  0
ARC
  5
18F
330
1F
100
AcDbEntity
  8
0
  6
Continuous
 62
     7
370
    15
100
AcDbCircle
 10
1470.0928674737
 20
1442.5133259804
 30
0.0
 40
0.2000000000000455
100
AcDbArc
 50
90.0
 51
180.0
  0
LINE
  5
190
330
1F
100
AcDbEntity
  8
0
  6
Continuous
 62
     7
370
    15
100
AcDbLine
 10
1471.8100238449
 20
1442.7133250029
 30
0.0
 11
1470.0928680456
 21
1442.7133250029
 31
0.0
  0
LINE
  5
191
330
1F
100
AcDbEntity
  8
0
  6
Continuous
 62
     7
370
    15
100
AcDbLine
 10
1470.0928680456
 20
1412.7133256735
 30
0.0
 11
1471.8100238449
 21
1412.7133256735
 31
0.0
  0
ARC
  5
192
330
1F
100
AcDbEntity
  8
0
  6
Continuous
 62
     7
370
    15
100
AcDbCircle
 10
1471.8100247612
 20
1442.5133259804
 30
0.0
 40
0.2000000000000455
100
AcDbArc
 50
45.0
 51
90.0
  0
ARC
  5
193
330
1F
100
AcDbEntity
  8
0
  6
Continuous
 62
     7
370
    15
100
AcDbCircle
 10
1471.8100247612
 20
1412.9133259804
 30
0.0
 40
0.2000000000001302
100
AcDbArc
 50
270.0
 51
315.0
  0
LINE
  5
194
330
1F
100
AcDbEntity
  8
0
  6
Continuous
 62
     7
370
    15
100
AcDbLine
 10
1471.9514470405
 20
1412.7719040008
 30
0.0
 11
1473.8342888511
 21
1414.654747674
 31
0.0
  0
LINE
  5
195
330
1F
100
AcDbEntity
  8
0
  6
Continuous
 62
     7
370
    15
100
AcDbLine
 10
1473.8342888511
 20
1440.771904865
 30
0.0
 11
1471.9514470405
 21
1442.6547485383
 31
0.0
  0
ARC
  5
196
330
1F
100
AcDbEntity
  8
0
  6
Continuous
 62
     7
370
    15
100
AcDbCircle
 10
1473.6928674737
 20
1414.7961686929
 30
0.0
 40
0.2000000000001302
100
AcDbArc
 50
315.0
 51
0.0
  0
ARC
  5
197
330
1F
100
AcDbEntity
  8
0
  6
Continuous
 62
     7
370
    15
100
AcDbCircle
 10
1473.6928674737
 20
1440.630483268
 30
0.0
 40
0.2000000000000455
100
AcDbArc
 50
0.0
 51
44.9999999999
  0
ARC
  5
198
330
1F
100
AcDbEntity
  8
0
  6
Continuous
 62
     7
370
    15
100
AcDbCircle
 10
1439.3496587629
 20
1317.5133259804
 30
0.0
 40
0.1999999999998181
100
AcDbArc
 50
225.0
 51
270.0000000001
  0
ARC
  5
199
330
1F
100
AcDbEntity
  8
0
  6
Continuous
 62
     7
370
    15
100
AcDbCircle
 10
1439.3496587629
 20
1347.1133259804
 30
0.0
 40
0.2000000000000455
100
AcDbArc
 50
90.0
 51
135.0
  0
LINE
  5
19A
330
1F
100
AcDbEntity
  8
0
  6
Continuous
 62
     7
370
    15
100
AcDbLine
 10
1439.3496588661
 20
1317.3133256824
 30
0.0
 11
1441.0668160624
 21
1317.3133256824
 31
0.0
  0
LINE
  5
19B
330
1F
100
AcDbEntity
  8
0
  6
Continuous
 62
     7
370
    15
100
AcDbLine
 10
1441.0668160624
 20
1347.3133268745
 30
0.0
 11
1439.3496588661
 21
1347.3133268745
 31
0.0
  0
ARC
  5
19C
330
1F
100
AcDbEntity
  8
0
  6
Continuous
 62
     7
370
    15
100
AcDbCircle
 10
1441.0668160505
 20
1347.1133259804
 30
0.0
 40
0.2000000000000455
100
AcDbArc
 50
0.0
 51
90.0
  0
ARC
  5
19D
330
1F
100
AcDbEntity
  8
0
  6
Continuous
 62
     7
370
    15
100
AcDbCircle
 10
1441.0668160505
 20
1317.5133259804
 30
0.0
 40
0.1999999999998181
100
AcDbArc
 50
270.0
 51
0.0
  0
LINE
  5
19E
330
1F
100
AcDbEntity
  8
0
  6
Continuous
 62
     7
370
    15
100
AcDbLine
 10
1439.2082375332
 20
1347.2547466846
 30
0.0
 11
1437.3253947913
 21
1345.3719030113
 31
0.0
  0
LINE
  5
19F
330
1F
100
AcDbEntity
  8
0
  6
Continuous
 62
     7
370
    15
100
AcDbLine
 10
1437.3253947913
 20
1319.2547458203
 30
0.0
 11
1439.2082375332
 21
1317.3719021471
 31
0.0
  0
ARC
  5
1A0
330
1F
100
AcDbEntity
  8
0
  6
Continuous
 62
     7
370
    15
100
AcDbCircle
 10
1437.4668160505
 20
1345.230483268
 30
0.0
 40
0.2000000000002728
100
AcDbArc
 50
135.0
 51
180.0
  0
ARC
  5
1A1
330
1F
100
AcDbEntity
  8
0
  6
Continuous
 62
     7
370
    15
100
AcDbCircle
 10
1437.4668160505
 20
1319.3961686929
 30
0.0
 40
0.2000000000002728
100
AcDbArc
 50
180.0
 51
225.0
  0
LINE
  5
1A2
330
1F
100
AcDbEntity
  8
0
  6
Continuous
 62
     7
370
    15
100
AcDbLine
 10
1439.3496588661
 20
1262.3133259804
 30
0.0
 11
1441.0668160624
 21
1262.3133259804
 31
0.0
  0
LINE
  5
1A3
330
1F
100
AcDbEntity
  8
0
  6
Continuous
 62
     7
370
    15
100
AcDbLine
 10
1441.0668160624
 20
1292.3133271725
 30
0.0
 11
1439.3496588661
 21
1292.3133271725
 31
0.0
  0
ARC
  5
1A4
330
1F
100
AcDbEntity
  8
0
  6
Continuous
 62
     7
370
    15
100
AcDbCircle
 10
1441.0668160505
 20
1292.1133259804
 30
0.0
 40
0.2000000000000455
100
AcDbArc
 50
0.0
 51
90.0
  0
ARC
  5
1A5
330
1F
100
AcDbEntity
  8
0
  6
Continuous
 62
     7
370
    15
100
AcDbCircle
 10
1441.0668160505
 20
1262.5133259804
 30
0.0
 40
0.2000000000000455
100
AcDbArc
 50
270.0
 51
0.0
  0
ARC
  5
1A6
330
1F
100
AcDbEntity
  8
0
  6
Continuous
 62
     7
370
    15
100
AcDbCircle
 10
1439.3496587629
 20
1262.5133259804
 30
0.0
 40
0.2000000000001302
100
AcDbArc
 50
225.0
 51
270.0
  0
ARC
  5
1A7
330
1F
100
AcDbEntity
  8
0
  6
Continuous
 62
     7
370
    15
100
AcDbCircle
 10
1439.3496587629
 20
1292.1133259804
 30
0.0
 40
0.2000000000000455
100
AcDbArc
 50
90.0
 51
135.0
  0
LINE
  5
1A8
330
1F
100
AcDbEntity
  8
0
  6
Continuous
 62
     7
370
    15
100
AcDbLine
 10
1439.2082375332
 20
1292.2547507079
 30
0.0
 11
1437.3253947913
 21
1290.3719070346
 31
0.0
  0
LINE
  5
1A9
330
1F
100
AcDbEntity
  8
0
  6
Continuous
 62
     7
370
    15
100
AcDbLine
 10
1437.3253947913
 20
1264.2547461183
 30
0.0
 11
1439.2082375332
 21
1262.3719024451
 31
0.0
  0
ARC
  5
1AA
330
1F
100
AcDbEntity
  8
0
  6
Continuous
 62
     7
370
    15
100
AcDbCircle
 10
1437.4668160505
 20
1290.230483268
 30
0.0
 40
0.2000000000002728
100
AcDbArc
 50
135.0
 51
180.0
  0
ARC
  5
1AB
330
1F
100
AcDbEntity
  8
0
  6
Continuous
 62
     7
370
    15
100
AcDbCircle
 10
1437.4668160505
 20
1264.3961686929
 30
0.0
 40
0.2000000000002728
100
AcDbArc
 50
180.0
 51
225.0
  0
LINE
  5
1AC
330
1F
100
AcDbEntity
  8
0
  6
Continuous
 62
     7
370
    15
100
AcDbLine
 10
1452.9668163366
 20
1347.3133268745
 30
0.0
 11
1452.766815745
 21
1347.1133272142
 31
0.0
  0
LINE
  5
1AD
330
1F
100
AcDbEntity
  8
0
  6
Continuous
 62
     7
370
    15
100
AcDbLine
 10
1452.766815745
 20
1317.513329068
 30
0.0
 11
1452.9668163366
 21
1317.3133256824
 31
0.0
  0
LINE
  5
1AE
330
1F
100
AcDbEntity
  8
0
  6
Continuous
 62
     7
370
    15
100
AcDbLine
 10
1462.0668157793
 20
1347.3133268745
 30
0.0
 11
1452.9668163366
 21
1347.3133268745
 31
0.0
  0
LINE
  5
1AF
330
1F
100
AcDbEntity
  8
0
  6
Continuous
 62
     7
370
    15
100
AcDbLine
 10
1452.9668163366
 20
1317.3133256824
 30
0.0
 11
1462.0668157793
 21
1317.3133256824
 31
0.0
  0
LINE
  5
1B0
330
1F
100
AcDbEntity
  8
0
  6
Continuous
 62
     7
370
    15
100
AcDbLine
 10
1462.0668157793
 20
1317.3133256824
 30
0.0
 11
1462.2668154395
 21
1317.513329068
 31
0.0
  0
LINE
  5
1B1
330
1F
100
AcDbEntity
  8
0
  6
Continuous
 62
     7
370
    15
100
AcDbLine
 10
1462.2668154395
 20
1347.1133272142
 30
0.0
 11
1462.0668157793
 21
1347.3133268745
 31
0.0
  0
LINE
  5
1B2
330
1F
100
AcDbEntity
  8
0
  6
Continuous
 62
     7
370
    15
100
AcDbLine
 10
1462.0668157793
 20
1292.3133271725
 30
0.0
 11
1452.9668163366
 21
1292.3133271725
 31
0.0
  0
LINE
  5
1B3
330
1F
100
AcDbEntity
  8
0
  6
Continuous
 62
     7
370
    15
100
AcDbLine
 10
1452.9668163366
 20
1262.3133259804
 30
0.0
 11
1462.0668157793
 21
1262.3133259804
 31
0.0
  0
LINE
  5
1B4
330
1F
100
AcDbEntity
  8
0
  6
Continuous
 62
     7
370
    15
100
AcDbLine
 10
1452.9668163366
 20
1292.3133271725
 30
0.0
 11
1452.766815745
 21
1292.113323787
 31
0.0
  0
LINE
  5
1B5
330
1F
100
AcDbEntity
  8
0
  6
Continuous
 62
     7
370
    15
100
AcDbLine
 10
1452.766815745
 20
1262.513329366
 30
0.0
 11
1452.9668163366
 21
1262.3133259804
 31
0.0
  0
LINE
  5
1B6
330
1F
100
AcDbEntity
  8
0
  6
Continuous
 62
     7
370
    15
100
AcDbLine
 10
1462.0668157793
 20
1262.3133259804
 30
0.0
 11
1462.2668154395
 21
1262.513329366
 31
0.0
  0
LINE
  5
1B7
330
1F
100
AcDbEntity
  8
0
  6
Continuous
 62
     7
370
    15
100
AcDbLine
 10
1462.2668154395
 20
1292.113323787
 30
0.0
 11
1462.0668157793
 21
1292.3133271725
 31
0.0
  0
LINE
  5
1B8
330
1F
100
AcDbEntity
  8
0
  6
Continuous
 62
     7
370
    15
100
AcDbLine
 10
1471.2668169147
 20
1347.3133268745
 30
0.0
 11
1468.266816423
 21
1347.3133268745
 31
0.0
  0
LINE
  5
1B9
330
1F
100
AcDbEntity
  8
0
  6
Continuous
 62
     7
370
    15
100
AcDbLine
 10
1468.266816423
 20
1317.3133256824
 30
0.0
 11
1471.2668169147
 21
1317.3133256824
 31
0.0
  0
LINE
  5
1BA
330
1F
100
AcDbEntity
  8
0
  6
Continuous
 62
     7
370
    15
100
AcDbLine
 10
1471.2668169147
 20
1317.3133256824
 30
0.0
 11
1473.2668153799
 21
1319.3133222849
 31
0.0
  0
LINE
  5
1BB
330
1F
100
AcDbEntity
  8
0
  6
Continuous
 62
     7
370
    15
100
AcDbLine
 10
1473.2668153799
 20
1345.3133265467
 30
0.0
 11
1471.2668169147
 21
1347.3133268745
 31
0.0
  0
LINE
  5
1BC
330
1F
100
AcDbEntity
  8
0
  6
Continuous
 62
     7
370
    15
100
AcDbLine
 10
1471.2668169147
 20
1292.3133271725
 30
0.0
 11
1468.266816423
 21
1292.3133271725
 31
0.0
  0
LINE
  5
1BD
330
1F
100
AcDbEntity
  8
0
  6
Continuous
 62
     7
370
    15
100
AcDbLine
 10
1468.266816423
 20
1262.3133259804
 30
0.0
 11
1471.2668169147
 21
1262.3133259804
 31
0.0
  0
LINE
  5
1BE
330
1F
100
AcDbEntity
  8
0
  6
Continuous
 62
     7
370
    15
100
AcDbLine
 10
1471.2668169147
 20
1262.3133259804
 30
0.0
 11
1473.2668153799
 21
1264.313322583
 31
0.0
  0
LINE
  5
1BF
330
1F
100
AcDbEntity
  8
0
  6
Continuous
 62
     7
370
    15
100
AcDbLine
 10
1473.2668153799
 20
1290.3133231194
 30
0.0
 11
1471.2668169147
 21
1292.3133271725
 31
0.0
  0
LINE
  5
1C0
330
1F
100
AcDbEntity
  8
0
  6
Continuous
 62
     7
370
    15
100
AcDbLine
 10
1468.266816423
 20
1391.3133261704
 30
0.0
 11
1471.2668169147
 21
1391.3133261704
 31
0.0
  0
LINE
  5
1C1
330
1F
100
AcDbEntity
  8
0
  6
Continuous
 62
     7
370
    15
100
AcDbLine
 10
1471.2668169147
 20
1391.3133261704
 30
0.0
 11
1473.2668153799
 21
1393.3133260326
 31
0.0
  0
LINE
  5
1C2
330
1F
100
AcDbEntity
  8
0
  6
Continuous
 62
     7
370
    15
100
AcDbLine
 10
1471.2668169147
 20
1481.3133227618
 30
0.0
 11
1468.266816423
 21
1481.3133227618
 31
0.0
  0
LINE
  5
1C3
330
1F
100
AcDbEntity
  8
0
  6
Continuous
 62
     7
370
    15
100
AcDbLine
 10
1468.266816423
 20
1451.3133290203
 30
0.0
 11
1471.2668169147
 21
1451.3133290203
 31
0.0
  0
LINE
  5
1C4
330
1F
100
AcDbEntity
  8
0
  6
Continuous
 62
     7
370
    15
100
AcDbLine
 10
1471.2668169147
 20
1451.3133290203
 30
0.0
 11
1473.2668153799
 21
1453.3133256228
 31
0.0
  0
LINE
  5
1C5
330
1F
100
AcDbEntity
  8
0
  6
Continuous
 62
     7
370
    15
100
AcDbLine
 10
1473.2668153799
 20
1479.3133261592
 30
0.0
 11
1471.2668169147
 21
1481.3133227618
 31
0.0
  0
LINE
  5
1C6
330
1F
100
AcDbEntity
  8
0
  6
Continuous
 62
     7
370
    15
100
AcDbLine
 10
1433.266816274
 20
1399.3133260847
 30
0.0
 11
1434.2668164379
 21
1398.3133259208
 31
0.0
  0
LINE
  5
1C7
330
1F
100
AcDbEntity
  8
0
  6
Continuous
 62
     7
370
    15
100
AcDbLine
 10
1434.2668164379
 20
1398.3133259208
 30
0.0
 11
1462.0668157793
 21
1398.3133259208
 31
0.0
  0
LINE
  5
1C8
330
1F
100
AcDbEntity
  8
0
  6
Continuous
 62
     7
370
    15
100
AcDbLine
 10
1462.0668157793
 20
1398.3133259208
 30
0.0
 11
1462.2668154395
 21
1398.5133255811
 31
0.0
  0
ARC
  5
1C9
330
1F
100
AcDbEntity
  8
0
  6
Continuous
 62
     7
370
    15
100
AcDbCircle
 10
1433.3496587629
 20
1451.5133259804
 30
0.0
 40
0.2000000000001302
100
AcDbArc
 50
225.0
 51
270.0
  0
ARC
  5
1CA
330
1F
100
AcDbEntity
  8
0
  6
Continuous
 62
     7
370
    15
100
AcDbCircle
 10
1433.3496587629
 20
1481.1133259804
 30
0.0
 40
0.200000000000291
100
AcDbArc
 50
90.0
 51
135.0
  0
ARC
  5
1CB
330
1F
100
AcDbEntity
  8
0
  6
Continuous
 62
     7
370
    15
100
AcDbCircle
 10
1434.0668160505
 20
1481.1133259804
 30
0.0
 40
0.2000000000000455
100
AcDbArc
 50
0.0
 51
90.0
  0
ARC
  5
1CC
330
1F
100
AcDbEntity
  8
0
  6
Continuous
 62
     7
370
    15
100
AcDbCircle
 10
1434.0668160505
 20
1451.5133259804
 30
0.0
 40
0.2000000000000455
100
AcDbArc
 50
270.0
 51
0.0
  0
LINE
  5
1CD
330
1F
100
AcDbEntity
  8
0
  6
Continuous
 62
     7
370
    15
100
AcDbLine
 10
1433.3496583483
 20
1451.3133290203
 30
0.0
 11
1434.0668158463
 21
1451.3133290203
 31
0.0
  0
LINE
  5
1CE
330
1F
100
AcDbEntity
  8
0
  6
Continuous
 62
     7
370
    15
100
AcDbLine
 10
1434.0668158463
 20
1481.3133227618
 30
0.0
 11
1433.3496583483
 21
1481.3133227618
 31
0.0
  0
LINE
  5
1CF
330
1F
100
AcDbEntity
  8
0
  6
Continuous
 62
     7
370
    15
100
AcDbLine
 10
1433.2082370154
 20
1481.2547462971
 30
0.0
 11
1431.3253942735
 21
1479.3719026239
 31
0.0
  0
LINE
  5
1D0
330
1F
100
AcDbEntity
  8
0
  6
Continuous
 62
     7
370
    15
100
AcDbLine
 10
1431.3253942735
 20
1453.2547491582
 30
0.0
 11
1433.2082370154
 21
1451.3719054849
 31
0.0
  0
ARC
  5
1D1
330
1F
100
AcDbEntity
  8
0
  6
Continuous
 62
     7
370
    15
100
AcDbCircle
 10
1431.4668160505
 20
1479.230483268
 30
0.0
 40
0.200000000000291
100
AcDbArc
 50
134.9999999999
 51
180.0
  0
ARC
  5
1D2
330
1F
100
AcDbEntity
  8
0
  6
Continuous
 62
     7
370
    15
100
AcDbCircle
 10
1431.4668160505
 20
1453.3961686929
 30
0.0
 40
0.2000000000000455
100
AcDbArc
 50
180.0
 51
225.0
  0
LINE
  5
1D3
330
1F
100
AcDbEntity
  8
0
  6
Continuous
 62
     7
370
    15
100
AcDbLine
 10
1434.7668155885
 20
1476.0633232982
 30
0.0
 11
1434.2668164379
 21
1476.0633232982
 31
0.0
  0
LINE
  5
1D4
330
1F
100
AcDbEntity
  8
0
  6
Continuous
 62
     7
370
    15
100
AcDbLine
 10
1434.2668164379
 20
1456.5633284838
 30
0.0
 11
1434.7668155885
 21
1456.5633284838
 31
0.0
  0
LINE
  5
1D5
330
1F
100
AcDbEntity
  8
0
  6
Continuous
 62
     7
370
    15
100
AcDbLine
 10
1455.7668162367
 20
1495.3133287819
 30
0.0
 11
1454.2668159909
 21
1495.3133287819
 31
0.0
  0
LINE
  5
1D6
330
1F
100
AcDbEntity
  8
0
  6
Continuous
 62
     7
370
    15
100
AcDbLine
 10
1436.2668158344
 20
1495.3133287819
 30
0.0
 11
1434.7668155885
 21
1495.3133287819
 31
0.0
  0
LINE
  5
1D7
330
1F
100
AcDbEntity
  8
0
  6
Continuous
 62
     7
370
    15
100
AcDbLine
 10
1437.287244559
 20
1495.3133287819
 30
0.0
 11
1436.2668158344
 21
1495.3133287819
 31
0.0
  0
ARC
  5
1D8
330
1F
100
AcDbEntity
  8
0
  6
Continuous
 62
     7
370
    15
100
AcDbCircle
 10
1445.2928674737
 20
1504.9133259804
 30
0.0
 40
12.49999999999991
100
AcDbArc
 50
230.1746287392
 51
309.8253712608
  0
LINE
  5
1D9
330
1F
100
AcDbEntity
  8
0
  6
Continuous
 62
     7
370
    15
100
AcDbLine
 10
1454.2668159909
 20
1495.3133287819
 30
0.0
 11
1453.2984901077
 21
1495.3133287819
 31
0.0
  0
LINE
  5
1DA
330
1F
100
AcDbEntity
  8
0
  6
Continuous
 62
     7
370
    15
100
AcDbLine
 10
1466.9168159223
 20
1262.3133259804
 30
0.0
 11
1468.266816423
 21
1262.3133259804
 31
0.0
  0
LINE
  5
1DB
330
1F
100
AcDbEntity
  8
0
  6
Continuous
 62
     7
370
    15
100
AcDbLine
 10
1462.2668154395
 20
1262.3133259804
 30
0.0
 11
1463.6374391473
 21
1262.3133259804
 31
0.0
  0
LINE
  5
1DC
330
1F
100
AcDbEntity
  8
0
  6
Continuous
 62
     7
370
    15
100
AcDbLine
 10
1468.266816423
 20
1481.3133227618
 30
0.0
 11
1462.2668154395
 21
1481.3133227618
 31
0.0
  0
LINE
  5
1DD
330
1F
100
AcDbEntity
  8
0
  6
Continuous
 62
     7
370
    15
100
AcDbLine
 10
1461.9668159491
 20
1481.3133227618
 30
0.0
 11
1456.5668158091
 21
1481.3133227618
 31
0.0
  0
LINE
  5
1DE
330
1F
100
AcDbEntity
  8
0
  6
Continuous
 62
     7
370
    15
100
AcDbLine
 10
1456.5668158091
 20
1451.3133290203
 30
0.0
 11
1461.9668159491
 21
1451.3133290203
 31
0.0
  0
LINE
  5
1DF
330
1F
100
AcDbEntity
  8
0
  6
Continuous
 62
     7
370
    15
100
AcDbLine
 10
1456.5668158091
 20
1481.3133227618
 30
0.0
 11
1456.2668163187
 21
1481.013325134
 31
0.0
  0
LINE
  5
1E0
330
1F
100
AcDbEntity
  8
0
  6
Continuous
 62
     7
370
    15
100
AcDbLine
 10
1456.2668163187
 20
1451.613326648
 30
0.0
 11
1456.5668158091
 21
1451.3133290203
 31
0.0
  0
LINE
  5
1E1
330
1F
100
AcDbEntity
  8
0
  6
Continuous
 62
     7
370
    15
100
AcDbLine
 10
1461.9668159491
 20
1451.3133290203
 30
0.0
 11
1462.2668154395
 21
1451.613326648
 31
0.0
  0
LINE
  5
1E2
330
1F
100
AcDbEntity
  8
0
  6
Continuous
 62
     7
370
    15
100
AcDbLine
 10
1462.2668154395
 20
1481.013325134
 30
0.0
 11
1461.9668159491
 21
1481.3133227618
 31
0.0
  0
LINE
  5
1E3
330
1F
100
AcDbEntity
  8
0
  6
Continuous
 62
     7
370
    15
100
AcDbLine
 10
1456.2668163187
 20
1476.0633232982
 30
0.0
 11
1455.7668162367
 21
1476.0633232982
 31
0.0
  0
LINE
  5
1E4
330
1F
100
AcDbEntity
  8
0
  6
Continuous
 62
     7
370
    15
100
AcDbLine
 10
1455.7668162367
 20
1456.5633284838
 30
0.0
 11
1456.2668163187
 21
1456.5633284838
 31
0.0
  0
LINE
  5
1E5
330
1F
100
AcDbEntity
  8
0
  6
Continuous
 62
     7
370
    15
100
AcDbLine
 10
1451.2668164304
 20
1385.3133258854
 30
0.0
 11
1443.2668160505
 21
1385.3133258854
 31
0.0
  0
LINE
  5
1E6
330
1F
100
AcDbEntity
  8
0
  6
Continuous
 62
     7
370
    15
100
AcDbLine
 10
1443.2668160505
 20
1387.3133259804
 30
0.0
 11
1451.2668164304
 21
1387.3133259804
 31
0.0
  0
LINE
  5
1E7
330
1F
100
AcDbEntity
  8
0
  6
Continuous
 62
     7
370
    15
100
AcDbLine
 10
1451.2668164304
 20
1387.3133259804
 30
0.0
 11
1451.2668164304
 21
1385.3133258854
 31
0.0
  0
LINE
  5
1E8
330
1F
100
AcDbEntity
  8
0
  6
Continuous
 62
     7
370
    15
100
AcDbLine
 10
1443.2668160505
 20
1385.3133258854
 30
0.0
 11
1443.2668160505
 21
1387.3133259804
 31
0.0
  0
LINE
  5
1E9
330
1F
100
AcDbEntity
  8
0
  6
Continuous
 62
     7
370
    15
100
AcDbLine
 10
1451.2668164304
 20
1385.3133258854
 30
0.0
 11
1451.2668164304
 21
-660.6867712943
 31
0.0
  0
LINE
  5
1EA
330
1F
100
AcDbEntity
  8
0
  6
Continuous
 62
     7
370
    15
100
AcDbLine
 10
1443.2668160505
 20
-660.6867712943
 30
0.0
 11
1451.2668164304
 21
-660.6867712943
 31
0.0
  0
LINE
  5
1EB
330
1F
100
AcDbEntity
  8
0
  6
Continuous
 62
     7
370
    15
100
AcDbLine
 10
1443.2668160505
 20
1385.3133258854
 30
0.0
 11
1443.2668160505
 21
-660.6867712943
 31
0.0
  0
LINE
  5
1EC
330
1F
100
AcDbEntity
  8
0
  6
Continuous
 62
     7
370
    15
100
AcDbLine
 10
1451.2668164304
 20
-662.6866263359
 30
0.0
 11
1443.2668160505
 21
-662.6866263359
 31
0.0
  0
LINE
  5
1ED
330
1F
100
AcDbEntity
  8
0
  6
Continuous
 62
     7
370
    15
100
AcDbLine
 10
1451.2668164304
 20
-660.6867712943
 30
0.0
 11
1451.2668164304
 21
-662.6866263359
 31
0.0
  0
LINE
  5
1EE
330
1F
100
AcDbEntity
  8
0
  6
Continuous
 62
     7
370
    15
100
AcDbLine
 10
1443.2668160505
 20
-662.6866263359
 30
0.0
 11
1443.2668160505
 21
-660.6867712943
 31
0.0
  0
LINE
  5
1EF
330
1F
100
AcDbEntity
  8
0
  6
Continuous
 62
     7
370
    15
100
AcDbLine
 10
1461.8928670741
 20
1447.7133276851
 30
0.0
 11
1461.8928670741
 21
1407.7133267166
 31
0.0
  0
LINE
  5
1F0
330
1F
100
AcDbEntity
  8
0
  6
Continuous
 62
     7
370
    15
100
AcDbLine
 10
1469.8928683854
 20
1447.7133276851
 30
0.0
 11
1469.8928683854
 21
1407.7133267166
 31
0.0
  0
LINE
  5
1F1
330
1F
100
AcDbEntity
  8
0
  6
Continuous
 62
     7
370
    15
100
AcDbLine
 10
1431.092867241
 20
1443.7133270295
 30
0.0
 11
1431.092867241
 21
1411.7133255096
 31
0.0
  0
LINE
  5
1F2
330
1F
100
AcDbEntity
  8
0
  6
Continuous
 62
     7
370
    15
100
AcDbLine
 10
1429.2928675047
 20
1413.5133261771
 30
0.0
 11
1429.2928675047
 21
1441.9133263619
 31
0.0
  0
LINE
  5
1F3
330
1F
100
AcDbEntity
  8
0
  6
Continuous
 62
     7
370
    15
100
AcDbLine
 10
1432.692867317
 20
1427.7133244069
 30
0.0
 11
1432.898398102
 21
1429.1335131021
 31
0.0
  0
SPLINE
  5
1F4
330
1F
100
AcDbEntity
  8
0
  6
Continuous
 62
     7
370
    15
100
AcDbSpline
210
0.0
220
0.0
230
1.0
 70
     8
 71
     3
 72
     9
 73
     5
 74
     0
 42
0.00000001
 43
0.00000001
 40
0.0
 40
0.0
 40
0.0
 40
0.0
 40
0.4131069906119217
 40
0.9999999999999999
 40
0.9999999999999999
 40
0.9999999999999999
 40
0.9999999999999999
 10
1433.061119713543
 20
1425.143108794221
 30
0.0
 10
1432.955570913587
 20
1425.482928579883
 30
0.0
 10
1432.700071001084
 20
1426.305523678454
 30
0.0
 10
1432.695531511602
 20
1427.192666491541
 30
0.0
 10
1432.692867316959
 20
1427.713324406871
 30
0.0
  0
LINE
  5
1F5
330
1F
100
AcDbEntity
  8
0
  6
Continuous
 62
     7
370
    15
100
AcDbLine
 10
1428.7928674228
 20
1451.7133283408
 30
0.0
 11
1428.7928674228
 21
1403.7133260609
 31
0.0
  0
LINE
  5
1F6
330
1F
100
AcDbEntity
  8
0
  6
Continuous
 62
     7
370
    15
100
AcDbLine
 10
1427.7928672588
 20
1402.713325897
 30
0.0
 11
1427.7928672588
 21
1452.7133229168
 31
0.0
  0
LINE
  5
1F7
330
1F
100
AcDbEntity
  8
0
  6
Continuous
 62
     7
370
    15
100
AcDbLine
 10
1425.792866931
 20
1452.7133229168
 30
0.0
 11
1425.792866931
 21
1402.713325897
 31
0.0
  0
CIRCLE
  5
1F8
330
1F
100
AcDbEntity
  8
0
  6
Continuous
 62
     7
370
    15
100
AcDbCircle
 10
1445.2928674737
 20
1427.7133259804
 30
0.0
 40
12.49999999999986
  0
CIRCLE
  5
1F9
330
1F
100
AcDbEntity
  8
0
  6
Continuous
 62
     7
370
    15
100
AcDbCircle
 10
1445.2928674737
 20
1427.7133259804
 30
0.0
 40
12.30000000000017
  0
LINE
  5
1FA
330
1F
100
AcDbEntity
  8
0
  6
Continuous
 62
     7
370
    15
100
AcDbLine
 10
1442.7668160267
 20
-652.6866358726
 30
0.0
 11
1439.7668159424
 21
-652.6866358726
 31
0.0
  0
LINE
  5
1FB
330
1F
100
AcDbEntity
  8
0
  6
Continuous
 62
     7
370
    15
100
AcDbLine
 10
1442.7668160267
 20
-652.6866358726
 30
0.0
 11
1442.7668160267
 21
-666.6865748374
 31
0.0
  0
LINE
  5
1FC
330
1F
100
AcDbEntity
  8
0
  6
Continuous
 62
     7
370
    15
100
AcDbLine
 10
1454.7668160728
 20
-652.6866358726
 30
0.0
 11
1451.7668165124
 21
-652.6866358726
 31
0.0
  0
LINE
  5
1FD
330
1F
100
AcDbEntity
  8
0
  6
Continuous
 62
     7
370
    15
100
AcDbLine
 10
1451.7668165124
 20
-652.6866358726
 30
0.0
 11
1451.7668165124
 21
-666.6865748374
 31
0.0
  0
LINE
  5
1FE
330
1F
100
AcDbEntity
  8
0
  6
Continuous
 62
     7
370
    15
100
AcDbLine
 10
1439.7668159424
 20
-666.6865748374
 30
0.0
 11
1454.7668160728
 21
-666.6865748374
 31
0.0
  0
LINE
  5
1FF
330
1F
100
AcDbEntity
  8
0
  6
Continuous
 62
     7
370
    15
100
AcDbLine
 10
1454.9668157331
 20
-666.8866080253
 30
0.0
 11
1454.7668160728
 21
-666.6865748374
 31
0.0
  0
LINE
  5
200
330
1F
100
AcDbEntity
  8
0
  6
Continuous
 62
     7
370
    15
100
AcDbLine
 10
1454.9668157331
 20
-666.8866080253
 30
0.0
 11
1439.5668160494
 21
-666.8866080253
 31
0.0
  0
LINE
  5
201
330
1F
100
AcDbEntity
  8
0
  6
Continuous
 62
     7
370
    15
100
AcDbLine
 10
1439.7668159424
 20
-666.6865748374
 30
0.0
 11
1439.5668160494
 21
-666.8866080253
 31
0.0
  0
LINE
  5
202
330
1F
100
AcDbEntity
  8
0
  6
Continuous
 62
     7
370
    15
100
AcDbLine
 10
1439.7668159424
 20
-653.186599633
 30
0.0
 11
1439.7668159424
 21
-666.6865748374
 31
0.0
  0
LINE
  5
203
330
1F
100
AcDbEntity
  8
0
  6
Continuous
 62
     7
370
    15
100
AcDbLine
 10
1439.5668160494
 20
-666.8866080253
 30
0.0
 11
1439.5668160494
 21
-653.186599633
 31
0.0
  0
LINE
  5
204
330
1F
100
AcDbEntity
  8
0
  6
Continuous
 62
     7
370
    15
100
AcDbLine
 10
1439.7668159424
 20
-653.186599633
 30
0.0
 11
1439.5668160494
 21
-653.186599633
 31
0.0
  0
LINE
  5
205
330
1F
100
AcDbEntity
  8
0
  6
Continuous
 62
     7
370
    15
100
AcDbLine
 10
1454.9668157331
 20
-653.186599633
 30
0.0
 11
1454.9668157331
 21
-666.8866080253
 31
0.0
  0
LINE
  5
206
330
1F
100
AcDbEntity
  8
0
  6
Continuous
 62
     7
370
    15
100
AcDbLine
 10
1454.7668160728
 20
-666.6865748374
 30
0.0
 11
1454.7668160728
 21
-653.186599633
 31
0.0
  0
LINE
  5
207
330
1F
100
AcDbEntity
  8
0
  6
Continuous
 62
     7
370
    15
100
AcDbLine
 10
1454.9668157331
 20
-653.186599633
 30
0.0
 11
1454.7668160728
 21
-653.186599633
 31
0.0
  0
LINE
  5
208
330
1F
100
AcDbEntity
  8
0
  6
Continuous
 62
     7
370
    15
100
AcDbLine
 10
1437.4668161242
 20
-653.186599633
 30
0.0
 11
1437.4668161242
 21
-670.4867285697
 31
0.0
  0
LINE
  5
209
330
1F
100
AcDbEntity
  8
0
  6
Continuous
 62
     7
370
    15
100
AcDbLine
 10
1437.4668161242
 20
-670.4867285697
 30
0.0
 11
1437.2668159983
 21
-670.4867285697
 31
0.0
  0
LINE
  5
20A
330
1F
100
AcDbEntity
  8
0
  6
Continuous
 62
     7
370
    15
100
AcDbLine
 10
1437.2668159983
 20
-670.4867285697
 30
0.0
 11
1437.2668159983
 21
-653.186599633
 31
0.0
  0
LINE
  5
20B
330
1F
100
AcDbEntity
  8
0
  6
Continuous
 62
     7
370
    15
100
AcDbLine
 10
1437.4668161242
 20
-653.186599633
 30
0.0
 11
1437.2668159983
 21
-653.186599633
 31
0.0
  0
LINE
  5
20C
330
1F
100
AcDbEntity
  8
0
  6
Continuous
 62
     7
370
    15
100
AcDbLine
 10
1439.5668160494
 20
-653.186599633
 30
0.0
 11
1437.4668161242
 21
-653.186599633
 31
0.0
  0
LINE
  5
20D
330
1F
100
AcDbEntity
  8
0
  6
Continuous
 62
     7
370
    15
100
AcDbLine
 10
1457.066815891
 20
-653.186599633
 30
0.0
 11
1454.9668157331
 21
-653.186599633
 31
0.0
  0
LINE
  5
20E
330
1F
100
AcDbEntity
  8
0
  6
Continuous
 62
     7
370
    15
100
AcDbLine
 10
1457.066815891
 20
-670.4867285697
 30
0.0
 11
1457.066815891
 21
-653.186599633
 31
0.0
  0
LINE
  5
20F
330
1F
100
AcDbEntity
  8
0
  6
Continuous
 62
     7
370
    15
100
AcDbLine
 10
1437.4668161242
 20
-670.4867285697
 30
0.0
 11
1457.066815891
 21
-670.4867285697
 31
0.0
  0
LINE
  5
210
330
1F
100
AcDbEntity
  8
0
  6
Continuous
 62
     7
370
    15
100
AcDbLine
 10
1457.2668164826
 20
-653.186599633
 30
0.0
 11
1457.2668164826
 21
-670.4867285697
 31
0.0
  0
LINE
  5
211
330
1F
100
AcDbEntity
  8
0
  6
Continuous
 62
     7
370
    15
100
AcDbLine
 10
1457.066815891
 20
-670.4867285697
 30
0.0
 11
1457.2668164826
 21
-670.4867285697
 31
0.0
  0
LINE
  5
212
330
1F
100
AcDbEntity
  8
0
  6
Continuous
 62
     7
370
    15
100
AcDbLine
 10
1457.2668164826
 20
-653.186599633
 30
0.0
 11
1457.066815891
 21
-653.186599633
 31
0.0
  0
LINE
  5
213
330
1F
100
AcDbEntity
  8
0
  6
Continuous
 62
     7
370
    15
100
AcDbLine
 10
1457.2668164826
 20
-650.8865756004
 30
0.0
 11
1457.2668164826
 21
-653.186599633
 31
0.0
  0
LINE
  5
214
330
1F
100
AcDbEntity
  8
0
  6
Continuous
 62
     7
370
    15
100
AcDbLine
 10
1457.066815891
 20
-653.186599633
 30
0.0
 11
1457.066815891
 21
-650.6867808311
 31
0.0
  0
LINE
  5
215
330
1F
100
AcDbEntity
  8
0
  6
Continuous
 62
     7
370
    15
100
AcDbLine
 10
1457.2668164826
 20
-650.8865756004
 30
0.0
 11
1457.066815891
 21
-650.6867808311
 31
0.0
  0
LINE
  5
216
330
1F
100
AcDbEntity
  8
0
  6
Continuous
 62
     7
370
    15
100
AcDbLine
 10
1457.066815891
 20
-670.6867617576
 30
0.0
 11
1457.2668164826
 21
-670.4867285697
 31
0.0
  0
LINE
  5
217
330
1F
100
AcDbEntity
  8
0
  6
Continuous
 62
     7
370
    15
100
AcDbLine
 10
1457.066815891
 20
-670.4867285697
 30
0.0
 11
1457.066815891
 21
-670.6867617576
 31
0.0
  0
LINE
  5
218
330
1F
100
AcDbEntity
  8
0
  6
Continuous
 62
     7
370
    15
100
AcDbLine
 10
1454.9668157331
 20
-650.6867808311
 30
0.0
 11
1454.9668157331
 21
-653.186599633
 31
0.0
  0
LINE
  5
219
330
1F
100
AcDbEntity
  8
0
  6
Continuous
 62
     7
370
    15
100
AcDbLine
 10
1454.7668160728
 20
-653.186599633
 30
0.0
 11
1454.7668160728
 21
-650.8865756004
 31
0.0
  0
LINE
  5
21A
330
1F
100
AcDbEntity
  8
0
  6
Continuous
 62
     7
370
    15
100
AcDbLine
 10
1454.9668157331
 20
-650.6867808311
 30
0.0
 11
1454.7668160728
 21
-650.8865756004
 31
0.0
  0
LINE
  5
21B
330
1F
100
AcDbEntity
  8
0
  6
Continuous
 62
     7
370
    15
100
AcDbLine
 10
1457.066815891
 20
-650.6867808311
 30
0.0
 11
1454.9668157331
 21
-650.6867808311
 31
0.0
  0
LINE
  5
21C
330
1F
100
AcDbEntity
  8
0
  6
Continuous
 62
     7
370
    15
100
AcDbLine
 10
1439.5668160494
 20
-653.186599633
 30
0.0
 11
1439.5668160494
 21
-650.6867808311
 31
0.0
  0
LINE
  5
21D
330
1F
100
AcDbEntity
  8
0
  6
Continuous
 62
     7
370
    15
100
AcDbLine
 10
1437.4668161242
 20
-650.6867808311
 30
0.0
 11
1437.4668161242
 21
-653.186599633
 31
0.0
  0
LINE
  5
21E
330
1F
100
AcDbEntity
  8
0
  6
Continuous
 62
     7
370
    15
100
AcDbLine
 10
1439.5668160494
 20
-650.6867808311
 30
0.0
 11
1437.4668161242
 21
-650.6867808311
 31
0.0
  0
LINE
  5
21F
330
1F
100
AcDbEntity
  8
0
  6
Continuous
 62
     7
370
    15
100
AcDbLine
 10
1439.7668159424
 20
-650.8865756004
 30
0.0
 11
1439.7668159424
 21
-653.186599633
 31
0.0
  0
LINE
  5
220
330
1F
100
AcDbEntity
  8
0
  6
Continuous
 62
     7
370
    15
100
AcDbLine
 10
1439.7668159424
 20
-650.8865756004
 30
0.0
 11
1439.5668160494
 21
-650.6867808311
 31
0.0
  0
LINE
  5
221
330
1F
100
AcDbEntity
  8
0
  6
Continuous
 62
     7
370
    15
100
AcDbLine
 10
1437.4668161242
 20
-670.4867285697
 30
0.0
 11
1437.4668161242
 21
-670.6867617576
 31
0.0
  0
LINE
  5
222
330
1F
100
AcDbEntity
  8
0
  6
Continuous
 62
     7
370
    15
100
AcDbLine
 10
1437.2668159983
 20
-670.4867285697
 30
0.0
 11
1437.4668161242
 21
-670.6867617576
 31
0.0
  0
LINE
  5
223
330
1F
100
AcDbEntity
  8
0
  6
Continuous
 62
     7
370
    15
100
AcDbLine
 10
1457.066815891
 20
-670.6867617576
 30
0.0
 11
1437.4668161242
 21
-670.6867617576
 31
0.0
  0
LINE
  5
224
330
1F
100
AcDbEntity
  8
0
  6
Continuous
 62
     7
370
    15
100
AcDbLine
 10
1437.2668159983
 20
-653.186599633
 30
0.0
 11
1437.2668159983
 21
-650.8865756004
 31
0.0
  0
LINE
  5
225
330
1F
100
AcDbEntity
  8
0
  6
Continuous
 62
     7
370
    15
100
AcDbLine
 10
1437.4668161242
 20
-650.6867808311
 30
0.0
 11
1437.2668159983
 21
-650.8865756004
 31
0.0
  0
LINE
  5
226
330
1F
100
AcDbEntity
  8
0
  6
Continuous
 62
     7
370
    15
100
AcDbLine
 10
1473.8928671784
 20
1422.7654199095
 30
0.0
 11
1473.8928671784
 21
1414.796169007
 31
0.0
  0
LINE
  5
227
330
1F
100
AcDbEntity
  8
0
  6
Continuous
 62
     7
370
    15
100
AcDbLine
 10
1473.8928671784
 20
1440.6304816694
 30
0.0
 11
1473.8928671784
 21
1422.7654199095
 31
0.0
  0
LINE
  5
228
330
1F
100
AcDbEntity
  8
0
  6
Continuous
 62
     7
370
    15
100
AcDbLine
 10
1441.2668159555
 20
1347.1133272142
 30
0.0
 11
1441.2668159555
 21
1317.513329068
 31
0.0
  0
LINE
  5
229
330
1F
100
AcDbEntity
  8
0
  6
Continuous
 62
     7
370
    15
100
AcDbLine
 10
1437.2668159983
 20
1319.3961652906
 30
0.0
 11
1437.2668159983
 21
1345.230483541
 31
0.0
  0
LINE
  5
22A
330
1F
100
AcDbEntity
  8
0
  6
Continuous
 62
     7
370
    15
100
AcDbLine
 10
1441.2668159555
 20
1292.113323787
 30
0.0
 11
1441.2668159555
 21
1262.513329366
 31
0.0
  0
LINE
  5
22B
330
1F
100
AcDbEntity
  8
0
  6
Continuous
 62
     7
370
    15
100
AcDbLine
 10
1437.2668159983
 20
1264.3961655886
 30
0.0
 11
1437.2668159983
 21
1290.2304801138
 31
0.0
  0
LINE
  5
22C
330
1F
100
AcDbEntity
  8
0
  6
Continuous
 62
     7
370
    15
100
AcDbLine
 10
1452.766815745
 20
1332.3122831972
 30
0.0
 11
1452.766815745
 21
1347.1133272142
 31
0.0
  0
LINE
  5
22D
330
1F
100
AcDbEntity
  8
0
  6
Continuous
 62
     7
370
    15
100
AcDbLine
 10
1452.766815745
 20
1317.513329068
 30
0.0
 11
1452.766815745
 21
1332.3122831972
 31
0.0
  0
LINE
  5
22E
330
1F
100
AcDbEntity
  8
0
  6
Continuous
 62
     7
370
    15
100
AcDbLine
 10
1452.9668163366
 20
1332.312268296
 30
0.0
 11
1452.9668163366
 21
1317.3133256824
 31
0.0
  0
LINE
  5
22F
330
1F
100
AcDbEntity
  8
0
  6
Continuous
 62
     7
370
    15
100
AcDbLine
 10
1452.9668163366
 20
1347.3133268745
 30
0.0
 11
1452.9668163366
 21
1332.312268296
 31
0.0
  0
LINE
  5
230
330
1F
100
AcDbEntity
  8
0
  6
Continuous
 62
     7
370
    15
100
AcDbLine
 10
1462.0668157793
 20
1332.312268296
 30
0.0
 11
1462.0668157793
 21
1347.3133268745
 31
0.0
  0
LINE
  5
231
330
1F
100
AcDbEntity
  8
0
  6
Continuous
 62
     7
370
    15
100
AcDbLine
 10
1462.0668157793
 20
1317.3133256824
 30
0.0
 11
1462.0668157793
 21
1332.312268296
 31
0.0
  0
LINE
  5
232
330
1F
100
AcDbEntity
  8
0
  6
Continuous
 62
     7
370
    15
100
AcDbLine
 10
1452.9668163366
 20
1276.7244252355
 30
0.0
 11
1452.9668163366
 21
1262.3133259804
 31
0.0
  0
LINE
  5
233
330
1F
100
AcDbEntity
  8
0
  6
Continuous
 62
     7
370
    15
100
AcDbLine
 10
1452.9668163366
 20
1292.3133271725
 30
0.0
 11
1452.9668163366
 21
1276.7244252355
 31
0.0
  0
LINE
  5
234
330
1F
100
AcDbEntity
  8
0
  6
Continuous
 62
     7
370
    15
100
AcDbLine
 10
1462.0668157793
 20
1276.7244252355
 30
0.0
 11
1462.0668157793
 21
1292.3133271725
 31
0.0
  0
LINE
  5
235
330
1F
100
AcDbEntity
  8
0
  6
Continuous
 62
     7
370
    15
100
AcDbLine
 10
1462.0668157793
 20
1262.3133259804
 30
0.0
 11
1462.0668157793
 21
1276.7244252355
 31
0.0
  0
LINE
  5
236
330
1F
100
AcDbEntity
  8
0
  6
Continuous
 62
     7
370
    15
100
AcDbLine
 10
1452.766815745
 20
1276.7322781475
 30
0.0
 11
1452.766815745
 21
1292.113323787
 31
0.0
  0
LINE
  5
237
330
1F
100
AcDbEntity
  8
0
  6
Continuous
 62
     7
370
    15
100
AcDbLine
 10
1452.766815745
 20
1262.513329366
 30
0.0
 11
1452.766815745
 21
1276.7322781475
 31
0.0
  0
LINE
  5
238
330
1F
100
AcDbEntity
  8
0
  6
Continuous
 62
     7
370
    15
100
AcDbLine
 10
1471.2668169147
 20
1318.9748945625
 30
0.0
 11
1471.2668169147
 21
1347.3133268745
 31
0.0
  0
LINE
  5
239
330
1F
100
AcDbEntity
  8
0
  6
Continuous
 62
     7
370
    15
100
AcDbLine
 10
1471.2668169147
 20
1317.3133256824
 30
0.0
 11
1471.2668169147
 21
1318.9748945625
 31
0.0
  0
LINE
  5
23A
330
1F
100
AcDbEntity
  8
0
  6
Continuous
 62
     7
370
    15
100
AcDbLine
 10
1473.2668153799
 20
1320.7533556016
 30
0.0
 11
1473.2668153799
 21
1319.3133222849
 31
0.0
  0
LINE
  5
23B
330
1F
100
AcDbEntity
  8
0
  6
Continuous
 62
     7
370
    15
100
AcDbLine
 10
1473.2668153799
 20
1345.3133265467
 30
0.0
 11
1473.2668153799
 21
1320.7533556016
 31
0.0
  0
LINE
  5
23C
330
1F
100
AcDbEntity
  8
0
  6
Continuous
 62
     7
370
    15
100
AcDbLine
 10
1468.266816423
 20
1269.7084742577
 30
0.0
 11
1468.266816423
 21
1277.3133265765
 31
0.0
  0
LINE
  5
23D
330
1F
100
AcDbEntity
  8
0
  6
Continuous
 62
     7
370
    15
100
AcDbLine
 10
1468.266816423
 20
1262.3133259804
 30
0.0
 11
1468.266816423
 21
1269.7084742577
 31
0.0
  0
LINE
  5
23E
330
1F
100
AcDbEntity
  8
0
  6
Continuous
 62
     7
370
    15
100
AcDbLine
 10
1471.2668169147
 20
1269.7084742577
 30
0.0
 11
1471.2668169147
 21
1292.3133271725
 31
0.0
  0
LINE
  5
23F
330
1F
100
AcDbEntity
  8
0
  6
Continuous
 62
     7
370
    15
100
AcDbLine
 10
1471.2668169147
 20
1262.3133259804
 30
0.0
 11
1471.2668169147
 21
1269.7084742577
 31
0.0
  0
LINE
  5
240
330
1F
100
AcDbEntity
  8
0
  6
Continuous
 62
     7
370
    15
100
AcDbLine
 10
1473.2668153799
 20
1270.7224535735
 30
0.0
 11
1473.2668153799
 21
1264.313322583
 31
0.0
  0
LINE
  5
241
330
1F
100
AcDbEntity
  8
0
  6
Continuous
 62
     7
370
    15
100
AcDbLine
 10
1473.2668153799
 20
1290.3133231194
 30
0.0
 11
1473.2668153799
 21
1270.7224535735
 31
0.0
  0
LINE
  5
242
330
1F
100
AcDbEntity
  8
0
  6
Continuous
 62
     7
370
    15
100
AcDbLine
 10
1471.2668169147
 20
1406.3122692497
 30
0.0
 11
1471.2668169147
 21
1412.7133256735
 31
0.0
  0
LINE
  5
243
330
1F
100
AcDbEntity
  8
0
  6
Continuous
 62
     7
370
    15
100
AcDbLine
 10
1471.2668169147
 20
1391.3133261704
 30
0.0
 11
1471.2668169147
 21
1406.3122692497
 31
0.0
  0
LINE
  5
244
330
1F
100
AcDbEntity
  8
0
  6
Continuous
 62
     7
370
    15
100
AcDbLine
 10
1473.2668153799
 20
1406.3124108107
 30
0.0
 11
1473.2668153799
 21
1393.3133260326
 31
0.0
  0
LINE
  5
245
330
1F
100
AcDbEntity
  8
0
  6
Continuous
 62
     7
370
    15
100
AcDbLine
 10
1473.2668153799
 20
1414.0872742028
 30
0.0
 11
1473.2668153799
 21
1406.3124108107
 31
0.0
  0
LINE
  5
246
330
1F
100
AcDbEntity
  8
0
  6
Continuous
 62
     7
370
    15
100
AcDbLine
 10
1468.266816423
 20
1466.3122716339
 30
0.0
 11
1468.266816423
 21
1481.3133227618
 31
0.0
  0
LINE
  5
247
330
1F
100
AcDbEntity
  8
0
  6
Continuous
 62
     7
370
    15
100
AcDbLine
 10
1471.2668169147
 20
1466.3122716339
 30
0.0
 11
1471.2668169147
 21
1481.3133227618
 31
0.0
  0
LINE
  5
248
330
1F
100
AcDbEntity
  8
0
  6
Continuous
 62
     7
370
    15
100
AcDbLine
 10
1471.2668169147
 20
1451.3133290203
 30
0.0
 11
1471.2668169147
 21
1466.3122716339
 31
0.0
  0
LINE
  5
249
330
1F
100
AcDbEntity
  8
0
  6
Continuous
 62
     7
370
    15
100
AcDbLine
 10
1473.2668153799
 20
1466.3124131949
 30
0.0
 11
1473.2668153799
 21
1453.3133256228
 31
0.0
  0
LINE
  5
24A
330
1F
100
AcDbEntity
  8
0
  6
Continuous
 62
     7
370
    15
100
AcDbLine
 10
1473.2668153799
 20
1479.3133261592
 30
0.0
 11
1473.2668153799
 21
1466.3124131949
 31
0.0
  0
LINE
  5
24B
330
1F
100
AcDbEntity
  8
0
  6
Continuous
 62
     7
370
    15
100
AcDbLine
 10
1433.266816274
 20
1399.3133260847
 30
0.0
 11
1433.266816274
 21
1411.7133255096
 31
0.0
  0
LINE
  5
24C
330
1F
100
AcDbEntity
  8
0
  6
Continuous
 62
     7
370
    15
100
AcDbLine
 10
1434.2668164379
 20
1411.7133255096
 30
0.0
 11
1434.2668164379
 21
1398.3133259208
 31
0.0
  0
LINE
  5
24D
330
1F
100
AcDbEntity
  8
0
  6
Continuous
 62
     7
370
    15
100
AcDbLine
 10
1462.0668157793
 20
1398.3133259208
 30
0.0
 11
1462.0668157793
 21
1407.7133267166
 31
0.0
  0
LINE
  5
24E
330
1F
100
AcDbEntity
  8
0
  6
Continuous
 62
     7
370
    15
100
AcDbLine
 10
1434.2668164379
 20
1464.256410578
 30
0.0
 11
1434.2668164379
 21
1451.5133249552
 31
0.0
  0
LINE
  5
24F
330
1F
100
AcDbEntity
  8
0
  6
Continuous
 62
     7
370
    15
100
AcDbLine
 10
1434.2668164379
 20
1481.1133268268
 30
0.0
 11
1434.2668164379
 21
1464.256410578
 31
0.0
  0
LINE
  5
250
330
1F
100
AcDbEntity
  8
0
  6
Continuous
 62
     7
370
    15
100
AcDbLine
 10
1431.2668159462
 20
1464.5180898697
 30
0.0
 11
1431.2668159462
 21
1479.2304831536
 31
0.0
  0
LINE
  5
251
330
1F
100
AcDbEntity
  8
0
  6
Continuous
 62
     7
370
    15
100
AcDbLine
 10
1431.2668159462
 20
1453.3961686285
 30
0.0
 11
1431.2668159462
 21
1464.5180898697
 31
0.0
  0
LINE
  5
252
330
1F
100
AcDbEntity
  8
0
  6
Continuous
 62
     7
370
    15
100
AcDbLine
 10
1455.7668162367
 20
1466.3112807067
 30
0.0
 11
1455.7668162367
 21
1495.3133287819
 31
0.0
  0
LINE
  5
253
330
1F
100
AcDbEntity
  8
0
  6
Continuous
 62
     7
370
    15
100
AcDbLine
 10
1455.7668162367
 20
1443.7133270295
 30
0.0
 11
1455.7668162367
 21
1466.3112807067
 31
0.0
  0
LINE
  5
254
330
1F
100
AcDbEntity
  8
0
  6
Continuous
 62
     7
370
    15
100
AcDbLine
 10
1454.2668159909
 20
1466.3112807067
 30
0.0
 11
1454.2668159909
 21
1495.3133287819
 31
0.0
  0
LINE
  5
255
330
1F
100
AcDbEntity
  8
0
  6
Continuous
 62
     7
370
    15
100
AcDbLine
 10
1454.2668159909
 20
1443.7133270295
 30
0.0
 11
1454.2668159909
 21
1466.3112807067
 31
0.0
  0
LINE
  5
256
330
1F
100
AcDbEntity
  8
0
  6
Continuous
 62
     7
370
    15
100
AcDbLine
 10
1434.7668155885
 20
1495.3133287819
 30
0.0
 11
1434.7668155885
 21
1443.7133270295
 31
0.0
  0
LINE
  5
257
330
1F
100
AcDbEntity
  8
0
  6
Continuous
 62
     7
370
    15
100
AcDbLine
 10
1436.2668158344
 20
1495.3133287819
 30
0.0
 11
1436.2668158344
 21
1443.7133270295
 31
0.0
  0
LINE
  5
258
330
1F
100
AcDbEntity
  8
0
  6
Continuous
 62
     7
370
    15
100
AcDbLine
 10
1437.287244559
 20
1443.7133270295
 30
0.0
 11
1437.287244559
 21
1495.3133287819
 31
0.0
  0
LINE
  5
259
330
1F
100
AcDbEntity
  8
0
  6
Continuous
 62
     7
370
    15
100
AcDbLine
 10
1436.2668158344
 20
1465.1212441714
 30
0.0
 11
1436.2668158344
 21
1495.3133287819
 31
0.0
  0
LINE
  5
25A
330
1F
100
AcDbEntity
  8
0
  6
Continuous
 62
     7
370
    15
100
AcDbLine
 10
1436.2668158344
 20
1443.7133270295
 30
0.0
 11
1436.2668158344
 21
1465.1212441714
 31
0.0
  0
LINE
  5
25B
330
1F
100
AcDbEntity
  8
0
  6
Continuous
 62
     7
370
    15
100
AcDbLine
 10
1453.2984901077
 20
1465.1212441714
 30
0.0
 11
1453.2984901077
 21
1443.7133270295
 31
0.0
  0
LINE
  5
25C
330
1F
100
AcDbEntity
  8
0
  6
Continuous
 62
     7
370
    15
100
AcDbLine
 10
1453.2984901077
 20
1495.3133287819
 30
0.0
 11
1453.2984901077
 21
1465.1212441714
 31
0.0
  0
LINE
  5
25D
330
1F
100
AcDbEntity
  8
0
  6
Continuous
 62
     7
370
    15
100
AcDbLine
 10
1454.2668159909
 20
1465.1212441714
 30
0.0
 11
1454.2668159909
 21
1495.3133287819
 31
0.0
  0
LINE
  5
25E
330
1F
100
AcDbEntity
  8
0
  6
Continuous
 62
     7
370
    15
100
AcDbLine
 10
1454.2668159909
 20
1443.7133270295
 30
0.0
 11
1454.2668159909
 21
1465.1212441714
 31
0.0
  0
LINE
  5
25F
330
1F
100
AcDbEntity
  8
0
  6
Continuous
 62
     7
370
    15
100
AcDbLine
 10
1462.2668154395
 20
1277.3133265765
 30
0.0
 11
1468.266816423
 21
1277.3133265765
 31
0.0
  0
ARC
  5
260
330
1F
100
AcDbEntity
  8
0
  6
Continuous
 62
     7
370
    15
100
AcDbCircle
 10
1465.2668654794
 20
1247.3579979994
 30
0.0
 40
15.04606830648452
100
AcDbArc
 50
83.7042889556
 51
96.2170864708
  0
LINE
  5
261
330
1F
100
AcDbEntity
  8
0
  6
Continuous
 62
     7
370
    15
100
AcDbLine
 10
1468.266816423
 20
1262.3133259804
 30
0.0
 11
1468.266816423
 21
1277.3133265765
 31
0.0
  0
LINE
  5
262
330
1F
100
AcDbEntity
  8
0
  6
Continuous
 62
     7
370
    15
100
AcDbLine
 10
1462.2668154395
 20
1262.3133259804
 30
0.0
 11
1462.2668154395
 21
1277.3133265765
 31
0.0
  0
LINE
  5
263
330
1F
100
AcDbEntity
  8
0
  6
Continuous
 62
     7
370
    15
100
AcDbLine
 10
1462.2668154395
 20
1466.3133296163
 30
0.0
 11
1468.266816423
 21
1466.3133296163
 31
0.0
  0
LINE
  5
264
330
1F
100
AcDbEntity
  8
0
  6
Continuous
 62
     7
370
    15
100
AcDbLine
 10
1468.266816423
 20
1277.3133265765
 30
0.0
 11
1468.266816423
 21
1407.7133267166
 31
0.0
  0
LINE
  5
265
330
1F
100
AcDbEntity
  8
0
  6
Continuous
 62
     7
370
    15
100
AcDbLine
 10
1468.266816423
 20
1447.7133276851
 30
0.0
 11
1468.266816423
 21
1466.3133296163
 31
0.0
  0
LINE
  5
266
330
1F
100
AcDbEntity
  8
0
  6
Continuous
 62
     7
370
    15
100
AcDbLine
 10
1462.2668154395
 20
1277.3133265765
 30
0.0
 11
1462.2668154395
 21
1407.7133267166
 31
0.0
  0
LINE
  5
267
330
1F
100
AcDbEntity
  8
0
  6
Continuous
 62
     7
370
    15
100
AcDbLine
 10
1462.2668154395
 20
1447.7133276851
 30
0.0
 11
1462.2668154395
 21
1466.3133296163
 31
0.0
  0
LINE
  5
268
330
1F
100
AcDbEntity
  8
0
  6
Continuous
 62
     7
370
    15
100
AcDbLine
 10
1468.266816423
 20
1466.3133296163
 30
0.0
 11
1468.266816423
 21
1481.3133227618
 31
0.0
  0
LINE
  5
269
330
1F
100
AcDbEntity
  8
0
  6
Continuous
 62
     7
370
    15
100
AcDbLine
 10
1462.2668154395
 20
1466.3133296163
 30
0.0
 11
1462.2668154395
 21
1481.3133227618
 31
0.0
  0
LINE
  5
26A
330
1F
100
AcDbEntity
  8
0
  6
Continuous
 62
     7
370
    15
100
AcDbLine
 10
1456.5668158091
 20
1466.3122716339
 30
0.0
 11
1456.5668158091
 21
1451.3133290203
 31
0.0
  0
LINE
  5
26B
330
1F
100
AcDbEntity
  8
0
  6
Continuous
 62
     7
370
    15
100
AcDbLine
 10
1456.5668158091
 20
1481.3133227618
 30
0.0
 11
1456.5668158091
 21
1466.3122716339
 31
0.0
  0
LINE
  5
26C
330
1F
100
AcDbEntity
  8
0
  6
Continuous
 62
     7
370
    15
100
AcDbLine
 10
1461.9668159491
 20
1466.3122716339
 30
0.0
 11
1461.9668159491
 21
1481.3133227618
 31
0.0
  0
LINE
  5
26D
330
1F
100
AcDbEntity
  8
0
  6
Continuous
 62
     7
370
    15
100
AcDbLine
 10
1461.9668159491
 20
1451.3133290203
 30
0.0
 11
1461.9668159491
 21
1466.3122716339
 31
0.0
  0
LINE
  5
26E
330
1F
100
AcDbEntity
  8
0
  6
Continuous
 62
     7
370
    15
100
AcDbLine
 10
1456.2668163187
 20
1466.3122939856
 30
0.0
 11
1456.2668163187
 21
1481.013325134
 31
0.0
  0
LINE
  5
26F
330
1F
100
AcDbEntity
  8
0
  6
Continuous
 62
     7
370
    15
100
AcDbLine
 10
1456.2668163187
 20
1451.613326648
 30
0.0
 11
1456.2668163187
 21
1466.3122939856
 31
0.0
  0
LINE
  5
270
330
1F
100
AcDbEntity
  8
0
  6
Continuous
 62
     8
370
    15
100
AcDbLine
 10
1470.0928680456
 20
1421.9675893874
 30
0.0
 11
1470.0928680456
 21
1412.7133256735
 31
0.0
  0
LINE
  5
271
330
1F
100
AcDbEntity
  8
0
  6
Continuous
 62
     8
370
    15
100
AcDbLine
 10
1470.0928680456
 20
1442.7133250029
 30
0.0
 11
1470.0928680456
 21
1421.9675893874
 31
0.0
  0
LINE
  5
272
330
1F
100
AcDbEntity
  8
0
  6
Continuous
 62
     8
370
    15
100
AcDbLine
 10
1471.8100238449
 20
1412.7133256735
 30
0.0
 11
1471.8100238449
 21
1442.7133250029
 31
0.0
  0
LINE
  5
273
330
1F
100
AcDbEntity
  8
0
  6
Continuous
 62
     8
370
    15
100
AcDbLine
 10
1471.9514470405
 20
1421.9900305362
 30
0.0
 11
1471.9514470405
 21
1412.7719040008
 31
0.0
  0
LINE
  5
274
330
1F
100
AcDbEntity
  8
0
  6
Continuous
 62
     8
370
    15
100
AcDbLine
 10
1471.9514470405
 20
1442.6547485383
 30
0.0
 11
1471.9514470405
 21
1421.9900305362
 31
0.0
  0
LINE
  5
275
330
1F
100
AcDbEntity
  8
0
  6
Continuous
 62
     8
370
    15
100
AcDbLine
 10
1473.8342888511
 20
1422.7112504633
 30
0.0
 11
1473.8342888511
 21
1440.771904865
 31
0.0
  0
LINE
  5
276
330
1F
100
AcDbEntity
  8
0
  6
Continuous
 62
     8
370
    15
100
AcDbLine
 10
1473.8342888511
 20
1414.654747674
 30
0.0
 11
1473.8342888511
 21
1422.7112504633
 31
0.0
  0
LINE
  5
277
330
1F
100
AcDbEntity
  8
0
  6
Continuous
 62
     8
370
    15
100
AcDbLine
 10
1439.3496588661
 20
1318.3343234451
 30
0.0
 11
1439.3496588661
 21
1317.3133256824
 31
0.0
  0
LINE
  5
278
330
1F
100
AcDbEntity
  8
0
  6
Continuous
 62
     8
370
    15
100
AcDbLine
 10
1439.3496588661
 20
1347.3133268745
 30
0.0
 11
1439.3496588661
 21
1318.3343234451
 31
0.0
  0
LINE
  5
279
330
1F
100
AcDbEntity
  8
0
  6
Continuous
 62
     8
370
    15
100
AcDbLine
 10
1439.2082375332
 20
1317.3719021471
 30
0.0
 11
1439.2082375332
 21
1347.2547466846
 31
0.0
  0
LINE
  5
27A
330
1F
100
AcDbEntity
  8
0
  6
Continuous
 62
     8
370
    15
100
AcDbLine
 10
1441.0668160624
 20
1317.3133256824
 30
0.0
 11
1441.0668160624
 21
1347.3133268745
 31
0.0
  0
LINE
  5
27B
330
1F
100
AcDbEntity
  8
0
  6
Continuous
 62
     8
370
    15
100
AcDbLine
 10
1437.3253947913
 20
1345.3719030113
 30
0.0
 11
1437.3253947913
 21
1319.2547458203
 31
0.0
  0
LINE
  5
27C
330
1F
100
AcDbEntity
  8
0
  6
Continuous
 62
     8
370
    15
100
AcDbLine
 10
1439.3496588661
 20
1292.1062829883
 30
0.0
 11
1439.3496588661
 21
1262.3133259804
 31
0.0
  0
LINE
  5
27D
330
1F
100
AcDbEntity
  8
0
  6
Continuous
 62
     8
370
    15
100
AcDbLine
 10
1439.3496588661
 20
1292.3133271725
 30
0.0
 11
1439.3496588661
 21
1292.1062829883
 31
0.0
  0
LINE
  5
27E
330
1F
100
AcDbEntity
  8
0
  6
Continuous
 62
     8
370
    15
100
AcDbLine
 10
1441.0668160624
 20
1262.3133259804
 30
0.0
 11
1441.0668160624
 21
1292.3133271725
 31
0.0
  0
LINE
  5
27F
330
1F
100
AcDbEntity
  8
0
  6
Continuous
 62
     8
370
    15
100
AcDbLine
 10
1439.2082375332
 20
1262.3719024451
 30
0.0
 11
1439.2082375332
 21
1292.2547507079
 31
0.0
  0
LINE
  5
280
330
1F
100
AcDbEntity
  8
0
  6
Continuous
 62
     8
370
    15
100
AcDbLine
 10
1437.3253947913
 20
1290.3719070346
 30
0.0
 11
1437.3253947913
 21
1264.2547461183
 31
0.0
  0
LINE
  5
281
330
1F
100
AcDbEntity
  8
0
  6
Continuous
 62
     8
370
    15
100
AcDbLine
 10
1433.3496583483
 20
1481.3133227618
 30
0.0
 11
1433.3496583483
 21
1451.3133290203
 31
0.0
  0
LINE
  5
282
330
1F
100
AcDbEntity
  8
0
  6
Continuous
 62
     8
370
    15
100
AcDbLine
 10
1433.2082370154
 20
1464.2367559464
 30
0.0
 11
1433.2082370154
 21
1481.2547462971
 31
0.0
  0
LINE
  5
283
330
1F
100
AcDbEntity
  8
0
  6
Continuous
 62
     8
370
    15
100
AcDbLine
 10
1433.2082370154
 20
1451.3719054849
 30
0.0
 11
1433.2082370154
 21
1464.2367559464
 31
0.0
  0
LINE
  5
284
330
1F
100
AcDbEntity
  8
0
  6
Continuous
 62
     8
370
    15
100
AcDbLine
 10
1434.0668158463
 20
1464.2286124618
 30
0.0
 11
1434.0668158463
 21
1481.3133227618
 31
0.0
  0
LINE
  5
285
330
1F
100
AcDbEntity
  8
0
  6
Continuous
 62
     8
370
    15
100
AcDbLine
 10
1434.0668158463
 20
1451.3133290203
 30
0.0
 11
1434.0668158463
 21
1464.2286124618
 31
0.0
  0
LINE
  5
286
330
1F
100
AcDbEntity
  8
0
  6
Continuous
 62
     8
370
    15
100
AcDbLine
 10
1431.3253942735
 20
1464.4984352381
 30
0.0
 11
1431.3253942735
 21
1453.2547491582
 31
0.0
  0
LINE
  5
287
330
1F
100
AcDbEntity
  8
0
  6
Continuous
 62
     8
370
    15
100
AcDbLine
 10
1431.3253942735
 20
1479.3719026239
 30
0.0
 11
1431.3253942735
 21
1464.4984352381
 31
0.0
  0
LINE
  5
288
330
1F
100
AcDbEntity
  8
0
  6
Continuous
 62
     7
370
    15
100
AcDbLine
 10
-676.183171745
 20
-748.218022702
 30
0.0
 11
-686.1571224291
 21
-748.218022702
 31
0.0
  0
LINE
  5
289
330
1F
100
AcDbEntity
  8
0
  6
Continuous
 62
     7
370
    15
100
AcDbLine
 10
-715.2092235047
 20
-748.218022702
 30
0.0
 11
-718.6831684667
 21
-748.218022702
 31
0.0
  0
LINE
  5
28A
330
1F
100
AcDbEntity
  8
0
  6
Continuous
 62
     7
370
    15
100
AcDbLine
 10
-750.6831699866
 20
-748.218022702
 30
0.0
 11
-798.6831706367
 21
-748.218022702
 31
0.0
  0
LINE
  5
28B
330
1F
100
AcDbEntity
  8
0
  6
Continuous
 62
     7
370
    15
100
AcDbLine
 10
-63.1831588108
 20
-748.218022702
 30
0.0
 11
-661.2010301906
 21
-748.218022702
 31
0.0
  0
LINE
  5
28C
330
1F
100
AcDbEntity
  8
0
  6
Continuous
 62
     7
370
    15
100
AcDbLine
 10
550.8168636006
 20
-748.218022702
 30
0.0
 11
13.8429103535
 21
-748.218022702
 31
0.0
  0
LINE
  5
28D
330
1F
100
AcDbEntity
  8
0
  6
Continuous
 62
     7
370
    15
100
AcDbLine
 10
-15.2092279751
 20
-748.218022702
 30
0.0
 11
-48.2010545093
 21
-748.218022702
 31
0.0
  0
LINE
  5
28E
330
1F
100
AcDbEntity
  8
0
  6
Continuous
 62
     7
370
    15
100
AcDbLine
 10
1163.8167796772
 20
-748.218022702
 30
0.0
 11
565.798967902
 21
-748.218022702
 31
0.0
  0
LINE
  5
28F
330
1F
100
AcDbEntity
  8
0
  6
Continuous
 62
     7
370
    15
100
AcDbLine
 10
1301.3168273609
 20
-748.218022702
 30
0.0
 11
1253.3167300862
 21
-748.218022702
 31
0.0
  0
LINE
  5
290
330
1F
100
AcDbEntity
  8
0
  6
Continuous
 62
     7
370
    15
100
AcDbLine
 10
1221.3169036549
 20
-748.218022702
 30
0.0
 11
1178.799003188
 21
-748.218022702
 31
0.0
  0
LINE
  5
291
330
1F
100
AcDbEntity
  8
0
  6
Continuous
 62
     7
370
    15
100
AcDbLine
 10
1178.8668332737
 20
-773.2180230745
 30
0.0
 11
1221.3169036549
 21
-773.2180230745
 31
0.0
  0
LINE
  5
292
330
1F
100
AcDbEntity
  8
0
  6
Continuous
 62
     7
370
    15
100
AcDbLine
 10
1253.3167300862
 20
-773.2180230745
 30
0.0
 11
1301.3168273609
 21
-773.2180230745
 31
0.0
  0
LINE
  5
293
330
1F
100
AcDbEntity
  8
0
  6
Continuous
 62
     7
370
    15
100
AcDbLine
 10
565.8667979878
 20
-773.2180230745
 30
0.0
 11
1163.7987790745
 21
-773.2180230745
 31
0.0
  0
LINE
  5
294
330
1F
100
AcDbEntity
  8
0
  6
Continuous
 62
     7
370
    15
100
AcDbLine
 10
-48.1331648189
 20
-773.2180230745
 30
0.0
 11
-15.6831445057
 21
-773.2180230745
 31
0.0
  0
LINE
  5
295
330
1F
100
AcDbEntity
  8
0
  6
Continuous
 62
     7
370
    15
100
AcDbLine
 10
14.3168268841
 20
-773.2180230745
 30
0.0
 11
550.7987437886
 21
-773.2180230745
 31
0.0
  0
LINE
  5
296
330
1F
100
AcDbEntity
  8
0
  6
Continuous
 62
     7
370
    15
100
AcDbLine
 10
-661.1331703026
 20
-773.2180230745
 30
0.0
 11
-63.2012190181
 21
-773.2180230745
 31
0.0
  0
LINE
  5
297
330
1F
100
AcDbEntity
  8
0
  6
Continuous
 62
     7
370
    15
100
AcDbLine
 10
-798.6831706367
 20
-773.2180230745
 30
0.0
 11
-750.6831699866
 21
-773.2180230745
 31
0.0
  0
LINE
  5
298
330
1F
100
AcDbEntity
  8
0
  6
Continuous
 62
     7
370
    15
100
AcDbLine
 10
-718.6831684667
 20
-773.2180230745
 30
0.0
 11
-715.6831698376
 21
-773.2180230745
 31
0.0
  0
LINE
  5
299
330
1F
100
AcDbEntity
  8
0
  6
Continuous
 62
     7
370
    15
100
AcDbLine
 10
-685.6831686455
 20
-773.2180230745
 30
0.0
 11
-676.2012096006
 21
-773.2180230745
 31
0.0
  0
LINE
  5
29A
330
1F
100
AcDbEntity
  8
0
  6
Continuous
 62
     7
370
    15
100
AcDbLine
 10
1163.8668475788
 20
-773.2180230745
 30
0.0
 11
1163.8668475788
 21
-774.1193281912
 31
0.0
  0
LINE
  5
29B
330
1F
100
AcDbEntity
  8
0
  6
Continuous
 62
     7
370
    15
100
AcDbLine
 10
1178.7668166798
 20
-774.1193281912
 30
0.0
 11
1178.7668166798
 21
-773.2180230745
 31
0.0
  0
LINE
  5
29C
330
1F
100
AcDbEntity
  8
0
  6
Continuous
 62
     7
370
    15
100
AcDbLine
 10
1163.8668475788
 20
-774.1193281912
 30
0.0
 11
1164.8667750996
 21
-775.1193283551
 31
0.0
  0
LINE
  5
29D
330
1F
100
AcDbEntity
  8
0
  6
Continuous
 62
     7
370
    15
100
AcDbLine
 10
1177.7667699498
 20
-775.1193283551
 30
0.0
 11
1178.7668166798
 21
-774.1193281912
 31
0.0
  0
LINE
  5
29E
330
1F
100
AcDbEntity
  8
0
  6
Continuous
 62
     7
370
    15
100
AcDbLine
 10
-676.1331708986
 20
-773.2180230745
 30
0.0
 11
-676.1331708986
 21
-774.1193281912
 31
0.0
  0
LINE
  5
29F
330
1F
100
AcDbEntity
  8
0
  6
Continuous
 62
     7
370
    15
100
AcDbLine
 10
-661.2331719953
 20
-774.1193281912
 30
0.0
 11
-661.2331719953
 21
-773.2180230745
 31
0.0
  0
LINE
  5
2A0
330
1F
100
AcDbEntity
  8
0
  6
Continuous
 62
     7
370
    15
100
AcDbLine
 10
-676.1331708986
 20
-774.1193281912
 30
0.0
 11
-675.133168872
 21
-775.1193283551
 31
0.0
  0
LINE
  5
2A1
330
1F
100
AcDbEntity
  8
0
  6
Continuous
 62
     7
370
    15
100
AcDbLine
 10
-662.2331740219
 20
-775.1193283551
 30
0.0
 11
-661.2331719953
 21
-774.1193281912
 31
0.0
  0
LINE
  5
2A2
330
1F
100
AcDbEntity
  8
0
  6
Continuous
 62
     7
370
    15
100
AcDbLine
 10
-63.1331505138
 20
-773.2180230745
 30
0.0
 11
-63.1331505138
 21
-774.1193281912
 31
0.0
  0
LINE
  5
2A3
330
1F
100
AcDbEntity
  8
0
  6
Continuous
 62
     7
370
    15
100
AcDbLine
 10
-48.2331814129
 20
-774.1193281912
 30
0.0
 11
-48.2331814129
 21
-773.2180230745
 31
0.0
  0
LINE
  5
2A4
330
1F
100
AcDbEntity
  8
0
  6
Continuous
 62
     7
370
    15
100
AcDbLine
 10
-63.1331505138
 20
-774.1193281912
 30
0.0
 11
-62.1331633884
 21
-775.1193283551
 31
0.0
  0
LINE
  5
2A5
330
1F
100
AcDbEntity
  8
0
  6
Continuous
 62
     7
370
    15
100
AcDbLine
 10
-49.2331685383
 20
-775.1193283551
 30
0.0
 11
-48.2331814129
 21
-774.1193281912
 31
0.0
  0
LINE
  5
2A6
330
1F
100
AcDbEntity
  8
0
  6
Continuous
 62
     7
370
    15
100
AcDbLine
 10
550.8668122929
 20
-773.2180230745
 30
0.0
 11
550.8668122929
 21
-774.1193281912
 31
0.0
  0
LINE
  5
2A7
330
1F
100
AcDbEntity
  8
0
  6
Continuous
 62
     7
370
    15
100
AcDbLine
 10
565.7667813938
 20
-774.1193281912
 30
0.0
 11
565.7667813938
 21
-773.2180230745
 31
0.0
  0
LINE
  5
2A8
330
1F
100
AcDbEntity
  8
0
  6
Continuous
 62
     7
370
    15
100
AcDbLine
 10
550.8668122929
 20
-774.1193281912
 30
0.0
 11
551.8668590229
 21
-775.1193283551
 31
0.0
  0
LINE
  5
2A9
330
1F
100
AcDbEntity
  8
0
  6
Continuous
 62
     7
370
    15
100
AcDbLine
 10
564.7668538731
 20
-775.1193283551
 30
0.0
 11
565.7667813938
 21
-774.1193281912
 31
0.0
  0
LINE
  5
2AA
330
1F
100
AcDbEntity
  8
0
  6
Continuous
 62
     7
370
    15
100
AcDbLine
 10
1217.3167167347
 20
-777.318022629
 30
0.0
 11
1217.3167167347
 21
-785.3180239403
 31
0.0
  0
LINE
  5
2AB
330
1F
100
AcDbEntity
  8
0
  6
Continuous
 62
     7
370
    15
100
AcDbLine
 10
1257.3169170063
 20
-785.3180239403
 30
0.0
 11
1257.3169170063
 21
-777.318022629
 31
0.0
  0
LINE
  5
2AC
330
1F
100
AcDbEntity
  8
0
  6
Continuous
 62
     7
370
    15
100
AcDbLine
 10
-754.6831706423
 20
-777.318022629
 30
0.0
 11
-754.6831706423
 21
-785.3180239403
 31
0.0
  0
LINE
  5
2AD
330
1F
100
AcDbEntity
  8
0
  6
Continuous
 62
     7
370
    15
100
AcDbLine
 10
-718.6831684667
 20
-746.5180227959
 30
0.0
 11
-720.4831691343
 21
-744.7180230596
 31
0.0
  0
LINE
  5
2AE
330
1F
100
AcDbEntity
  8
0
  6
Continuous
 62
     7
370
    15
100
AcDbLine
 10
-748.8831693191
 20
-744.7180230596
 30
0.0
 11
-750.6831699866
 21
-746.5180227959
 31
0.0
  0
LINE
  5
2AF
330
1F
100
AcDbEntity
  8
0
  6
Continuous
 62
     7
370
    15
100
AcDbLine
 10
-750.6831699866
 20
-773.2180230745
 30
0.0
 11
-750.6831699866
 21
-777.318022629
 31
0.0
  0
LINE
  5
2B0
330
1F
100
AcDbEntity
  8
0
  6
Continuous
 62
     7
370
    15
100
AcDbLine
 10
-750.6831699866
 20
-746.5180227959
 30
0.0
 11
-750.6831699866
 21
-748.1180228719
 31
0.0
  0
LINE
  5
2B1
330
1F
100
AcDbEntity
  8
0
  6
Continuous
 62
     7
370
    15
100
AcDbLine
 10
-718.6831684667
 20
-748.1180228719
 30
0.0
 11
-718.6831684667
 21
-746.5180227959
 31
0.0
  0
LINE
  5
2B2
330
1F
100
AcDbEntity
  8
0
  6
Continuous
 62
     7
370
    15
100
AcDbLine
 10
-718.6831684667
 20
-777.318022629
 30
0.0
 11
-718.6831684667
 21
-773.2180230745
 31
0.0
  0
LINE
  5
2B3
330
1F
100
AcDbEntity
  8
0
  6
Continuous
 62
     7
370
    15
100
AcDbLine
 10
1253.3167300862
 20
-746.5180227959
 30
0.0
 11
1251.5169082325
 21
-744.7180230596
 31
0.0
  0
LINE
  5
2B4
330
1F
100
AcDbEntity
  8
0
  6
Continuous
 62
     7
370
    15
100
AcDbLine
 10
1223.1167255085
 20
-744.7180230596
 30
0.0
 11
1221.3169036549
 21
-746.5180227959
 31
0.0
  0
LINE
  5
2B5
330
1F
100
AcDbEntity
  8
0
  6
Continuous
 62
     7
370
    15
100
AcDbLine
 10
1221.3169036549
 20
-773.2180230745
 30
0.0
 11
1221.3169036549
 21
-777.318022629
 31
0.0
  0
LINE
  5
2B6
330
1F
100
AcDbEntity
  8
0
  6
Continuous
 62
     7
370
    15
100
AcDbLine
 10
1221.3169036549
 20
-746.5180227959
 30
0.0
 11
1221.3169036549
 21
-748.1180228719
 31
0.0
  0
LINE
  5
2B7
330
1F
100
AcDbEntity
  8
0
  6
Continuous
 62
     7
370
    15
100
AcDbLine
 10
1253.3167300862
 20
-748.1180228719
 30
0.0
 11
1253.3167300862
 21
-746.5180227959
 31
0.0
  0
LINE
  5
2B8
330
1F
100
AcDbEntity
  8
0
  6
Continuous
 62
     7
370
    15
100
AcDbLine
 10
1253.3167300862
 20
-777.318022629
 30
0.0
 11
1253.3167300862
 21
-773.2180230745
 31
0.0
  0
LINE
  5
2B9
330
1F
100
AcDbEntity
  8
0
  6
Continuous
 62
     7
370
    15
100
AcDbLine
 10
-63.1831588108
 20
-744.2180229776
 30
0.0
 11
-63.1831588108
 21
-748.218022702
 31
0.0
  0
LINE
  5
2BA
330
1F
100
AcDbEntity
  8
0
  6
Continuous
 62
     7
370
    15
100
AcDbLine
 10
-48.1831731159
 20
-748.218022702
 30
0.0
 11
-48.1831731159
 21
-744.2180229776
 31
0.0
  0
LINE
  5
2BB
330
1F
100
AcDbEntity
  8
0
  6
Continuous
 62
     7
370
    15
100
AcDbLine
 10
1163.8167796772
 20
-744.2180229776
 30
0.0
 11
1163.8167796772
 21
-748.218022702
 31
0.0
  0
LINE
  5
2BC
330
1F
100
AcDbEntity
  8
0
  6
Continuous
 62
     7
370
    15
100
AcDbLine
 10
1178.8168845814
 20
-748.218022702
 30
0.0
 11
1178.8168845814
 21
-744.2180229776
 31
0.0
  0
LINE
  5
2BD
330
1F
100
AcDbEntity
  8
0
  6
Continuous
 62
     7
370
    15
100
AcDbLine
 10
-676.183171745
 20
-744.2180229776
 30
0.0
 11
-676.183171745
 21
-748.218022702
 31
0.0
  0
LINE
  5
2BE
330
1F
100
AcDbEntity
  8
0
  6
Continuous
 62
     7
370
    15
100
AcDbLine
 10
-661.1831636984
 20
-748.218022702
 30
0.0
 11
-661.1831636984
 21
-744.2180229776
 31
0.0
  0
LINE
  5
2BF
330
1F
100
AcDbEntity
  8
0
  6
Continuous
 62
     7
370
    15
100
AcDbLine
 10
550.8168636006
 20
-744.2180229776
 30
0.0
 11
550.8168636006
 21
-748.218022702
 31
0.0
  0
LINE
  5
2C0
330
1F
100
AcDbEntity
  8
0
  6
Continuous
 62
     7
370
    15
100
AcDbLine
 10
565.8168492955
 20
-748.218022702
 30
0.0
 11
565.8168492955
 21
-744.2180229776
 31
0.0
  0
LINE
  5
2C1
330
1F
100
AcDbEntity
  8
0
  6
Continuous
 62
     7
370
    15
100
AcDbLine
 10
-80.6831421215
 20
-741.2180224859
 30
0.0
 11
-80.6831421215
 21
-743.2180228137
 31
0.0
  0
LINE
  5
2C2
330
1F
100
AcDbEntity
  8
0
  6
Continuous
 62
     7
370
    15
100
AcDbLine
 10
-30.6831898052
 20
-743.2180228137
 30
0.0
 11
-30.6831898052
 21
-741.2180224859
 31
0.0
  0
LINE
  5
2C3
330
1F
100
AcDbEntity
  8
0
  6
Continuous
 62
     7
370
    15
100
AcDbLine
 10
-80.6831421215
 20
-743.2180228137
 30
0.0
 11
-79.6831549961
 21
-744.2180229776
 31
0.0
  0
LINE
  5
2C4
330
1F
100
AcDbEntity
  8
0
  6
Continuous
 62
     7
370
    15
100
AcDbLine
 10
-31.6831769306
 20
-744.2180229776
 30
0.0
 11
-30.6831898052
 21
-743.2180228137
 31
0.0
  0
LINE
  5
2C5
330
1F
100
AcDbEntity
  8
0
  6
Continuous
 62
     7
370
    15
100
AcDbLine
 10
-693.6831699568
 20
-741.2180224859
 30
0.0
 11
-693.6831699568
 21
-743.2180228137
 31
0.0
  0
LINE
  5
2C6
330
1F
100
AcDbEntity
  8
0
  6
Continuous
 62
     7
370
    15
100
AcDbLine
 10
-643.6831654865
 20
-743.2180228137
 30
0.0
 11
-643.6831654865
 21
-741.2180224859
 31
0.0
  0
LINE
  5
2C7
330
1F
100
AcDbEntity
  8
0
  6
Continuous
 62
     7
370
    15
100
AcDbLine
 10
-693.6831699568
 20
-743.2180228137
 30
0.0
 11
-692.6831679303
 21
-744.2180229776
 31
0.0
  0
LINE
  5
2C8
330
1F
100
AcDbEntity
  8
0
  6
Continuous
 62
     7
370
    15
100
AcDbLine
 10
-644.6831675131
 20
-744.2180229776
 30
0.0
 11
-643.6831654865
 21
-743.2180228137
 31
0.0
  0
LINE
  5
2C9
330
1F
100
AcDbEntity
  8
0
  6
Continuous
 62
     7
370
    15
100
AcDbLine
 10
1146.3168559712
 20
-741.2180224859
 30
0.0
 11
1146.3168559712
 21
-743.2180228137
 31
0.0
  0
LINE
  5
2CA
330
1F
100
AcDbEntity
  8
0
  6
Continuous
 62
     7
370
    15
100
AcDbLine
 10
1196.3168082875
 20
-743.2180228137
 30
0.0
 11
1196.3168082875
 21
-741.2180224859
 31
0.0
  0
LINE
  5
2CB
330
1F
100
AcDbEntity
  8
0
  6
Continuous
 62
     7
370
    15
100
AcDbLine
 10
1146.3168559712
 20
-743.2180228137
 30
0.0
 11
1147.3167834919
 21
-744.2180229776
 31
0.0
  0
LINE
  5
2CC
330
1F
100
AcDbEntity
  8
0
  6
Continuous
 62
     7
370
    15
100
AcDbLine
 10
1195.3168807667
 20
-744.2180229776
 30
0.0
 11
1196.3168082875
 21
-743.2180228137
 31
0.0
  0
LINE
  5
2CD
330
1F
100
AcDbEntity
  8
0
  6
Continuous
 62
     7
370
    15
100
AcDbLine
 10
533.3168206852
 20
-743.2180228137
 30
0.0
 11
534.3168674153
 21
-744.2180229776
 31
0.0
  0
LINE
  5
2CE
330
1F
100
AcDbEntity
  8
0
  6
Continuous
 62
     7
370
    15
100
AcDbLine
 10
582.3168454808
 20
-744.2180229776
 30
0.0
 11
583.3167730015
 21
-743.2180228137
 31
0.0
  0
LINE
  5
2CF
330
1F
100
AcDbEntity
  8
0
  6
Continuous
 62
     7
370
    15
100
AcDbLine
 10
533.3168206852
 20
-741.2180224859
 30
0.0
 11
533.3168206852
 21
-743.2180228137
 31
0.0
  0
LINE
  5
2D0
330
1F
100
AcDbEntity
  8
0
  6
Continuous
 62
     7
370
    15
100
AcDbLine
 10
583.3167730015
 20
-743.2180228137
 30
0.0
 11
583.3167730015
 21
-741.2180224859
 31
0.0
  0
LINE
  5
2D1
330
1F
100
AcDbEntity
  8
0
  6
Continuous
 62
     7
370
    15
100
AcDbLine
 10
-800.4831707368
 20
-748.218022702
 30
0.0
 11
-800.6831707317
 21
-748.4180232936
 31
0.0
  0
LINE
  5
2D2
330
1F
100
AcDbEntity
  8
0
  6
Continuous
 62
     7
370
    15
100
AcDbLine
 10
-800.6831707317
 20
-773.0180234143
 30
0.0
 11
-800.4831707368
 21
-773.2180230745
 31
0.0
  0
LINE
  5
2D3
330
1F
100
AcDbEntity
  8
0
  6
Continuous
 62
     7
370
    15
100
AcDbLine
 10
-798.8831707626
 20
-773.2180230745
 30
0.0
 11
-798.6831706367
 21
-773.0180234143
 31
0.0
  0
LINE
  5
2D4
330
1F
100
AcDbEntity
  8
0
  6
Continuous
 62
     7
370
    15
100
AcDbLine
 10
-798.6831706367
 20
-748.4180232936
 30
0.0
 11
-798.8831707626
 21
-748.218022702
 31
0.0
  0
LINE
  5
2D5
330
1F
100
AcDbEntity
  8
0
  6
Continuous
 62
     7
370
    15
100
AcDbLine
 10
-800.4831707368
 20
-773.2180230745
 30
0.0
 11
-798.8831707626
 21
-773.2180230745
 31
0.0
  0
LINE
  5
2D6
330
1F
100
AcDbEntity
  8
0
  6
Continuous
 62
     7
370
    15
100
AcDbLine
 10
-798.8831707626
 20
-748.218022702
 30
0.0
 11
-800.4831707368
 21
-748.218022702
 31
0.0
  0
LINE
  5
2D7
330
1F
100
AcDbEntity
  8
0
  6
Continuous
 62
     7
370
    15
100
AcDbLine
 10
1301.5168605488
 20
-748.218022702
 30
0.0
 11
1301.3168273609
 21
-748.4180232936
 31
0.0
  0
LINE
  5
2D8
330
1F
100
AcDbEntity
  8
0
  6
Continuous
 62
     7
370
    15
100
AcDbLine
 10
1301.3168273609
 20
-773.0180234143
 30
0.0
 11
1301.5168605488
 21
-773.2180230745
 31
0.0
  0
LINE
  5
2D9
330
1F
100
AcDbEntity
  8
0
  6
Continuous
 62
     7
370
    15
100
AcDbLine
 10
1303.1168876332
 20
-748.218022702
 30
0.0
 11
1301.5168605488
 21
-748.218022702
 31
0.0
  0
LINE
  5
2DA
330
1F
100
AcDbEntity
  8
0
  6
Continuous
 62
     7
370
    15
100
AcDbLine
 10
1301.5168605488
 20
-773.2180230745
 30
0.0
 11
1303.1168876332
 21
-773.2180230745
 31
0.0
  0
LINE
  5
2DB
330
1F
100
AcDbEntity
  8
0
  6
Continuous
 62
     7
370
    15
100
AcDbLine
 10
1303.1168876332
 20
-773.2180230745
 30
0.0
 11
1303.316920821
 21
-773.0180234143
 31
0.0
  0
LINE
  5
2DC
330
1F
100
AcDbEntity
  8
0
  6
Continuous
 62
     7
370
    15
100
AcDbLine
 10
1303.316920821
 20
-748.4180232936
 30
0.0
 11
1303.1168876332
 21
-748.218022702
 31
0.0
  0
LINE
  5
2DD
330
1F
100
AcDbEntity
  8
0
  6
Continuous
 62
     7
370
    15
100
AcDbLine
 10
1252.3168025654
 20
-787.2351793998
 30
0.0
 11
1252.3168025654
 21
-785.5180236005
 31
0.0
  0
LINE
  5
2DE
330
1F
100
AcDbEntity
  8
0
  6
Continuous
 62
     7
370
    15
100
AcDbLine
 10
1222.3168311756
 20
-785.5180236005
 30
0.0
 11
1222.3168311756
 21
-787.2351793998
 31
0.0
  0
ARC
  5
2DF
330
1F
100
AcDbEntity
  8
0
  6
Continuous
 62
     7
370
    15
100
AcDbCircle
 10
1222.5168292683
 20
-785.5180230286
 30
0.0
 40
0.2000000000000455
100
AcDbArc
 50
90.0
 51
180.0
  0
ARC
  5
2E0
330
1F
100
AcDbEntity
  8
0
  6
Continuous
 62
     7
370
    15
100
AcDbCircle
 10
1252.1168292683
 20
-785.5180230286
 30
0.0
 40
0.1999999999999318
100
AcDbArc
 50
0.0
 51
90.0
  0
ARC
  5
2E1
330
1F
100
AcDbEntity
  8
0
  6
Continuous
 62
     7
370
    15
100
AcDbCircle
 10
1252.1168292683
 20
-787.2351803161
 30
0.0
 40
0.1999999999998181
100
AcDbArc
 50
315.0
 51
0.0
  0
ARC
  5
2E2
330
1F
100
AcDbEntity
  8
0
  6
Continuous
 62
     7
370
    15
100
AcDbCircle
 10
1222.5168292683
 20
-787.2351803161
 30
0.0
 40
0.2000000000000455
100
AcDbArc
 50
180.0
 51
225.0
  0
LINE
  5
2E3
330
1F
100
AcDbEntity
  8
0
  6
Continuous
 62
     7
370
    15
100
AcDbLine
 10
1222.3754821461
 20
-787.3766025954
 30
0.0
 11
1224.2582736653
 21
-789.259444406
 31
0.0
  0
LINE
  5
2E4
330
1F
100
AcDbEntity
  8
0
  6
Continuous
 62
     7
370
    15
100
AcDbLine
 10
1250.3753600758
 20
-789.259444406
 30
0.0
 11
1252.258151595
 21
-787.3766025954
 31
0.0
  0
ARC
  5
2E5
330
1F
100
AcDbEntity
  8
0
  6
Continuous
 62
     7
370
    15
100
AcDbCircle
 10
1224.3996719808
 20
-789.1180230286
 30
0.0
 40
0.2000000000000455
100
AcDbArc
 50
225.0
 51
270.0
  0
ARC
  5
2E6
330
1F
100
AcDbEntity
  8
0
  6
Continuous
 62
     7
370
    15
100
AcDbCircle
 10
1250.2339865558
 20
-789.1180230286
 30
0.0
 40
0.2000000000000455
100
AcDbArc
 50
270.0
 51
315.0
  0
ARC
  5
2E7
330
1F
100
AcDbEntity
  8
0
  6
Continuous
 62
     7
370
    15
100
AcDbCircle
 10
-749.4831707317
 20
-785.5180230286
 30
0.0
 40
0.1999999999999318
100
AcDbArc
 50
90.0
 51
180.0
  0
ARC
  5
2E8
330
1F
100
AcDbEntity
  8
0
  6
Continuous
 62
     7
370
    15
100
AcDbCircle
 10
-719.8831707317
 20
-785.5180230286
 30
0.0
 40
0.2000000000000455
100
AcDbArc
 50
0.0
 51
90.0
  0
LINE
  5
2E9
330
1F
100
AcDbEntity
  8
0
  6
Continuous
 62
     7
370
    15
100
AcDbLine
 10
-719.6831704933
 20
-787.2351793998
 30
0.0
 11
-719.6831704933
 21
-785.5180236005
 31
0.0
  0
LINE
  5
2EA
330
1F
100
AcDbEntity
  8
0
  6
Continuous
 62
     7
370
    15
100
AcDbLine
 10
-749.6831716854
 20
-785.5180236005
 30
0.0
 11
-749.6831716854
 21
-787.2351793998
 31
0.0
  0
ARC
  5
2EB
330
1F
100
AcDbEntity
  8
0
  6
Continuous
 62
     7
370
    15
100
AcDbCircle
 10
-719.8831707317
 20
-787.2351803161
 30
0.0
 40
0.2000000000000455
100
AcDbArc
 50
315.0
 51
0.0
  0
ARC
  5
2EC
330
1F
100
AcDbEntity
  8
0
  6
Continuous
 62
     7
370
    15
100
AcDbCircle
 10
-749.4831707317
 20
-787.2351803161
 30
0.0
 40
0.1999999999999318
100
AcDbArc
 50
180.0
 51
225.0
  0
LINE
  5
2ED
330
1F
100
AcDbEntity
  8
0
  6
Continuous
 62
     7
370
    15
100
AcDbLine
 10
-749.6245914954
 20
-787.3766025954
 30
0.0
 11
-747.7417478222
 21
-789.259444406
 31
0.0
  0
LINE
  5
2EE
330
1F
100
AcDbEntity
  8
0
  6
Continuous
 62
     7
370
    15
100
AcDbLine
 10
-721.6245906312
 20
-789.259444406
 30
0.0
 11
-719.7417469579
 21
-787.3766025954
 31
0.0
  0
ARC
  5
2EF
330
1F
100
AcDbEntity
  8
0
  6
Continuous
 62
     7
370
    15
100
AcDbCircle
 10
-747.6003280192
 20
-789.1180230286
 30
0.0
 40
0.2000000000000455
100
AcDbArc
 50
225.0
 51
270.0
  0
ARC
  5
2F0
330
1F
100
AcDbEntity
  8
0
  6
Continuous
 62
     7
370
    15
100
AcDbCircle
 10
-721.7660134442
 20
-789.1180230286
 30
0.0
 40
0.2000000000000498
100
AcDbArc
 50
270.0
 51
315.0
  0
LINE
  5
2F1
330
1F
100
AcDbEntity
  8
0
  6
Continuous
 62
     7
370
    15
100
AcDbLine
 10
14.3168268841
 20
-777.4919713342
 30
0.0
 11
14.3168268841
 21
-777.391971504
 31
0.0
  0
LINE
  5
2F2
330
1F
100
AcDbEntity
  8
0
  6
Continuous
 62
     7
370
    15
100
AcDbLine
 10
-15.6831445057
 20
-777.391971504
 30
0.0
 11
-15.6831445057
 21
-777.4919713342
 31
0.0
  0
LINE
  5
2F3
330
1F
100
AcDbEntity
  8
0
  6
Continuous
 62
     7
370
    15
100
AcDbLine
 10
-15.6831445057
 20
-777.4919713342
 30
0.0
 11
-15.4831709224
 21
-777.6919709944
 31
0.0
  0
LINE
  5
2F4
330
1F
100
AcDbEntity
  8
0
  6
Continuous
 62
     7
370
    15
100
AcDbLine
 10
14.1168533009
 20
-777.6919709944
 30
0.0
 11
14.3168268841
 21
-777.4919713342
 31
0.0
  0
LINE
  5
2F5
330
1F
100
AcDbEntity
  8
0
  6
Continuous
 62
     7
370
    15
100
AcDbLine
 10
-685.6831686455
 20
-777.4919713342
 30
0.0
 11
-685.6831686455
 21
-777.391971504
 31
0.0
  0
LINE
  5
2F6
330
1F
100
AcDbEntity
  8
0
  6
Continuous
 62
     7
370
    15
100
AcDbLine
 10
-685.8831720311
 20
-777.6919709944
 30
0.0
 11
-685.6831686455
 21
-777.4919713342
 31
0.0
  0
LINE
  5
2F7
330
1F
100
AcDbEntity
  8
0
  6
Continuous
 62
     7
370
    15
100
AcDbLine
 10
-685.6831686455
 20
-786.6919724696
 30
0.0
 11
-685.6831686455
 21
-783.6919719779
 31
0.0
  0
LINE
  5
2F8
330
1F
100
AcDbEntity
  8
0
  6
Continuous
 62
     7
370
    15
100
AcDbLine
 10
-715.6831698376
 20
-783.6919719779
 30
0.0
 11
-715.6831698376
 21
-786.6919724696
 31
0.0
  0
LINE
  5
2F9
330
1F
100
AcDbEntity
  8
0
  6
Continuous
 62
     7
370
    15
100
AcDbLine
 10
-715.6831698376
 20
-786.6919724696
 30
0.0
 11
-713.6831732351
 21
-788.6919709348
 31
0.0
  0
LINE
  5
2FA
330
1F
100
AcDbEntity
  8
0
  6
Continuous
 62
     7
370
    15
100
AcDbLine
 10
-687.6831726987
 20
-788.6919709348
 30
0.0
 11
-685.6831686455
 21
-786.6919724696
 31
0.0
  0
LINE
  5
2FB
330
1F
100
AcDbEntity
  8
0
  6
Continuous
 62
     7
370
    15
100
AcDbLine
 10
14.3168268841
 20
-786.6919724696
 30
0.0
 11
14.3168268841
 21
-783.6919719779
 31
0.0
  0
LINE
  5
2FC
330
1F
100
AcDbEntity
  8
0
  6
Continuous
 62
     7
370
    15
100
AcDbLine
 10
-15.6831445057
 20
-783.6919719779
 30
0.0
 11
-15.6831445057
 21
-786.6919724696
 31
0.0
  0
LINE
  5
2FD
330
1F
100
AcDbEntity
  8
0
  6
Continuous
 62
     7
370
    15
100
AcDbLine
 10
-15.6831445057
 20
-786.6919724696
 30
0.0
 11
-13.6831702549
 21
-788.6919709348
 31
0.0
  0
LINE
  5
2FE
330
1F
100
AcDbEntity
  8
0
  6
Continuous
 62
     7
370
    15
100
AcDbLine
 10
12.3168526333
 20
-788.6919709348
 30
0.0
 11
14.3168268841
 21
-786.6919724696
 31
0.0
  0
ARC
  5
2FF
330
1F
100
AcDbEntity
  8
0
  6
Continuous
 62
     7
370
    15
100
AcDbCircle
 10
-715.4831707317
 20
-748.7748143178
 30
0.0
 40
0.2000000000000498
100
AcDbArc
 50
135.0
 51
180.0
  0
ARC
  5
300
330
1F
100
AcDbEntity
  8
0
  6
Continuous
 62
     7
370
    15
100
AcDbCircle
 10
-685.8831707317
 20
-748.7748143178
 30
0.0
 40
0.2000000000000498
100
AcDbArc
 50
0.0
 51
45.0
  0
LINE
  5
301
330
1F
100
AcDbEntity
  8
0
  6
Continuous
 62
     7
370
    15
100
AcDbLine
 10
-715.6831698376
 20
-748.7748139032
 30
0.0
 11
-715.6831698376
 21
-749.4919714012
 31
0.0
  0
LINE
  5
302
330
1F
100
AcDbEntity
  8
0
  6
Continuous
 62
     7
370
    15
100
AcDbLine
 10
-685.6831686455
 20
-749.4919714012
 30
0.0
 11
-685.6831686455
 21
-748.7748139032
 31
0.0
  0
ARC
  5
303
330
1F
100
AcDbEntity
  8
0
  6
Continuous
 62
     7
370
    15
100
AcDbCircle
 10
-685.8831707317
 20
-749.4919716054
 30
0.0
 40
0.2000000000000455
100
AcDbArc
 50
270.0
 51
0.0
  0
ARC
  5
304
330
1F
100
AcDbEntity
  8
0
  6
Continuous
 62
     7
370
    15
100
AcDbCircle
 10
-715.4831707317
 20
-749.4919716054
 30
0.0
 40
0.2000000000000455
100
AcDbArc
 50
180.0
 51
270.0
  0
LINE
  5
305
330
1F
100
AcDbEntity
  8
0
  6
Continuous
 62
     7
370
    15
100
AcDbLine
 10
-685.7417525608
 20
-748.6333925703
 30
0.0
 11
-687.6245887834
 21
-746.7505498284
 31
0.0
  0
LINE
  5
306
330
1F
100
AcDbEntity
  8
0
  6
Continuous
 62
     7
370
    15
100
AcDbLine
 10
-713.7417496998
 20
-746.7505498284
 30
0.0
 11
-715.624593373
 21
-748.6333925703
 31
0.0
  0
ARC
  5
307
330
1F
100
AcDbEntity
  8
0
  6
Continuous
 62
     7
370
    15
100
AcDbCircle
 10
-687.7660134442
 20
-746.8919716054
 30
0.0
 40
0.1999999999999695
100
AcDbArc
 50
45.0
 51
90.0
  0
ARC
  5
308
330
1F
100
AcDbEntity
  8
0
  6
Continuous
 62
     7
370
    15
100
AcDbCircle
 10
-713.6003280192
 20
-746.8919716054
 30
0.0
 40
0.2000000000000498
100
AcDbArc
 50
90.0
 51
135.0
  0
LINE
  5
309
330
1F
100
AcDbEntity
  8
0
  6
Continuous
 62
     7
370
    15
100
AcDbLine
 10
-690.9331681091
 20
-750.1919711434
 30
0.0
 11
-690.9331681091
 21
-749.6919719928
 31
0.0
  0
LINE
  5
30A
330
1F
100
AcDbEntity
  8
0
  6
Continuous
 62
     7
370
    15
100
AcDbLine
 10
-710.4331703741
 20
-749.6919719928
 30
0.0
 11
-710.4331703741
 21
-750.1919711434
 31
0.0
  0
ARC
  5
30B
330
1F
100
AcDbEntity
  8
0
  6
Continuous
 62
     7
370
    15
100
AcDbCircle
 10
-15.4831707317
 20
-748.7748143178
 30
0.0
 40
0.199999999999978
100
AcDbArc
 50
135.0
 51
180.0
  0
ARC
  5
30C
330
1F
100
AcDbEntity
  8
0
  6
Continuous
 62
     7
370
    15
100
AcDbCircle
 10
14.1168292683
 20
-748.7748143178
 30
0.0
 40
0.199999999999978
100
AcDbArc
 50
0.0
 51
45.0
  0
ARC
  5
30D
330
1F
100
AcDbEntity
  8
0
  6
Continuous
 62
     7
370
    15
100
AcDbCircle
 10
14.1168292683
 20
-749.4919716054
 30
0.0
 40
0.2000000000000455
100
AcDbArc
 50
270.0
 51
0.0
  0
ARC
  5
30E
330
1F
100
AcDbEntity
  8
0
  6
Continuous
 62
     7
370
    15
100
AcDbCircle
 10
-15.4831707317
 20
-749.4919716054
 30
0.0
 40
0.2000000000000455
100
AcDbArc
 50
180.0
 51
270.0
  0
LINE
  5
30F
330
1F
100
AcDbEntity
  8
0
  6
Continuous
 62
     7
370
    15
100
AcDbLine
 10
-15.6831445057
 20
-748.7748139032
 30
0.0
 11
-15.6831445057
 21
-749.4919714012
 31
0.0
  0
LINE
  5
310
330
1F
100
AcDbEntity
  8
0
  6
Continuous
 62
     7
370
    15
100
AcDbLine
 10
14.3168268841
 20
-749.4919714012
 30
0.0
 11
14.3168268841
 21
-748.7748139032
 31
0.0
  0
LINE
  5
311
330
1F
100
AcDbEntity
  8
0
  6
Continuous
 62
     7
370
    15
100
AcDbLine
 10
14.2582355183
 20
-748.6333925703
 30
0.0
 11
12.3753843945
 21
-746.7505498284
 31
0.0
  0
LINE
  5
312
330
1F
100
AcDbEntity
  8
0
  6
Continuous
 62
     7
370
    15
100
AcDbLine
 10
-13.7417616207
 20
-746.7505498284
 30
0.0
 11
-15.6246127445
 21
-748.6333925703
 31
0.0
  0
ARC
  5
313
330
1F
100
AcDbEntity
  8
0
  6
Continuous
 62
     7
370
    15
100
AcDbCircle
 10
12.2339865558
 20
-746.8919716054
 30
0.0
 40
0.2000000000000524
100
AcDbArc
 50
45.0
 51
90.0
  0
ARC
  5
314
330
1F
100
AcDbEntity
  8
0
  6
Continuous
 62
     7
370
    15
100
AcDbCircle
 10
-13.6003280192
 20
-746.8919716054
 30
0.0
 40
0.2000000000000536
100
AcDbArc
 50
90.0
 51
135.0
  0
LINE
  5
315
330
1F
100
AcDbEntity
  8
0
  6
Continuous
 62
     7
370
    15
100
AcDbLine
 10
9.0668497723
 20
-750.1919711434
 30
0.0
 11
9.0668497723
 21
-749.6919719928
 31
0.0
  0
LINE
  5
316
330
1F
100
AcDbEntity
  8
0
  6
Continuous
 62
     7
370
    15
100
AcDbLine
 10
-10.4331673938
 20
-749.6919719928
 30
0.0
 11
-10.4331673938
 21
-750.1919711434
 31
0.0
  0
LINE
  5
317
330
1F
100
AcDbEntity
  8
0
  6
Continuous
 62
     7
370
    15
100
AcDbLine
 10
-29.6831430752
 20
-750.1919711434
 30
0.0
 11
-29.6831430752
 21
-751.6919713893
 31
0.0
  0
LINE
  5
318
330
1F
100
AcDbEntity
  8
0
  6
Continuous
 62
     7
370
    15
100
AcDbLine
 10
28.3168254536
 20
-751.6919713893
 30
0.0
 11
28.3168254536
 21
-750.1919711434
 31
0.0
  0
LINE
  5
319
330
1F
100
AcDbEntity
  8
0
  6
Continuous
 62
     7
370
    15
100
AcDbLine
 10
-671.6831775266
 20
-771.1919717916
 30
0.0
 11
-671.6831775266
 21
-769.6919715458
 31
0.0
  0
LINE
  5
31A
330
1F
100
AcDbEntity
  8
0
  6
Continuous
 62
     7
370
    15
100
AcDbLine
 10
-729.6831684071
 20
-769.6919715458
 30
0.0
 11
-729.6831684071
 21
-771.1919717916
 31
0.0
  0
LINE
  5
31B
330
1F
100
AcDbEntity
  8
0
  6
Continuous
 62
     7
370
    15
100
AcDbLine
 10
-729.6831684071
 20
-750.1919711434
 30
0.0
 11
-729.6831684071
 21
-751.6919713893
 31
0.0
  0
LINE
  5
31C
330
1F
100
AcDbEntity
  8
0
  6
Continuous
 62
     7
370
    15
100
AcDbLine
 10
-671.6831775266
 20
-751.6919713893
 30
0.0
 11
-671.6831775266
 21
-750.1919711434
 31
0.0
  0
LINE
  5
31D
330
1F
100
AcDbEntity
  8
0
  6
Continuous
 62
     7
370
    15
100
AcDbLine
 10
28.3168254536
 20
-771.1919717916
 30
0.0
 11
28.3168254536
 21
-769.6919715458
 31
0.0
  0
LINE
  5
31E
330
1F
100
AcDbEntity
  8
0
  6
Continuous
 62
     7
370
    15
100
AcDbLine
 10
-29.6831430752
 20
-769.6919715458
 30
0.0
 11
-29.6831430752
 21
-771.1919717916
 31
0.0
  0
ARC
  5
31F
330
1F
100
AcDbEntity
  8
0
  6
Continuous
 62
     7
370
    15
100
AcDbCircle
 10
37.9168292683
 20
-760.7180230286
 30
0.0
 40
12.50000000000001
100
AcDbArc
 50
140.1746287392
 51
219.8253712608
  0
ARC
  5
320
330
1F
100
AcDbEntity
  8
0
  6
Continuous
 62
     7
370
    15
100
AcDbCircle
 10
-39.2831707317
 20
-760.7180230286
 30
0.0
 40
12.50000000000001
100
AcDbArc
 50
320.1746287392
 51
39.8253712608
  0
LINE
  5
321
330
1F
100
AcDbEntity
  8
0
  6
Continuous
 62
     7
370
    15
100
AcDbLine
 10
28.3168254536
 20
-752.7124001139
 30
0.0
 11
28.3168254536
 21
-751.6919713893
 31
0.0
  0
LINE
  5
322
330
1F
100
AcDbEntity
  8
0
  6
Continuous
 62
     7
370
    15
100
AcDbLine
 10
-29.6831430752
 20
-751.6919713893
 30
0.0
 11
-29.6831430752
 21
-752.7124001139
 31
0.0
  0
LINE
  5
323
330
1F
100
AcDbEntity
  8
0
  6
Continuous
 62
     7
370
    15
100
AcDbLine
 10
28.3168254536
 20
-769.6919715458
 30
0.0
 11
28.3168254536
 21
-768.7236456626
 31
0.0
  0
LINE
  5
324
330
1F
100
AcDbEntity
  8
0
  6
Continuous
 62
     7
370
    15
100
AcDbLine
 10
-29.6831430752
 20
-768.7236456626
 30
0.0
 11
-29.6831430752
 21
-769.6919715458
 31
0.0
  0
ARC
  5
325
330
1F
100
AcDbEntity
  8
0
  6
Continuous
 62
     7
370
    15
100
AcDbCircle
 10
-662.0831707317
 20
-760.7180230286
 30
0.0
 40
12.5
100
AcDbArc
 50
140.1746287392
 51
219.8253712608
  0
ARC
  5
326
330
1F
100
AcDbEntity
  8
0
  6
Continuous
 62
     7
370
    15
100
AcDbCircle
 10
-739.2831707317
 20
-760.7180230286
 30
0.0
 40
12.50000000000009
100
AcDbArc
 50
320.1746287392
 51
39.8253712608
  0
LINE
  5
327
330
1F
100
AcDbEntity
  8
0
  6
Continuous
 62
     7
370
    15
100
AcDbLine
 10
-671.6831775266
 20
-752.7124001139
 30
0.0
 11
-671.6831775266
 21
-751.6919713893
 31
0.0
  0
LINE
  5
328
330
1F
100
AcDbEntity
  8
0
  6
Continuous
 62
     7
370
    15
100
AcDbLine
 10
-729.6831684071
 20
-751.6919713893
 30
0.0
 11
-729.6831684071
 21
-752.7124001139
 31
0.0
  0
LINE
  5
329
330
1F
100
AcDbEntity
  8
0
  6
Continuous
 62
     7
370
    15
100
AcDbLine
 10
-671.6831775266
 20
-769.6919715458
 30
0.0
 11
-671.6831775266
 21
-768.7236456626
 31
0.0
  0
LINE
  5
32A
330
1F
100
AcDbEntity
  8
0
  6
Continuous
 62
     7
370
    15
100
AcDbLine
 10
-729.6831684071
 20
-768.7236456626
 30
0.0
 11
-729.6831684071
 21
-769.6919715458
 31
0.0
  0
LINE
  5
32B
330
1F
100
AcDbEntity
  8
0
  6
Continuous
 62
     7
370
    15
100
AcDbLine
 10
-685.6831686455
 20
-771.991971364
 30
0.0
 11
-685.9831737239
 21
-771.6919718736
 31
0.0
  0
LINE
  5
32C
330
1F
100
AcDbEntity
  8
0
  6
Continuous
 62
     7
370
    15
100
AcDbLine
 10
-715.3831722099
 20
-771.6919718736
 30
0.0
 11
-715.6831698376
 21
-771.991971364
 31
0.0
  0
LINE
  5
32D
330
1F
100
AcDbEntity
  8
0
  6
Continuous
 62
     7
370
    15
100
AcDbLine
 10
-685.6831686455
 20
-777.391971504
 30
0.0
 11
-685.6831686455
 21
-771.991971364
 31
0.0
  0
LINE
  5
32E
330
1F
100
AcDbEntity
  8
0
  6
Continuous
 62
     7
370
    15
100
AcDbLine
 10
-715.6831698376
 20
-771.991971364
 30
0.0
 11
-715.6831698376
 21
-777.391971504
 31
0.0
  0
LINE
  5
32F
330
1F
100
AcDbEntity
  8
0
  6
Continuous
 62
     7
370
    15
100
AcDbLine
 10
-715.6831698376
 20
-777.391971504
 30
0.0
 11
-715.3831722099
 21
-777.6919709944
 31
0.0
  0
LINE
  5
330
330
1F
100
AcDbEntity
  8
0
  6
Continuous
 62
     7
370
    15
100
AcDbLine
 10
-685.9831737239
 20
-777.6919709944
 30
0.0
 11
-685.6831686455
 21
-777.391971504
 31
0.0
  0
LINE
  5
331
330
1F
100
AcDbEntity
  8
0
  6
Continuous
 62
     7
370
    15
100
AcDbLine
 10
-690.9331681091
 20
-771.6919718736
 30
0.0
 11
-690.9331681091
 21
-771.1919717916
 31
0.0
  0
LINE
  5
332
330
1F
100
AcDbEntity
  8
0
  6
Continuous
 62
     7
370
    15
100
AcDbLine
 10
-710.4331703741
 20
-771.1919717916
 30
0.0
 11
-710.4331703741
 21
-771.6919718736
 31
0.0
  0
LINE
  5
333
330
1F
100
AcDbEntity
  8
0
  6
Continuous
 62
     7
370
    15
100
AcDbLine
 10
14.3168268841
 20
-771.991971364
 30
0.0
 11
14.016836707
 21
-771.6919718736
 31
0.0
  0
LINE
  5
334
330
1F
100
AcDbEntity
  8
0
  6
Continuous
 62
     7
370
    15
100
AcDbLine
 10
-15.3831543285
 20
-771.6919718736
 30
0.0
 11
-15.6831445057
 21
-771.991971364
 31
0.0
  0
LINE
  5
335
330
1F
100
AcDbEntity
  8
0
  6
Continuous
 62
     7
370
    15
100
AcDbLine
 10
14.3168268841
 20
-777.391971504
 30
0.0
 11
14.3168268841
 21
-771.991971364
 31
0.0
  0
LINE
  5
336
330
1F
100
AcDbEntity
  8
0
  6
Continuous
 62
     7
370
    15
100
AcDbLine
 10
-15.6831445057
 20
-771.991971364
 30
0.0
 11
-15.6831445057
 21
-777.391971504
 31
0.0
  0
LINE
  5
337
330
1F
100
AcDbEntity
  8
0
  6
Continuous
 62
     7
370
    15
100
AcDbLine
 10
-15.6831445057
 20
-777.391971504
 30
0.0
 11
-15.3831543285
 21
-777.6919709944
 31
0.0
  0
LINE
  5
338
330
1F
100
AcDbEntity
  8
0
  6
Continuous
 62
     7
370
    15
100
AcDbLine
 10
14.016836707
 20
-777.6919709944
 30
0.0
 11
14.3168268841
 21
-777.391971504
 31
0.0
  0
LINE
  5
339
330
1F
100
AcDbEntity
  8
0
  6
Continuous
 62
     7
370
    15
100
AcDbLine
 10
9.0668497723
 20
-771.6919718736
 30
0.0
 11
9.0668497723
 21
-771.1919717916
 31
0.0
  0
LINE
  5
33A
330
1F
100
AcDbEntity
  8
0
  6
Continuous
 62
     7
370
    15
100
AcDbLine
 10
-10.4331673938
 20
-771.1919717916
 30
0.0
 11
-10.4331673938
 21
-771.6919718736
 31
0.0
  0
LINE
  5
33B
330
1F
100
AcDbEntity
  8
0
  6
Continuous
 62
     7
370
    15
100
AcDbLine
 10
1301.3168273609
 20
-773.2180230745
 30
0.0
 11
1301.3168273609
 21
-748.218022702
 31
0.0
  0
LINE
  5
33C
330
1F
100
AcDbEntity
  8
0
  6
Continuous
 62
     7
370
    15
100
AcDbLine
 10
-798.6831706367
 20
-773.2180230745
 30
0.0
 11
-798.6831706367
 21
-748.218022702
 31
0.0
  0
LWPOLYLINE
  5
33D
330
1F
100
AcDbEntity
  8
0
  6
Continuous
 62
     7
370
    15
100
AcDbPolyline
 90
       13
 70
   128
 43
0.0
 10
1163.7987790745
 20
-773.1989188545
 10
1164.03612477
 20
-773.0572507211
 10
1164.8926435154
 20
-772.572006514
 10
1166.3958726567
 20
-771.8294406735
 10
1168.6598954838
 20
-771.0285498255
 10
1170.73950154
 20
-770.6970399671
 10
1172.8943286579
 20
-770.8044549876
 10
1174.7768817585
 20
-771.2640971371
 10
1176.6010223072
 20
-771.9950177201
 10
1178.1375108403
 20
-772.7915285581
 10
1178.8363156956
 20
-773.1996490114
 10
1178.8668332737
 20
-773.2180230745
 10
1178.8668332737
 20
-773.2180230745
  0
LWPOLYLINE
  5
33E
330
1F
100
AcDbEntity
  8
0
  6
Continuous
 62
     7
370
    15
100
AcDbPolyline
 90
       13
 70
   128
 43
0.0
 10
-63.2012190181
 20
-773.1989188545
 10
-62.9638733226
 20
-773.0572507211
 10
-62.1072949726
 20
-772.572006514
 10
-60.6041850406
 20
-771.8294406735
 10
-58.3401622135
 20
-771.0285498255
 10
-56.2604965526
 20
-770.6970399671
 10
-54.1056694347
 20
-770.8044549876
 10
-52.2230567295
 20
-771.2640971371
 10
-50.3989161808
 20
-771.9950177201
 10
-48.8624872524
 20
-772.7915285581
 10
-48.1636227924
 20
-773.1996490114
 10
-48.1331648189
 20
-773.2180230745
 10
-48.1331648189
 20
-773.2180230745
  0
LWPOLYLINE
  5
33F
330
1F
100
AcDbEntity
  8
0
  6
Continuous
 62
     7
370
    15
100
AcDbPolyline
 90
       13
 70
   128
 43
0.0
 10
-676.2012096006
 20
-773.1989188545
 10
-675.963901158
 20
-773.0572507211
 10
-675.1073004562
 20
-772.572006514
 10
-673.6041607219
 20
-771.8294406735
 10
-671.3401378948
 20
-771.0285498255
 10
-669.2604871351
 20
-770.6970399671
 10
-667.105645116
 20
-770.8044549876
 10
-665.2230920154
 20
-771.2640971371
 10
-663.3989365656
 20
-771.9950177201
 10
-661.8624629337
 20
-772.7915285581
 10
-661.163628276
 20
-773.1996490114
 10
-661.1331703026
 20
-773.2180230745
 10
-661.1331703026
 20
-773.2180230745
  0
LWPOLYLINE
  5
340
330
1F
100
AcDbEntity
  8
0
  6
Continuous
 62
     7
370
    15
100
AcDbPolyline
 90
       13
 70
   128
 43
0.0
 10
550.7987437886
 20
-773.1989188545
 10
551.0360894841
 20
-773.0572507211
 10
551.8927274388
 20
-772.572006514
 10
553.3958373707
 20
-771.8294406735
 10
555.6598601979
 20
-771.0285498255
 10
557.7394662541
 20
-770.6970399671
 10
559.8944125813
 20
-770.8044549876
 10
561.7769656819
 20
-771.2640971371
 10
563.6011062306
 20
-771.9950177201
 10
565.1375947636
 20
-772.7915285581
 10
565.8363996189
 20
-773.1996490114
 10
565.8667979878
 20
-773.2180230745
 10
565.8667979878
 20
-773.2180230745
  0
LINE
  5
341
330
1F
100
AcDbEntity
  8
0
  6
Continuous
 62
     7
370
    15
100
AcDbLine
 10
1177.2453485173
 20
-774.1193281912
 30
0.0
 11
1178.7668166798
 21
-774.1193281912
 31
0.0
  0
LINE
  5
342
330
1F
100
AcDbEntity
  8
0
  6
Continuous
 62
     7
370
    15
100
AcDbLine
 10
1163.8668475788
 20
-774.1193281912
 30
0.0
 11
1177.2453485173
 21
-774.1193281912
 31
0.0
  0
LINE
  5
343
330
1F
100
AcDbEntity
  8
0
  6
Continuous
 62
     7
370
    15
100
AcDbLine
 10
1176.4495073002
 20
-775.1193283551
 30
0.0
 11
1164.8667750996
 21
-775.1193283551
 31
0.0
  0
LINE
  5
344
330
1F
100
AcDbEntity
  8
0
  6
Continuous
 62
     7
370
    15
100
AcDbLine
 10
1177.7667699498
 20
-775.1193283551
 30
0.0
 11
1176.4495073002
 21
-775.1193283551
 31
0.0
  0
LINE
  5
345
330
1F
100
AcDbEntity
  8
0
  6
Continuous
 62
     7
370
    15
100
AcDbLine
 10
-662.7546997625
 20
-774.1193281912
 30
0.0
 11
-661.2331719953
 21
-774.1193281912
 31
0.0
  0
LINE
  5
346
330
1F
100
AcDbEntity
  8
0
  6
Continuous
 62
     7
370
    15
100
AcDbLine
 10
-676.1331708986
 20
-774.1193281912
 30
0.0
 11
-662.7546997625
 21
-774.1193281912
 31
0.0
  0
LINE
  5
347
330
1F
100
AcDbEntity
  8
0
  6
Continuous
 62
     7
370
    15
100
AcDbLine
 10
-663.5504664737
 20
-775.1193283551
 30
0.0
 11
-675.133168872
 21
-775.1193283551
 31
0.0
  0
LINE
  5
348
330
1F
100
AcDbEntity
  8
0
  6
Continuous
 62
     7
370
    15
100
AcDbLine
 10
-662.2331740219
 20
-775.1193283551
 30
0.0
 11
-663.5504664737
 21
-775.1193283551
 31
0.0
  0
LINE
  5
349
330
1F
100
AcDbEntity
  8
0
  6
Continuous
 62
     7
370
    15
100
AcDbLine
 10
-49.75470918
 20
-774.1193281912
 30
0.0
 11
-48.2331814129
 21
-774.1193281912
 31
0.0
  0
LINE
  5
34A
330
1F
100
AcDbEntity
  8
0
  6
Continuous
 62
     7
370
    15
100
AcDbLine
 10
-63.1331505138
 20
-774.1193281912
 30
0.0
 11
-49.75470918
 21
-774.1193281912
 31
0.0
  0
LINE
  5
34B
330
1F
100
AcDbEntity
  8
0
  6
Continuous
 62
     7
370
    15
100
AcDbLine
 10
-50.5504907924
 20
-775.1193283551
 30
0.0
 11
-62.1331633884
 21
-775.1193283551
 31
0.0
  0
LINE
  5
34C
330
1F
100
AcDbEntity
  8
0
  6
Continuous
 62
     7
370
    15
100
AcDbLine
 10
-49.2331685383
 20
-775.1193283551
 30
0.0
 11
-50.5504907924
 21
-775.1193283551
 31
0.0
  0
LINE
  5
34D
330
1F
100
AcDbEntity
  8
0
  6
Continuous
 62
     7
370
    15
100
AcDbLine
 10
564.2453132313
 20
-774.1193281912
 30
0.0
 11
565.7667813938
 21
-774.1193281912
 31
0.0
  0
LINE
  5
34E
330
1F
100
AcDbEntity
  8
0
  6
Continuous
 62
     7
370
    15
100
AcDbLine
 10
550.8668122929
 20
-774.1193281912
 30
0.0
 11
564.2453132313
 21
-774.1193281912
 31
0.0
  0
LINE
  5
34F
330
1F
100
AcDbEntity
  8
0
  6
Continuous
 62
     7
370
    15
100
AcDbLine
 10
563.4495912236
 20
-775.1193283551
 30
0.0
 11
551.8668590229
 21
-775.1193283551
 31
0.0
  0
LINE
  5
350
330
1F
100
AcDbEntity
  8
0
  6
Continuous
 62
     7
370
    15
100
AcDbLine
 10
564.7668538731
 20
-775.1193283551
 30
0.0
 11
563.4495912236
 21
-775.1193283551
 31
0.0
  0
LINE
  5
351
330
1F
100
AcDbEntity
  8
0
  6
Continuous
 62
     7
370
    15
100
AcDbLine
 10
1257.3169170063
 20
-785.3180239403
 30
0.0
 11
1217.3167167347
 21
-785.3180239403
 31
0.0
  0
LINE
  5
352
330
1F
100
AcDbEntity
  8
0
  6
Continuous
 62
     7
370
    15
100
AcDbLine
 10
1257.3169170063
 20
-777.318022629
 30
0.0
 11
1217.3167167347
 21
-777.318022629
 31
0.0
  0
LINE
  5
353
330
1F
100
AcDbEntity
  8
0
  6
Continuous
 62
     7
370
    15
100
AcDbLine
 10
-715.6831698376
 20
-777.318022629
 30
0.0
 11
-754.6831706423
 21
-777.318022629
 31
0.0
  0
LINE
  5
354
330
1F
100
AcDbEntity
  8
0
  6
Continuous
 62
     7
370
    15
100
AcDbLine
 10
-715.6831698376
 20
-785.3180239403
 30
0.0
 11
-754.6831706423
 21
-785.3180239403
 31
0.0
  0
LINE
  5
355
330
1F
100
AcDbEntity
  8
0
  6
Continuous
 62
     7
370
    15
100
AcDbLine
 10
-718.6831684667
 20
-746.5180227959
 30
0.0
 11
-750.6831699866
 21
-746.5180227959
 31
0.0
  0
LINE
  5
356
330
1F
100
AcDbEntity
  8
0
  6
Continuous
 62
     7
370
    15
100
AcDbLine
 10
-748.8831693191
 20
-744.7180230596
 30
0.0
 11
-720.4831691343
 21
-744.7180230596
 31
0.0
  0
SPLINE
  5
357
330
1F
100
AcDbEntity
  8
0
  6
Continuous
 62
     7
370
    15
100
AcDbSpline
210
0.0
220
0.0
230
1.0
 70
     8
 71
     3
 72
    10
 73
     6
 74
     0
 42
0.00000001
 43
0.00000001
 40
0.0
 40
0.0
 40
0.0
 40
0.0
 40
0.2371444491818316
 40
0.6851243029475459
 40
1.0
 40
1.0
 40
1.0
 40
1.0
 10
-718.784071679755
 20
-773.1896410190459
 30
0.0
 10
-718.7650292970276
 20
-773.2134751147169
 30
0.0
 10
-718.7100147300089
 20
-773.2823332230945
 30
0.0
 10
-719.2936376438286
 20
-772.5525927422476
 30
0.0
 10
-719.9967548525956
 20
-771.5894980497693
 30
0.0
 10
-720.2869729954441
 20
-771.1919717916246
 30
0.0
  0
SPLINE
  5
358
330
1F
100
AcDbEntity
  8
0
  6
Continuous
 62
     7
370
    15
100
AcDbSpline
210
0.0
220
0.0
230
1.0
 70
     8
 71
     3
 72
    10
 73
     6
 74
     0
 42
0.00000001
 43
0.00000001
 40
0.0
 40
0.0
 40
0.0
 40
0.0
 40
0.3258668321900742
 40
0.7941890956614035
 40
0.9999999999999999
 40
0.9999999999999999
 40
0.9999999999999999
 40
0.9999999999999999
 10
-720.2584298211773
 20
-750.1919711434241
 30
0.0
 10
-719.9701862641349
 20
-749.8030922443384
 30
0.0
 10
-719.2676910504944
 20
-748.8553327589342
 30
0.0
 10
-718.7493125810801
 20
-748.2028020547152
 30
0.0
 10
-718.6986389726661
 20
-748.1378519505924
 30
0.0
 10
-718.6831684667309
 20
-748.1180228718515
 30
0.0
  0
SPLINE
  5
359
330
1F
100
AcDbEntity
  8
0
  6
Continuous
 62
     7
370
    15
100
AcDbSpline
210
0.0
220
0.0
230
1.0
 70
     8
 71
     3
 72
    22
 73
    18
 74
     0
 42
0.00000001
 43
0.00000001
 40
0.0
 40
0.0
 40
0.0
 40
0.0
 40
0.0870777599190978
 40
0.1738038493586143
 40
0.2313481965222977
 40
0.2905521566990665
 40
0.3488893436459136
 40
0.4089778473778076
 40
0.477943699720293
 40
0.5473137348902332
 40
0.6291798765502328
 40
0.6881376910943754
 40
0.7487575914865442
 40
0.8086819438330766
 40
0.8706630749056211
 40
0.9564113612208249
 40
1.0
 40
1.0
 40
1.0
 40
1.0
 10
-750.6831699866493
 20
-748.1180228718515
 30
0.0
 10
-750.6005463207711
 20
-748.2221600163846
 30
0.0
 10
-750.4356326712799
 20
-748.4300137392854
 30
0.0
 10
-749.3889551855935
 20
-749.7913967693839
 30
0.0
 10
-748.2623688688814
 20
-751.3622532088384
 30
0.0
 10
-747.1913040982713
 20
-752.9825235217697
 30
0.0
 10
-746.1108437679363
 20
-754.8609726381101
 30
0.0
 10
-745.1059216171832
 20
-757.0950366074629
 30
0.0
 10
-744.4426880608916
 20
-759.775347989968
 30
0.0
 10
-744.6249143453383
 20
-762.903501823863
 30
0.0
 10
-745.6119003136547
 20
-765.5910845896108
 30
0.0
 10
-746.8024815266184
 20
-767.8165396053565
 30
0.0
 10
-747.9092348519457
 20
-769.5595069099708
 30
0.0
 10
-748.9740121796578
 20
-771.0751407918158
 30
0.0
 10
-749.968416266714
 20
-772.4066858221632
 30
0.0
 10
-750.6570110596057
 20
-773.2849789738881
 30
0.0
 10
-750.6011072597246
 20
-773.2136724669272
 30
0.0
 10
-750.5822667736252
 20
-773.1896410190459
 30
0.0
  0
LINE
  5
35A
330
1F
100
AcDbEntity
  8
0
  6
Continuous
 62
     7
370
    15
100
AcDbLine
 10
1253.3167300862
 20
-746.5180227959
 30
0.0
 11
1221.3169036549
 21
-746.5180227959
 31
0.0
  0
LINE
  5
35B
330
1F
100
AcDbEntity
  8
0
  6
Continuous
 62
     7
370
    15
100
AcDbLine
 10
1223.1167255085
 20
-744.7180230596
 30
0.0
 11
1251.5169082325
 21
-744.7180230596
 31
0.0
  0
SPLINE
  5
35C
330
1F
100
AcDbEntity
  8
0
  6
Continuous
 62
     7
370
    15
100
AcDbSpline
210
0.0
220
0.0
230
1.0
 70
     8
 71
     3
 72
    22
 73
    18
 74
     0
 42
0.00000001
 43
0.00000001
 40
0.0
 40
0.0
 40
0.0
 40
0.0
 40
0.0424483304480308
 40
0.122635549937722
 40
0.2089114741486686
 40
0.3120065823486974
 40
0.3621946844682999
 40
0.4135779025940628
 40
0.4821779275238176
 40
0.5511346029058081
 40
0.6347836891342076
 40
0.6944717287865293
 40
0.7558514520976672
 40
0.8161937504205478
 40
0.878713114929062
 40
0.962971533314784
 40
1.0
 40
1.0
 40
1.0
 40
1.0
 10
1253.215879027204
 20
-773.1896410190459
 30
0.0
 10
1253.235845724162
 20
-773.215108942148
 30
0.0
 10
1253.293530604487
 20
-773.2886871658952
 30
0.0
 10
1252.577390833047
 20
-772.3753442304496
 30
0.0
 10
1251.244845558701
 20
-770.5921546262003
 30
0.0
 10
1249.732756545515
 20
-768.3513557624881
 30
0.0
 10
1248.520395684431
 20
-766.108906262213
 30
0.0
 10
1247.649129391704
 20
-764.0439102295667
 30
0.0
 10
1247.060314836538
 20
-761.4723999299342
 30
0.0
 10
1247.303064192231
 20
-758.3383662497496
 30
0.0
 10
1248.33486827479
 20
-755.6493938496312
 30
0.0
 10
1249.556796501669
 20
-753.416598706513
 30
0.0
 10
1250.674379202879
 20
-751.6822636279546
 30
0.0
 10
1251.729952329089
 20
-750.1931661381303
 30
0.0
 10
1252.706232790761
 20
-748.8952850953488
 30
0.0
 10
1253.252378675716
 20
-748.2000081792344
 30
0.0
 10
1253.301678898572
 20
-748.1371984615175
 30
0.0
 10
1253.316730086164
 20
-748.1180228718515
 30
0.0
  0
SPLINE
  5
35D
330
1F
100
AcDbEntity
  8
0
  6
Continuous
 62
     7
370
    15
100
AcDbSpline
210
0.0
220
0.0
230
1.0
 70
     8
 71
     3
 72
    22
 73
    18
 74
     0
 42
0.00000001
 43
0.00000001
 40
0.0
 40
0.0
 40
0.0
 40
0.0
 40
0.0870778386950292
 40
0.1738029285696113
 40
0.2313481295185393
 40
0.2905527527523735
 40
0.3488889103587884
 40
0.408978118119519
 40
0.4779433398452659
 40
0.5473133406489953
 40
0.6291786208244774
 40
0.6881365159332018
 40
0.7487573192371504
 40
0.8086815310272046
 40
0.8706624220186285
 40
0.9564113593361623
 40
1.0
 40
1.0
 40
1.0
 40
1.0
 10
1221.31690365489
 20
-748.1180228718515
 30
0.0
 10
1221.399556454418
 20
-748.2221568057013
 30
0.0
 10
1221.564527230313
 20
-748.4300028310251
 30
0.0
 10
1222.610950547273
 20
-749.7914200543111
 30
0.0
 10
1223.737683303524
 20
-751.3622537986698
 30
0.0
 10
1224.808845169485
 20
-752.9824871039175
 30
0.0
 10
1225.88911017134
 20
-754.8610165441521
 30
0.0
 10
1226.894238234077
 20
-757.0949964605704
 30
0.0
 10
1227.557218956116
 20
-759.775371712876
 30
0.0
 10
1227.375085540417
 20
-762.903476703148
 30
0.0
 10
1226.388228758449
 20
-765.5911027367968
 30
0.0
 10
1225.197641214292
 20
-767.8165545316283
 30
0.0
 10
1224.090773989713
 20
-769.559488327793
 30
0.0
 10
1223.026020724865
 20
-771.0751417360689
 30
0.0
 10
1222.031703594021
 20
-772.4066938889403
 30
0.0
 10
1221.342866492583
 20
-773.2849774591058
 30
0.0
 10
1221.398878017231
 20
-773.2136719951494
 30
0.0
 10
1221.417754713849
 20
-773.1896410190459
 30
0.0
  0
LWPOLYLINE
  5
35E
330
1F
100
AcDbEntity
  8
0
  6
Continuous
 62
     7
370
    15
100
AcDbPolyline
 90
       13
 70
   128
 43
0.0
 10
-48.211008485
 20
-748.2345583343
 10
-48.458665784
 20
-748.3813384973
 10
-49.319952901
 20
-748.8651391544
 10
-50.8266391117
 20
-749.601093536
 10
-53.0867876369
 20
-750.386462962
 10
-55.1567973453
 20
-750.7041790017
 10
-57.2951139766
 20
-750.5889343523
 10
-59.1689647991
 20
-750.1279054635
 10
-60.980826791
 20
-749.4014300832
 10
-62.4897183735
 20
-748.6213691958
 10
-63.1584228832
 20
-748.2328679838
 10
-63.1831588108
 20
-748.218022702
 10
-63.1831588108
 20
-748.218022702
  0
LWPOLYLINE
  5
35F
330
1F
100
AcDbEntity
  8
0
  6
Continuous
 62
     7
370
    15
100
AcDbPolyline
 90
       13
 70
   128
 43
0.0
 10
1178.7889896076
 20
-748.2345583343
 10
1178.5413919133
 20
-748.3813384973
 10
1177.6801047962
 20
-748.8651391544
 10
1176.1734185856
 20
-749.601093536
 10
1173.9132104557
 20
-750.386462962
 10
1171.8431411427
 20
-750.7041790017
 10
1169.704884116
 20
-750.5889343523
 10
1167.8310332936
 20
-750.1279054635
 10
1166.0191713017
 20
-749.4014300832
 10
1164.5103393238
 20
-748.6213691958
 10
1163.8415752095
 20
-748.2328679838
 10
1163.8167796772
 20
-748.218022702
 10
1163.8167796772
 20
-748.218022702
  0
LWPOLYLINE
  5
360
330
1F
100
AcDbEntity
  8
0
  6
Continuous
 62
     7
370
    15
100
AcDbPolyline
 90
       13
 70
   128
 43
0.0
 10
-661.2110288698
 20
-748.2345583343
 10
-661.4586414653
 20
-748.3813384973
 10
-662.3199285824
 20
-748.8651391544
 10
-663.826614793
 20
-749.601093536
 10
-666.0867931205
 20
-750.386462962
 10
-668.156802829
 20
-750.7041790017
 10
-670.2951343614
 20
-750.5889343523
 10
-672.1689404804
 20
-750.1279054635
 10
-673.9808322746
 20
-749.4014300832
 10
-675.4897089559
 20
-748.6213691958
 10
-676.1584060151
 20
-748.2328679838
 10
-676.183171745
 20
-748.218022702
 10
-676.183171745
 20
-748.218022702
  0
LWPOLYLINE
  5
361
330
1F
100
AcDbEntity
  8
0
  6
Continuous
 62
     7
370
    15
100
AcDbPolyline
 90
       13
 70
   128
 43
0.0
 10
565.7889543217
 20
-748.2345583343
 10
565.5413566273
 20
-748.3813384973
 10
564.6800695103
 20
-748.8651391544
 10
563.1733832997
 20
-749.601093536
 10
560.9131751698
 20
-750.386462962
 10
558.843225066
 20
-750.7041790017
 10
556.7048488301
 20
-750.5889343523
 10
554.8311172169
 20
-750.1279054635
 10
553.0191360157
 20
-749.4014300832
 10
551.5103040379
 20
-748.6213691958
 10
550.8415399235
 20
-748.2328679838
 10
550.8168636006
 20
-748.218022702
 10
550.8168636006
 20
-748.218022702
  0
LINE
  5
362
330
1F
100
AcDbEntity
  8
0
  6
Continuous
 62
     7
370
    15
100
AcDbLine
 10
-30.7125748951
 20
-743.2180228137
 30
0.0
 11
-30.6831898052
 21
-743.2180228137
 31
0.0
  0
LINE
  5
363
330
1F
100
AcDbEntity
  8
0
  6
Continuous
 62
     7
370
    15
100
AcDbLine
 10
-80.6831421215
 20
-743.2180228137
 30
0.0
 11
-30.7125748951
 21
-743.2180228137
 31
0.0
  0
LINE
  5
364
330
1F
100
AcDbEntity
  8
0
  6
Continuous
 62
     7
370
    15
100
AcDbLine
 10
-30.6831898052
 20
-741.2180224859
 30
0.0
 11
-80.6831421215
 21
-741.2180224859
 31
0.0
  0
LINE
  5
365
330
1F
100
AcDbEntity
  8
0
  6
Continuous
 62
     7
370
    15
100
AcDbLine
 10
-31.6831769306
 20
-744.2180229776
 30
0.0
 11
-79.6831549961
 21
-744.2180229776
 31
0.0
  0
LINE
  5
366
330
1F
100
AcDbEntity
  8
0
  6
Continuous
 62
     7
370
    15
100
AcDbLine
 10
-643.6831654865
 20
-741.2180224859
 30
0.0
 11
-693.6831699568
 21
-741.2180224859
 31
0.0
  0
LINE
  5
367
330
1F
100
AcDbEntity
  8
0
  6
Continuous
 62
     7
370
    15
100
AcDbLine
 10
-643.7125803787
 20
-743.2180228137
 30
0.0
 11
-643.6831654865
 21
-743.2180228137
 31
0.0
  0
LINE
  5
368
330
1F
100
AcDbEntity
  8
0
  6
Continuous
 62
     7
370
    15
100
AcDbLine
 10
-693.6831699568
 20
-743.2180228137
 30
0.0
 11
-643.7125803787
 21
-743.2180228137
 31
0.0
  0
LINE
  5
369
330
1F
100
AcDbEntity
  8
0
  6
Continuous
 62
     7
370
    15
100
AcDbLine
 10
-644.6831675131
 20
-744.2180229776
 30
0.0
 11
-692.6831679303
 21
-744.2180229776
 31
0.0
  0
LINE
  5
36A
330
1F
100
AcDbEntity
  8
0
  6
Continuous
 62
     7
370
    15
100
AcDbLine
 10
1196.2873635929
 20
-743.2180228137
 30
0.0
 11
1196.3168082875
 21
-743.2180228137
 31
0.0
  0
LINE
  5
36B
330
1F
100
AcDbEntity
  8
0
  6
Continuous
 62
     7
370
    15
100
AcDbLine
 10
1146.3168559712
 20
-743.2180228137
 30
0.0
 11
1196.2873635929
 21
-743.2180228137
 31
0.0
  0
LINE
  5
36C
330
1F
100
AcDbEntity
  8
0
  6
Continuous
 62
     7
370
    15
100
AcDbLine
 10
1196.3168082875
 20
-741.2180224859
 30
0.0
 11
1146.3168559712
 21
-741.2180224859
 31
0.0
  0
LINE
  5
36D
330
1F
100
AcDbEntity
  8
0
  6
Continuous
 62
     7
370
    15
100
AcDbLine
 10
1195.3168807667
 20
-744.2180229776
 30
0.0
 11
1147.3167834919
 21
-744.2180229776
 31
0.0
  0
LINE
  5
36E
330
1F
100
AcDbEntity
  8
0
  6
Continuous
 62
     7
370
    15
100
AcDbLine
 10
582.3168454808
 20
-744.2180229776
 30
0.0
 11
534.3168674153
 21
-744.2180229776
 31
0.0
  0
LINE
  5
36F
330
1F
100
AcDbEntity
  8
0
  6
Continuous
 62
     7
370
    15
100
AcDbLine
 10
583.2874475163
 20
-743.2180228137
 30
0.0
 11
583.3167730015
 21
-743.2180228137
 31
0.0
  0
LINE
  5
370
330
1F
100
AcDbEntity
  8
0
  6
Continuous
 62
     7
370
    15
100
AcDbLine
 10
533.3168206852
 20
-743.2180228137
 30
0.0
 11
583.2874475163
 21
-743.2180228137
 31
0.0
  0
LINE
  5
371
330
1F
100
AcDbEntity
  8
0
  6
Continuous
 62
     7
370
    15
100
AcDbLine
 10
583.3167730015
 20
-741.2180224859
 30
0.0
 11
533.3168206852
 21
-741.2180224859
 31
0.0
  0
LINE
  5
372
330
1F
100
AcDbEntity
  8
0
  6
Continuous
 62
     7
370
    15
100
AcDbLine
 10
-800.4831707368
 20
-748.218022702
 30
0.0
 11
-800.4831707368
 21
-773.2180230745
 31
0.0
  0
LINE
  5
373
330
1F
100
AcDbEntity
  8
0
  6
Continuous
 62
     7
370
    15
100
AcDbLine
 10
-800.6831707317
 20
-773.0180234143
 30
0.0
 11
-800.6831707317
 21
-748.4180232936
 31
0.0
  0
LINE
  5
374
330
1F
100
AcDbEntity
  8
0
  6
Continuous
 62
     7
370
    15
100
AcDbLine
 10
-798.8831707626
 20
-773.2180230745
 30
0.0
 11
-798.8831707626
 21
-748.218022702
 31
0.0
  0
LINE
  5
375
330
1F
100
AcDbEntity
  8
0
  6
Continuous
 62
     7
370
    15
100
AcDbLine
 10
1301.5168605488
 20
-751.2764385396
 30
0.0
 11
1301.5168605488
 21
-773.2180230745
 31
0.0
  0
LINE
  5
376
330
1F
100
AcDbEntity
  8
0
  6
Continuous
 62
     7
370
    15
100
AcDbLine
 10
1301.5168605488
 20
-748.218022702
 30
0.0
 11
1301.5168605488
 21
-751.2764385396
 31
0.0
  0
LINE
  5
377
330
1F
100
AcDbEntity
  8
0
  6
Continuous
 62
     7
370
    15
100
AcDbLine
 10
1303.1168876332
 20
-751.2764385396
 30
0.0
 11
1303.1168876332
 21
-748.218022702
 31
0.0
  0
LINE
  5
378
330
1F
100
AcDbEntity
  8
0
  6
Continuous
 62
     7
370
    15
100
AcDbLine
 10
1303.1168876332
 20
-773.2180230745
 30
0.0
 11
1303.1168876332
 21
-751.2764385396
 31
0.0
  0
LINE
  5
379
330
1F
100
AcDbEntity
  8
0
  6
Continuous
 62
     7
370
    15
100
AcDbLine
 10
1303.316920821
 20
-751.4275041834
 30
0.0
 11
1303.316920821
 21
-773.0180234143
 31
0.0
  0
LINE
  5
37A
330
1F
100
AcDbEntity
  8
0
  6
Continuous
 62
     7
370
    15
100
AcDbLine
 10
1303.316920821
 20
-748.4180232936
 30
0.0
 11
1303.316920821
 21
-751.4275041834
 31
0.0
  0
LINE
  5
37B
330
1F
100
AcDbEntity
  8
0
  6
Continuous
 62
     7
370
    15
100
AcDbLine
 10
1250.2339778584
 20
-789.3180227333
 30
0.0
 11
1224.3996558827
 21
-789.3180227333
 31
0.0
  0
LINE
  5
37C
330
1F
100
AcDbEntity
  8
0
  6
Continuous
 62
     7
370
    15
100
AcDbLine
 10
-721.7660101015
 20
-789.3180227333
 30
0.0
 11
-747.6003283519
 21
-789.3180227333
 31
0.0
  0
LINE
  5
37D
330
1F
100
AcDbEntity
  8
0
  6
Continuous
 62
     7
370
    15
100
AcDbLine
 10
-15.6831445057
 20
-777.4919713342
 30
0.0
 11
-15.5831875164
 21
-777.4919713342
 31
0.0
  0
LINE
  5
37E
330
1F
100
AcDbEntity
  8
0
  6
Continuous
 62
     7
370
    15
100
AcDbLine
 10
14.2168102902
 20
-777.4919713342
 30
0.0
 11
14.3168268841
 21
-777.4919713342
 31
0.0
  0
LINE
  5
37F
330
1F
100
AcDbEntity
  8
0
  6
Continuous
 62
     7
370
    15
100
AcDbLine
 10
-685.7831703383
 20
-777.4919713342
 30
0.0
 11
-685.6831686455
 21
-777.4919713342
 31
0.0
  0
LINE
  5
380
330
1F
100
AcDbEntity
  8
0
  6
Continuous
 62
     7
370
    15
100
AcDbLine
 10
-715.6831698376
 20
-786.6919724696
 30
0.0
 11
-685.6831686455
 21
-786.6919724696
 31
0.0
  0
LINE
  5
381
330
1F
100
AcDbEntity
  8
0
  6
Continuous
 62
     7
370
    15
100
AcDbLine
 10
-715.6831698376
 20
-783.6919719779
 30
0.0
 11
-685.6831686455
 21
-783.6919719779
 31
0.0
  0
LINE
  5
382
330
1F
100
AcDbEntity
  8
0
  6
Continuous
 62
     7
370
    15
100
AcDbLine
 10
-713.6831732351
 20
-788.6919709348
 30
0.0
 11
-687.6831726987
 21
-788.6919709348
 31
0.0
  0
LINE
  5
383
330
1F
100
AcDbEntity
  8
0
  6
Continuous
 62
     7
370
    15
100
AcDbLine
 10
-15.6831445057
 20
-783.6919719779
 30
0.0
 11
14.3168268841
 21
-783.6919719779
 31
0.0
  0
LINE
  5
384
330
1F
100
AcDbEntity
  8
0
  6
Continuous
 62
     7
370
    15
100
AcDbLine
 10
-15.6831445057
 20
-786.6919724696
 30
0.0
 11
14.3168268841
 21
-786.6919724696
 31
0.0
  0
LINE
  5
385
330
1F
100
AcDbEntity
  8
0
  6
Continuous
 62
     7
370
    15
100
AcDbLine
 10
-13.6831702549
 20
-788.6919709348
 30
0.0
 11
12.3168526333
 21
-788.6919709348
 31
0.0
  0
LINE
  5
386
330
1F
100
AcDbEntity
  8
0
  6
Continuous
 62
     7
370
    15
100
AcDbLine
 10
-685.8831720311
 20
-749.6919719928
 30
0.0
 11
-715.4831739027
 21
-749.6919719928
 31
0.0
  0
LINE
  5
387
330
1F
100
AcDbEntity
  8
0
  6
Continuous
 62
     7
370
    15
100
AcDbLine
 10
-713.6003302294
 20
-746.6919715011
 30
0.0
 11
-687.7660157043
 21
-746.6919715011
 31
0.0
  0
LINE
  5
388
330
1F
100
AcDbEntity
  8
0
  6
Continuous
 62
     7
370
    15
100
AcDbLine
 10
14.1168533009
 20
-749.6919719928
 30
0.0
 11
-15.4831709224
 21
-749.6919719928
 31
0.0
  0
LINE
  5
389
330
1F
100
AcDbEntity
  8
0
  6
Continuous
 62
     7
370
    15
100
AcDbLine
 10
-13.6003197986
 20
-746.6919715011
 30
0.0
 11
12.2340021771
 21
-746.6919715011
 31
0.0
  0
LINE
  5
38A
330
1F
100
AcDbEntity
  8
0
  6
Continuous
 62
     7
370
    15
100
AcDbLine
 10
28.3168254536
 20
-750.1919711434
 30
0.0
 11
-29.6831430752
 21
-750.1919711434
 31
0.0
  0
LINE
  5
38B
330
1F
100
AcDbEntity
  8
0
  6
Continuous
 62
     7
370
    15
100
AcDbLine
 10
28.3168254536
 20
-751.6919713893
 30
0.0
 11
-29.6831430752
 21
-751.6919713893
 31
0.0
  0
LINE
  5
38C
330
1F
100
AcDbEntity
  8
0
  6
Continuous
 62
     7
370
    15
100
AcDbLine
 10
-729.6831684071
 20
-771.1919717916
 30
0.0
 11
-671.6831775266
 21
-771.1919717916
 31
0.0
  0
LINE
  5
38D
330
1F
100
AcDbEntity
  8
0
  6
Continuous
 62
     7
370
    15
100
AcDbLine
 10
-729.6831684071
 20
-769.6919715458
 30
0.0
 11
-671.6831775266
 21
-769.6919715458
 31
0.0
  0
LINE
  5
38E
330
1F
100
AcDbEntity
  8
0
  6
Continuous
 62
     7
370
    15
100
AcDbLine
 10
-671.6831775266
 20
-750.1919711434
 30
0.0
 11
-729.6831684071
 21
-750.1919711434
 31
0.0
  0
LINE
  5
38F
330
1F
100
AcDbEntity
  8
0
  6
Continuous
 62
     7
370
    15
100
AcDbLine
 10
-671.6831775266
 20
-751.6919713893
 30
0.0
 11
-729.6831684071
 21
-751.6919713893
 31
0.0
  0
LINE
  5
390
330
1F
100
AcDbEntity
  8
0
  6
Continuous
 62
     7
370
    15
100
AcDbLine
 10
-29.6831430752
 20
-769.6919715458
 30
0.0
 11
28.3168254536
 21
-769.6919715458
 31
0.0
  0
LINE
  5
391
330
1F
100
AcDbEntity
  8
0
  6
Continuous
 62
     7
370
    15
100
AcDbLine
 10
-29.6831430752
 20
-771.1919717916
 30
0.0
 11
28.3168254536
 21
-771.1919717916
 31
0.0
  0
LINE
  5
392
330
1F
100
AcDbEntity
  8
0
  6
Continuous
 62
     7
370
    15
100
AcDbLine
 10
28.3168254536
 20
-768.7236456626
 30
0.0
 11
-29.6831430752
 21
-768.7236456626
 31
0.0
  0
LINE
  5
393
330
1F
100
AcDbEntity
  8
0
  6
Continuous
 62
     7
370
    15
100
AcDbLine
 10
28.2923279446
 20
-752.7124001139
 30
0.0
 11
28.3168254536
 21
-752.7124001139
 31
0.0
  0
LINE
  5
394
330
1F
100
AcDbEntity
  8
0
  6
Continuous
 62
     7
370
    15
100
AcDbLine
 10
-29.6831430752
 20
-752.7124001139
 30
0.0
 11
28.2923279446
 21
-752.7124001139
 31
0.0
  0
LINE
  5
395
330
1F
100
AcDbEntity
  8
0
  6
Continuous
 62
     7
370
    15
100
AcDbLine
 10
-29.6831430752
 20
-769.6919715458
 30
0.0
 11
28.3168254536
 21
-769.6919715458
 31
0.0
  0
LINE
  5
396
330
1F
100
AcDbEntity
  8
0
  6
Continuous
 62
     7
370
    15
100
AcDbLine
 10
-671.6831775266
 20
-768.7236456626
 30
0.0
 11
-729.6831684071
 21
-768.7236456626
 31
0.0
  0
LINE
  5
397
330
1F
100
AcDbEntity
  8
0
  6
Continuous
 62
     7
370
    15
100
AcDbLine
 10
-671.7076750356
 20
-752.7124001139
 30
0.0
 11
-671.6831775266
 21
-752.7124001139
 31
0.0
  0
LINE
  5
398
330
1F
100
AcDbEntity
  8
0
  6
Continuous
 62
     7
370
    15
100
AcDbLine
 10
-729.6831684071
 20
-752.7124001139
 30
0.0
 11
-671.7076750356
 21
-752.7124001139
 31
0.0
  0
LINE
  5
399
330
1F
100
AcDbEntity
  8
0
  6
Continuous
 62
     7
370
    15
100
AcDbLine
 10
-729.6831684071
 20
-769.6919715458
 30
0.0
 11
-671.6831775266
 21
-769.6919715458
 31
0.0
  0
LINE
  5
39A
330
1F
100
AcDbEntity
  8
0
  6
Continuous
 62
     7
370
    15
100
AcDbLine
 10
-715.6831698376
 20
-777.6919709944
 30
0.0
 11
-715.6831698376
 21
-783.6919719779
 31
0.0
  0
LINE
  5
39B
330
1F
100
AcDbEntity
  8
0
  6
Continuous
 62
     7
370
    15
100
AcDbLine
 10
-715.6831698376
 20
-777.6919709944
 30
0.0
 11
-685.6831686455
 21
-777.6919709944
 31
0.0
  0
LINE
  5
39C
330
1F
100
AcDbEntity
  8
0
  6
Continuous
 62
     7
370
    15
100
AcDbLine
 10
-685.6831686455
 20
-777.6919709944
 30
0.0
 11
-685.6831686455
 21
-783.6919719779
 31
0.0
  0
LINE
  5
39D
330
1F
100
AcDbEntity
  8
0
  6
Continuous
 62
     7
370
    15
100
AcDbLine
 10
-715.6831698376
 20
-783.6919719779
 30
0.0
 11
-685.6831686455
 21
-783.6919719779
 31
0.0
  0
LINE
  5
39E
330
1F
100
AcDbEntity
  8
0
  6
Continuous
 62
     7
370
    15
100
AcDbLine
 10
-15.6831445057
 20
-777.6919709944
 30
0.0
 11
-15.6831445057
 21
-783.6919719779
 31
0.0
  0
LINE
  5
39F
330
1F
100
AcDbEntity
  8
0
  6
Continuous
 62
     7
370
    15
100
AcDbLine
 10
14.3168268841
 20
-777.6919709944
 30
0.0
 11
14.3168268841
 21
-783.6919719779
 31
0.0
  0
LINE
  5
3A0
330
1F
100
AcDbEntity
  8
0
  6
Continuous
 62
     7
370
    15
100
AcDbLine
 10
-15.6831445057
 20
-783.6919719779
 30
0.0
 11
14.3168268841
 21
-783.6919719779
 31
0.0
  0
LINE
  5
3A1
330
1F
100
AcDbEntity
  8
0
  6
Continuous
 62
     7
370
    15
100
AcDbLine
 10
-15.6831445057
 20
-777.6919709944
 30
0.0
 11
14.3168268841
 21
-777.6919709944
 31
0.0
  0
LINE
  5
3A2
330
1F
100
AcDbEntity
  8
0
  6
Continuous
 62
     7
370
    15
100
AcDbLine
 10
-715.3831722099
 20
-771.6919718736
 30
0.0
 11
-685.9831737239
 21
-771.6919718736
 31
0.0
  0
LINE
  5
3A3
330
1F
100
AcDbEntity
  8
0
  6
Continuous
 62
     7
370
    15
100
AcDbLine
 10
-685.6831686455
 20
-771.991971364
 30
0.0
 11
-715.6831698376
 21
-771.991971364
 31
0.0
  0
LINE
  5
3A4
330
1F
100
AcDbEntity
  8
0
  6
Continuous
 62
     7
370
    15
100
AcDbLine
 10
-715.6831698376
 20
-777.391971504
 30
0.0
 11
-685.6831686455
 21
-777.391971504
 31
0.0
  0
LINE
  5
3A5
330
1F
100
AcDbEntity
  8
0
  6
Continuous
 62
     7
370
    15
100
AcDbLine
 10
-15.3831543285
 20
-771.6919718736
 30
0.0
 11
14.016836707
 21
-771.6919718736
 31
0.0
  0
LINE
  5
3A6
330
1F
100
AcDbEntity
  8
0
  6
Continuous
 62
     7
370
    15
100
AcDbLine
 10
14.3168268841
 20
-771.991971364
 30
0.0
 11
-15.6831445057
 21
-771.991971364
 31
0.0
  0
LINE
  5
3A7
330
1F
100
AcDbEntity
  8
0
  6
Continuous
 62
     7
370
    15
100
AcDbLine
 10
-15.6831445057
 20
-777.391971504
 30
0.0
 11
14.3168268841
 21
-777.391971504
 31
0.0
  0
LINE
  5
3A8
330
1F
100
AcDbEntity
  8
0
  6
Continuous
 62
     8
370
    15
100
AcDbLine
 10
1251.1726318043
 20
-787.2351793998
 30
0.0
 11
1252.3168025654
 21
-787.2351793998
 31
0.0
  0
LINE
  5
3A9
330
1F
100
AcDbEntity
  8
0
  6
Continuous
 62
     8
370
    15
100
AcDbLine
 10
1222.3168311756
 20
-787.2351793998
 30
0.0
 11
1251.1726318043
 21
-787.2351793998
 31
0.0
  0
LINE
  5
3AA
330
1F
100
AcDbEntity
  8
0
  6
Continuous
 62
     8
370
    15
100
AcDbLine
 10
1252.3168025654
 20
-785.5180236005
 30
0.0
 11
1222.3168311756
 21
-785.5180236005
 31
0.0
  0
LINE
  5
3AB
330
1F
100
AcDbEntity
  8
0
  6
Continuous
 62
     8
370
    15
100
AcDbLine
 10
1252.258151595
 20
-787.3766025954
 30
0.0
 11
1222.3754821461
 21
-787.3766025954
 31
0.0
  0
LINE
  5
3AC
330
1F
100
AcDbEntity
  8
0
  6
Continuous
 62
     8
370
    15
100
AcDbLine
 10
1224.2582736653
 20
-789.259444406
 30
0.0
 11
1250.3753600758
 21
-789.259444406
 31
0.0
  0
LINE
  5
3AD
330
1F
100
AcDbEntity
  8
0
  6
Continuous
 62
     8
370
    15
100
AcDbLine
 10
-719.6831704933
 20
-785.5180236005
 30
0.0
 11
-749.6831716854
 21
-785.5180236005
 31
0.0
  0
LINE
  5
3AE
330
1F
100
AcDbEntity
  8
0
  6
Continuous
 62
     8
370
    15
100
AcDbLine
 10
-720.8272518474
 20
-787.2351793998
 30
0.0
 11
-719.6831704933
 21
-787.2351793998
 31
0.0
  0
LINE
  5
3AF
330
1F
100
AcDbEntity
  8
0
  6
Continuous
 62
     8
370
    15
100
AcDbLine
 10
-749.6831716854
 20
-787.2351793998
 30
0.0
 11
-720.8272518474
 21
-787.2351793998
 31
0.0
  0
LINE
  5
3B0
330
1F
100
AcDbEntity
  8
0
  6
Continuous
 62
     8
370
    15
100
AcDbLine
 10
-719.7417469579
 20
-787.3766025954
 30
0.0
 11
-749.6245914954
 21
-787.3766025954
 31
0.0
  0
LINE
  5
3B1
330
1F
100
AcDbEntity
  8
0
  6
Continuous
 62
     8
370
    15
100
AcDbLine
 10
-747.7417478222
 20
-789.259444406
 30
0.0
 11
-721.6245906312
 21
-789.259444406
 31
0.0
  0
LINE
  5
3B2
330
1F
100
AcDbEntity
  8
0
  6
Continuous
 62
     8
370
    15
100
AcDbLine
 10
-685.6831686455
 20
-748.7748139032
 30
0.0
 11
-715.6831698376
 21
-748.7748139032
 31
0.0
  0
LINE
  5
3B3
330
1F
100
AcDbEntity
  8
0
  6
Continuous
 62
     8
370
    15
100
AcDbLine
 10
-715.624593373
 20
-748.6333925703
 30
0.0
 11
-685.7417525608
 21
-748.6333925703
 31
0.0
  0
LINE
  5
3B4
330
1F
100
AcDbEntity
  8
0
  6
Continuous
 62
     8
370
    15
100
AcDbLine
 10
-715.6831698376
 20
-749.4919714012
 30
0.0
 11
-685.6831686455
 21
-749.4919714012
 31
0.0
  0
LINE
  5
3B5
330
1F
100
AcDbEntity
  8
0
  6
Continuous
 62
     8
370
    15
100
AcDbLine
 10
-687.6245887834
 20
-746.7505498284
 30
0.0
 11
-713.7417496998
 21
-746.7505498284
 31
0.0
  0
LINE
  5
3B6
330
1F
100
AcDbEntity
  8
0
  6
Continuous
 62
     8
370
    15
100
AcDbLine
 10
14.3168268841
 20
-748.7748139032
 30
0.0
 11
-15.6831445057
 21
-748.7748139032
 31
0.0
  0
LINE
  5
3B7
330
1F
100
AcDbEntity
  8
0
  6
Continuous
 62
     8
370
    15
100
AcDbLine
 10
-15.6246127445
 20
-748.6333925703
 30
0.0
 11
14.2582355183
 21
-748.6333925703
 31
0.0
  0
LINE
  5
3B8
330
1F
100
AcDbEntity
  8
0
  6
Continuous
 62
     8
370
    15
100
AcDbLine
 10
-15.6831445057
 20
-749.4919714012
 30
0.0
 11
14.3168268841
 21
-749.4919714012
 31
0.0
  0
LINE
  5
3B9
330
1F
100
AcDbEntity
  8
0
  6
Continuous
 62
     8
370
    15
100
AcDbLine
 10
12.3753843945
 20
-746.7505498284
 30
0.0
 11
-13.7417616207
 21
-746.7505498284
 31
0.0
  0
ENDSEC
  0
SECTION
  2
OBJECTS
  0
DICTIONARY
  5
C
330
0
100
AcDbDictionary
281
     1
  3
ACAD_GROUP
350
D
  3
ACAD_LAYOUT
350
1A
  3
ACAD_MLEADERSTYLE
350
3BC
  3
ACAD_MLINESTYLE
350
17
  3
ACAD_PLOTSETTINGS
350
19
  3
ACAD_PLOTSTYLENAME
350
E
  3
ACAD_VISUALSTYLE
350
2A
  3
AcDbVariableDictionary
350
3BA
  0
DICTIONARY
  5
D
102
{ACAD_REACTORS
330
C
102
}
330
C
100
AcDbDictionary
281
     1
  0
DICTIONARY
  5
1A
102
{ACAD_REACTORS
330
C
102
}
330
C
100
AcDbDictionary
281
     1
  3
Layout1
350
1E
  3
Layout2
350
26
  3
Model
350
22
  0
DICTIONARY
  5
3BC
102
{ACAD_REACTORS
330
C
102
}
330
C
100
AcDbDictionary
281
     1
  0
DICTIONARY
  5
17
102
{ACAD_REACTORS
330
C
102
}
330
C
100
AcDbDictionary
281
     1
  3
Standard
350
18
  0
DICTIONARY
  5
19
102
{ACAD_REACTORS
330
C
102
}
330
C
100
AcDbDictionary
281
     1
  0
ACDBDICTIONARYWDFLT
  5
E
102
{ACAD_REACTORS
330
C
102
}
330
C
100
AcDbDictionary
281
     1
  3
Normal
350
F
100
AcDbDictionaryWithDefault
340
F
  0
DICTIONARY
  5
2A
102
{ACAD_REACTORS
330
C
102
}
330
C
100
AcDbDictionary
281
     1
  3
2dWireframe
350
2F
  3
3D Hidden
350
31
  3
3dWireframe
350
30
  3
Basic
350
32
  3
Brighten
350
36
  3
ColorChange
350
3A
  3
Conceptual
350
34
  3
Dim
350
35
  3
Facepattern
350
39
  3
Flat
350
2B
  3
FlatWithEdges
350
2C
  3
Gouraud
350
2D
  3
GouraudWithEdges
350
2E
  3
Linepattern
350
38
  3
Realistic
350
33
  3
Thicken
350
37
  0
DICTIONARY
  5
3BA
102
{ACAD_REACTORS
330
C
102
}
330
C
100
AcDbDictionary
281
     1
  3
DIMASSOC
350
3BF
  3
HIDETEXT
350
3C0
  3
PSOLHEIGHT
350
3BE
  3
PSOLWIDTH
350
3BD
  0
LAYOUT
  5
1E
102
{ACAD_REACTORS
330
1A
102
}
330
1A
100
AcDbPlotSettings
  1

  2
none_device
  4

  6

 40
0.0
 41
0.0
 42
0.0
 43
0.0
 44
0.0
 45
0.0
 46
0.0
 47
0.0
 48
0.0
 49
0.0
140
0.0
141
0.0
142
1.0
143
1.0
 70
   688
 72
     0
 73
     0
 74
     5
  7

 75
    16
147
1.0
148
0.0
149
0.0
100
AcDbLayout
  1
Layout1
 70
     1
 71
     1
 10
0.0
 20
0.0
 11
420.0
 21
297.0
 12
0.0
 22
0.0
 32
0.0
 14
1.0000000000E+20
 24
1.0000000000E+20
 34
1.0000000000E+20
 15
-1.0000000000E+20
 25
-1.0000000000E+20
 35
-1.0000000000E+20
146
0.0
 13
0.0
 23
0.0
 33
0.0
 16
1.0
 26
0.0
 36
0.0
 17
0.0
 27
1.0
 37
0.0
 76
     0
330
1B
  0
LAYOUT
  5
26
102
{ACAD_REACTORS
330
1A
102
}
330
1A
100
AcDbPlotSettings
  1

  2
none_device
  4

  6

 40
0.0
 41
0.0
 42
0.0
 43
0.0
 44
0.0
 45
0.0
 46
0.0
 47
0.0
 48
0.0
 49
0.0
140
0.0
141
0.0
142
1.0
143
1.0
 70
   688
 72
     0
 73
     0
 74
     5
  7

 75
    16
147
1.0
148
0.0
149
0.0
100
AcDbLayout
  1
Layout2
 70
     1
 71
     2
 10
0.0
 20
0.0
 11
0.0
 21
0.0
 12
0.0
 22
0.0
 32
0.0
 14
0.0
 24
0.0
 34
0.0
 15
0.0
 25
0.0
 35
0.0
146
0.0
 13
0.0
 23
0.0
 33
0.0
 16
1.0
 26
0.0
 36
0.0
 17
0.0
 27
1.0
 37
0.0
 76
     0
330
23
  0
LAYOUT
  5
22
102
{ACAD_REACTORS
330
1A
102
}
330
1A
100
AcDbPlotSettings
  1

  2
none_device
  4

  6

 40
0.0
 41
0.0
 42
0.0
 43
0.0
 44
0.0
 45
0.0
 46
0.0
 47
0.0
 48
0.0
 49
0.0
140
0.0
141
0.0
142
1.0
143
1.0
 70
  1712
 72
     0
 73
     0
 74
     0
  7

 75
     0
147
1.0
148
0.0
149
0.0
100
AcDbLayout
  1
Model
 70
     1
 71
     0
 10
0.0
 20
0.0
 11
841.0
 21
594.0
 12
0.0
 22
0.0
 32
0.0
 14
0.0
 24
0.0
 34
0.0
 15
841.0
 25
594.0
 35
0.0
146
0.0
 13
0.0
 23
0.0
 33
0.0
 16
1.0
 26
0.0
 36
0.0
 17
0.0
 27
1.0
 37
0.0
 76
     0
330
1F
331
29
  0
MLINESTYLE
  5
18
102
{ACAD_REACTORS
330
17
102
}
330
17
100
AcDbMlineStyle
  2
Standard
 70
     0
  3

 62
   256
 51
90.0
 52
90.0
 71
     2
 49
0.5
 62
   256
  6
BYLAYER
 49
-0.5
 62
   256
  6
BYLAYER
  0
ACDBPLACEHOLDER
  5
F
102
{ACAD_REACTORS
330
E
102
}
330
E
  0
VISUALSTYLE
  5
2F
102
{ACAD_REACTORS
330
2A
102
}
330
2A
100
AcDbVisualStyle
  2
2dWireframe
 70
     4
 71
     0
 72
     2
 73
     0
 90
        0
 40
-0.6
 41
-30.0
 62
     5
 63
     7
 74
     1
 91
        4
 64
     7
 65
   257
 75
     1
175
     1
 42
1.0
 92
        0
 66
   257
 43
1.0
 76
     1
 77
     6
 78
     2
 67
     7
 79
     5
170
     0
171
     0
290
     0
174
     0
 93
        1
 44
0.0
173
     0
291
     0
 45
0.0
1001
ACAD
1000
AcDbSavedByObjectVersion
1070
     0
  0
VISUALSTYLE
  5
31
102
{ACAD_REACTORS
330
2A
102
}
330
2A
100
AcDbVisualStyle
  2
3D Hidden
 70
     6
 71
     1
 72
     2
 73
     2
 90
        0
 40
-0.6
 41
-30.0
 62
     5
 63
     7
 74
     2
 91
        2
 64
     7
 65
   257
 75
     2
175
     1
 42
40.0
 92
        0
 66
   257
 43
1.0
 76
     1
 77
     6
 78
     2
 67
     7
 79
     3
170
     0
171
     0
290
     0
174
     0
 93
        1
 44
0.0
173
     0
291
     0
 45
0.0
1001
ACAD
1000
AcDbSavedByObjectVersion
1070
     0
  0
VISUALSTYLE
  5
30
102
{ACAD_REACTORS
330
2A
102
}
330
2A
100
AcDbVisualStyle
  2
3dWireframe
 70
     5
 71
     0
 72
     2
 73
     0
 90
        0
 40
-0.6
 41
-30.0
 62
     5
 63
     7
 74
     1
 91
        4
 64
     7
 65
   257
 75
     1
175
     1
 42
1.0
 92
        0
 66
   257
 43
1.0
 76
     1
 77
     6
 78
     2
 67
     7
 79
     5
170
     0
171
     0
290
     0
174
     0
 93
        1
 44
0.0
173
     0
291
     0
 45
0.0
1001
ACAD
1000
AcDbSavedByObjectVersion
1070
     0
  0
VISUALSTYLE
  5
32
102
{ACAD_REACTORS
330
2A
102
}
330
2A
100
AcDbVisualStyle
  2
Basic
 70
     7
 71
     1
 72
     0
 73
     1
 90
        0
 40
-0.6
 41
-30.0
 62
     5
 63
     7
 74
     0
 91
        4
 64
     7
 65
   257
 75
     1
175
     1
 42
1.0
 92
        8
 66
     7
 43
1.0
 76
     1
 77
     6
 78
     2
 67
     7
 79
     5
170
     0
171
     0
290
     0
174
     0
 93
        1
 44
0.0
173
     0
291
     1
 45
0.0
1001
ACAD
1000
AcDbSavedByObjectVersion
1070
     0
  0
VISUALSTYLE
  5
36
102
{ACAD_REACTORS
330
2A
102
}
330
2A
100
AcDbVisualStyle
  2
Brighten
 70
    12
 71
     2
 72
     2
 73
     0
 90
        0
 40
-0.6
 41
-30.0
 62
     5
 63
     7
 74
     1
 91
        4
 64
     7
 65
   257
 75
     1
175
     1
 42
1.0
 92
        8
 66
     7
 43
1.0
 76
     1
 77
     6
 78
     2
 67
     7
 79
     5
170
     0
171
     0
290
     0
174
     0
 93
        1
 44
50.0
173
     0
291
     1
 45
0.0
1001
ACAD
1000
AcDbSavedByObjectVersion
1070
     0
  0
VISUALSTYLE
  5
3A
102
{ACAD_REACTORS
330
2A
102
}
330
2A
100
AcDbVisualStyle
  2
ColorChange
 70
    16
 71
     2
 72
     2
 73
     3
 90
        0
 40
-0.6
 41
-30.0
 62
     5
 63
     8
 74
     1
 91
        4
 64
     7
 65
   257
 75
     1
175
     1
 42
1.0
 92
        8
 66
     8
 43
1.0
 76
     1
 77
     6
 78
     2
 67
     7
 79
     5
170
     0
171
     0
290
     0
174
     0
 93
        1
 44
0.0
173
     0
291
     1
 45
0.0
1001
ACAD
1000
AcDbSavedByObjectVersion
1070
     0
  0
VISUALSTYLE
  5
34
102
{ACAD_REACTORS
330
2A
102
}
330
2A
100
AcDbVisualStyle
  2
Conceptual
 70
     9
 71
     3
 72
     2
 73
     0
 90
        0
 40
-0.6
 41
-30.0
 62
     5
 63
     7
 74
     2
 91
        2
 64
     7
 65
   257
 75
     1
175
     1
 42
40.0
 92
        8
 66
     7
 43
1.0
 76
     1
 77
     6
 78
     2
 67
     7
 79
     3
170
     0
171
     0
290
     0
174
     0
 93
        1
 44
0.0
173
     0
291
     0
 45
0.0
1001
ACAD
1000
AcDbSavedByObjectVersion
1070
     0
  0
VISUALSTYLE
  5
35
102
{ACAD_REACTORS
330
2A
102
}
330
2A
100
AcDbVisualStyle
  2
Dim
 70
    11
 71
     2
 72
     2
 73
     0
 90
        0
 40
-0.6
 41
-30.0
 62
     5
 63
     7
 74
     1
 91
        4
 64
     7
 65
   257
 75
     1
175
     1
 42
1.0
 92
        8
 66
     7
 43
1.0
 76
     1
 77
     6
 78
     2
 67
     7
 79
     5
170
     0
171
     0
290
     0
174
     0
 93
        1
 44
-50.0
173
     0
291
     1
 45
0.0
1001
ACAD
1000
AcDbSavedByObjectVersion
1070
     0
  0
VISUALSTYLE
  5
39
102
{ACAD_REACTORS
330
2A
102
}
330
2A
100
AcDbVisualStyle
  2
Facepattern
 70
    15
 71
     2
 72
     2
 73
     0
 90
        0
 40
-0.6
 41
-30.0
 62
     5
 63
     7
 74
     1
 91
        4
 64
     7
 65
   257
 75
     1
175
     1
 42
1.0
 92
        8
 66
     7
 43
1.0
 76
     1
 77
     6
 78
     2
 67
     7
 79
     5
170
     0
171
     0
290
     0
174
     0
 93
        1
 44
0.0
173
     0
291
     1
 45
0.0
1001
ACAD
1000
AcDbSavedByObjectVersion
1070
     0
  0
VISUALSTYLE
  5
2B
102
{ACAD_REACTORS
330
2A
102
}
330
2A
100
AcDbVisualStyle
  2
Flat
 70
     0
 71
     2
 72
     1
 73
     1
 90
        2
 40
-0.6
 41
30.0
 62
     5
 63
     7
 74
     0
 91
        4
 64
     7
 65
   257
 75
     1
175
     1
 42
1.0
 92
        8
 66
     7
 43
1.0
 76
     1
 77
     6
 78
     2
 67
     7
 79
     5
170
     0
171
     0
290
     0
174
     0
 93
       13
 44
0.0
173
     0
291
     1
 45
0.0
1001
ACAD
1000
AcDbSavedByObjectVersion
1070
     0
  0
VISUALSTYLE
  5
2C
102
{ACAD_REACTORS
330
2A
102
}
330
2A
100
AcDbVisualStyle
  2
FlatWithEdges
 70
     1
 71
     2
 72
     1
 73
     1
 90
        2
 40
-0.6
 41
30.0
 62
     5
 63
     7
 74
     1
 91
        4
 64
     7
 65
   257
 75
     1
175
     1
 42
1.0
 92
        0
 66
   257
 43
1.0
 76
     1
 77
     6
 78
     2
 67
     7
 79
     5
170
     0
171
     0
290
     0
174
     0
 93
       13
 44
0.0
173
     0
291
     1
 45
0.0
1001
ACAD
1000
AcDbSavedByObjectVersion
1070
     0
  0
VISUALSTYLE
  5
2D
102
{ACAD_REACTORS
330
2A
102
}
330
2A
100
AcDbVisualStyle
  2
Gouraud
 70
     2
 71
     2
 72
     2
 73
     1
 90
        2
 40
-0.6
 41
30.0
 62
     5
 63
     7
 74
     0
 91
        4
 64
     7
 65
   257
 75
     1
175
     1
 42
1.0
 92
        0
 66
     7
 43
1.0
 76
     1
 77
     6
 78
     2
 67
     7
 79
     5
170
     0
171
     0
290
     0
174
     0
 93
       13
 44
0.0
173
     0
291
     1
 45
0.0
1001
ACAD
1000
AcDbSavedByObjectVersion
1070
     0
  0
VISUALSTYLE
  5
2E
102
{ACAD_REACTORS
330
2A
102
}
330
2A
100
AcDbVisualStyle
  2
GouraudWithEdges
 70
     3
 71
     2
 72
     2
 73
     1
 90
        2
 40
-0.6
 41
30.0
 62
     5
 63
     7
 74
     1
 91
        4
 64
     7
 65
   257
 75
     1
175
     1
 42
1.0
 92
        0
 66
   257
 43
1.0
 76
     1
 77
     6
 78
     2
 67
     7
 79
     5
170
     0
171
     0
290
     0
174
     0
 93
       13
 44
0.0
173
     0
291
     1
 45
0.0
1001
ACAD
1000
AcDbSavedByObjectVersion
1070
     0
  0
VISUALSTYLE
  5
38
102
{ACAD_REACTORS
330
2A
102
}
330
2A
100
AcDbVisualStyle
  2
Linepattern
 70
    14
 71
     2
 72
     2
 73
     0
 90
        0
 40
-0.6
 41
-30.0
 62
     5
 63
     7
 74
     1
 91
        4
 64
     7
 65
   257
 75
     7
175
     7
 42
1.0
 92
        8
 66
     7
 43
1.0
 76
     1
 77
     6
 78
     2
 67
     7
 79
     5
170
     0
171
     0
290
     0
174
     0
 93
        1
 44
0.0
173
     0
291
     1
 45
0.0
1001
ACAD
1000
AcDbSavedByObjectVersion
1070
     0
  0
VISUALSTYLE
  5
33
102
{ACAD_REACTORS
330
2A
102
}
330
2A
100
AcDbVisualStyle
  2
Realistic
 70
     8
 71
     2
 72
     2
 73
     0
 90
        0
 40
-0.6
 41
-30.0
 62
     5
 63
     7
 74
     1
 91
        0
 64
     7
 65
   257
 75
     1
175
     1
 42
1.0
 92
        8
 66
     8
 43
1.0
 76
     1
 77
     6
 78
     2
 67
     7
 79
     5
170
     0
171
     0
290
     0
174
     0
 93
       13
 44
0.0
173
     0
291
     0
 45
0.0
1001
ACAD
1000
AcDbSavedByObjectVersion
1070
     0
  0
VISUALSTYLE
  5
37
102
{ACAD_REACTORS
330
2A
102
}
330
2A
100
AcDbVisualStyle
  2
Thicken
 70
    13
 71
     2
 72
     2
 73
     0
 90
        0
 40
-0.6
 41
-30.0
 62
     5
 63
     7
 74
     1
 91
        4
 64
     7
 65
   257
 75
     1
175
     1
 42
1.0
 92
       12
 66
     7
 43
1.0
 76
     1
 77
     6
 78
     2
 67
     7
 79
     5
170
     0
171
     0
290
     0
174
     0
 93
        1
 44
0.0
173
     0
291
     1
 45
0.0
1001
ACAD
1000
AcDbSavedByObjectVersion
1070
     0
  0
DICTIONARYVAR
  5
3BF
102
{ACAD_REACTORS
330
3BA
102
}
330
3BA
100
DictionaryVariables
280
     0
  1
2
  0
DICTIONARYVAR
  5
3C0
102
{ACAD_REACTORS
330
3BA
102
}
330
3BA
100
DictionaryVariables
280
     0
  1
1
  0
DICTIONARYVAR
  5
3BE
102
{ACAD_REACTORS
330
3BA
102
}
330
3BA
100
DictionaryVariables
280
     0
  1
80.000000
  0
DICTIONARYVAR
  5
3BD
102
{ACAD_REACTORS
330
3BA
102
}
330
3BA
100
DictionaryVariables
280
     0
  1
5.000000
  0
ENDSEC
  0
EOF
