  0
SECTION
  2
HEADER
  9
$ACADVER
  1
AC1015
  9
$ACADMAINTVER
 70
     6
  9
$DWGCODEPAGE
  3
ANSI_1252
  9
$INSBASE
 10
0.0
 20
0.0
 30
0.0
  9
$EXTMIN
 10
0.0
 20
0.0
 30
0.0
  9
$EXTMAX
 10
431.8
 20
279.4
 30
0.0
  9
$LIMMIN
 10
0.0
 20
0.0
  9
$LIMMAX
 10
431.8
 20
279.4
  9
$ORTHOMODE
 70
     0
  9
$REGENMODE
 70
     1
  9
$FILLMODE
 70
     1
  9
$QTEXTMODE
 70
     0
  9
$MIRRTEXT
 70
     1
  9
$LTSCALE
 40
1.0
  9
$ATTMODE
 70
     1
  9
$TEXTSIZE
 40
4.9388888889
  9
$TRACEWID
 40
1.0
  9
$TEXTSTYLE
  7
Standard
  9
$CLAYER
  8
0
  9
$CELTYPE
  6
ByLayer
  9
$CECOLOR
 62
   256
  9
$CELTSCALE
 40
1.0
  9
$DISPSILH
 70
     0
  9
$DIMSCALE
 40
1.0
  9
$DIMASZ
 40
5.1366373698
  9
$DIMEXO
 40
2.0
  9
$DIMDLI
 40
3.75
  9
$DIMRND
 40
0.0
  9
$DIMDLE
 40
0.0
  9
$DIMEXE
 40
2.0
  9
$DIMTP
 40
0.0
  9
$DIMTM
 40
0.0
  9
$DIMTXT
 40
7.0555555556
  9
$DIMCEN
 40
2.5
  9
$DIMTSZ
 40
0.0
  9
$DIMTOL
 70
     0
  9
$DIMLIM
 70
     0
  9
$DIMTIH
 70
     1
  9
$DIMTOH
 70
     1
  9
$DIMSE1
 70
     0
  9
$DIMSE2
 70
     0
  9
$DIMTAD
 70
     1
  9
$DIMZIN
 70
     0
  9
$DIMBLK
  1

  9
$DIMASO
 70
     1
  9
$DIMSHO
 70
     1
  9
$DIMPOST
  1

  9
$DIMAPOST
  1

  9
$DIMALT
 70
     0
  9
$DIMALTD
 70
     3
  9
$DIMALTF
 40
0.0393700787
  9
$DIMLFAC
 40
1.0
  9
$DIMTOFL
 70
     1
  9
$DIMTVP
 40
0.0
  9
$DIMTIX
 70
     0
  9
$DIMSOXD
 70
     0
  9
$DIMSAH
 70
     0
  9
$DIMBLK1
  1

  9
$DIMBLK2
  1

  9
$DIMSTYLE
  2
ISO-25
  9
$DIMCLRD
 70
     0
  9
$DIMCLRE
 70
     0
  9
$DIMCLRT
 70
     0
  9
$DIMTFAC
 40
1.0
  9
$DIMGAP
 40
2.0
  9
$DIMJUST
 70
     0
  9
$DIMSD1
 70
     0
  9
$DIMSD2
 70
     0
  9
$DIMTOLJ
 70
     0
  9
$DIMTZIN
 70
     0
  9
$DIMALTZ
 70
     0
  9
$DIMALTTZ
 70
     0
  9
$DIMUPT
 70
     0
  9
$DIMDEC
 70
     2
  9
$DIMTDEC
 70
     2
  9
$DIMALTU
 70
     2
  9
$DIMALTTD
 70
     3
  9
$DIMTXSTY
  7
Standard
  9
$DIMAUNIT
 70
     0
  9
$DIMADEC
 70
     2
  9
$DIMALTRND
 40
0.0
  9
$DIMAZIN
 70
     0
  9
$DIMDSEP
 70
    44
  9
$DIMATFIT
 70
     3
  9
$DIMFRAC
 70
     0
  9
$DIMLDRBLK
  1

  9
$DIMLUNIT
 70
     2
  9
$DIMLWD
 70
    -2
  9
$DIMLWE
 70
    -2
  9
$DIMTMOVE
 70
     0
  9
$LUNITS
 70
     2
  9
$LUPREC
 70
     2
  9
$SKETCHINC
 40
1.0
  9
$FILLETRAD
 40
10.0
  9
$AUNITS
 70
     0
  9
$AUPREC
 70
     2
  9
$MENU
  1
.
  9
$ELEVATION
 40
0.0
  9
$PELEVATION
 40
0.0
  9
$THICKNESS
 40
0.0
  9
$LIMCHECK
 70
     0
  9
$CHAMFERA
 40
0.0
  9
$CHAMFERB
 40
0.0
  9
$CHAMFERC
 40
0.0
  9
$CHAMFERD
 40
0.0
  9
$SKPOLY
 70
     0
  9
$TDCREATE
 40
2457689.646012755
  9
$TDUCREATE
 40
2457689.562679421
  9
$TDUPDATE
 40
2457689.646013727
  9
$TDUUPDATE
 40
2457689.562680393
  9
$TDINDWG
 40
0.0000000116
  9
$TDUSRTIMER
 40
0.0000000116
  9
$USRTIMER
 70
     1
  9
$ANGBASE
 50
0.0
  9
$ANGDIR
 70
     0
  9
$PDMODE
 70
     0
  9
$PDSIZE
 40
-1.0
  9
$PLINEWID
 40
0.0
  9
$SPLFRAME
 70
     0
  9
$SPLINETYPE
 70
     6
  9
$SPLINESEGS
 70
     8
  9
$HANDSEED
  5
47C
  9
$SURFTAB1
 70
     6
  9
$SURFTAB2
 70
     6
  9
$SURFTYPE
 70
     6
  9
$SURFU
 70
     6
  9
$SURFV
 70
     6
  9
$UCSBASE
  2

  9
$UCSNAME
  2

  9
$UCSORG
 10
0.0
 20
0.0
 30
0.0
  9
$UCSXDIR
 10
1.0
 20
0.0
 30
0.0
  9
$UCSYDIR
 10
0.0
 20
1.0
 30
0.0
  9
$UCSORTHOREF
  2

  9
$UCSORTHOVIEW
 70
     0
  9
$UCSORGTOP
 10
0.0
 20
0.0
 30
0.0
  9
$UCSORGBOTTOM
 10
0.0
 20
0.0
 30
0.0
  9
$UCSORGLEFT
 10
0.0
 20
0.0
 30
0.0
  9
$UCSORGRIGHT
 10
0.0
 20
0.0
 30
0.0
  9
$UCSORGFRONT
 10
0.0
 20
0.0
 30
0.0
  9
$UCSORGBACK
 10
0.0
 20
0.0
 30
0.0
  9
$PUCSBASE
  2

  9
$PUCSNAME
  2

  9
$PUCSORG
 10
0.0
 20
0.0
 30
0.0
  9
$PUCSXDIR
 10
1.0
 20
0.0
 30
0.0
  9
$PUCSYDIR
 10
0.0
 20
1.0
 30
0.0
  9
$PUCSORTHOREF
  2

  9
$PUCSORTHOVIEW
 70
     0
  9
$PUCSORGTOP
 10
0.0
 20
0.0
 30
0.0
  9
$PUCSORGBOTTOM
 10
0.0
 20
0.0
 30
0.0
  9
$PUCSORGLEFT
 10
0.0
 20
0.0
 30
0.0
  9
$PUCSORGRIGHT
 10
0.0
 20
0.0
 30
0.0
  9
$PUCSORGFRONT
 10
0.0
 20
0.0
 30
0.0
  9
$PUCSORGBACK
 10
0.0
 20
0.0
 30
0.0
  9
$USERI1
 70
     0
  9
$USERI2
 70
     0
  9
$USERI3
 70
     0
  9
$USERI4
 70
     0
  9
$USERI5
 70
     0
  9
$USERR1
 40
0.0
  9
$USERR2
 40
0.0
  9
$USERR3
 40
0.0
  9
$USERR4
 40
0.0
  9
$USERR5
 40
0.0
  9
$WORLDVIEW
 70
     1
  9
$SHADEDGE
 70
     3
  9
$SHADEDIF
 70
    70
  9
$TILEMODE
 70
     1
  9
$MAXACTVP
 70
    64
  9
$PINSBASE
 10
0.0
 20
0.0
 30
0.0
  9
$PLIMCHECK
 70
     0
  9
$PEXTMIN
 10
1.0000000000E+20
 20
1.0000000000E+20
 30
1.0000000000E+20
  9
$PEXTMAX
 10
-1.0000000000E+20
 20
-1.0000000000E+20
 30
-1.0000000000E+20
  9
$PLIMMIN
 10
0.0
 20
0.0
  9
$PLIMMAX
 10
420.0
 20
297.0
  9
$UNITMODE
 70
     0
  9
$VISRETAIN
 70
     1
  9
$PLINEGEN
 70
     0
  9
$PSLTSCALE
 70
     1
  9
$TREEDEPTH
 70
  3020
  9
$CMLSTYLE
  2
Standard
  9
$CMLJUST
 70
     0
  9
$CMLSCALE
 40
20.0
  9
$PROXYGRAPHICS
 70
     1
  9
$MEASUREMENT
 70
     1
  9
$CELWEIGHT
370
    -1
  9
$ENDCAPS
280
     0
  9
$JOINSTYLE
280
     0
  9
$LWDISPLAY
290
     1
  9
$INSUNITS
 70
     4
  9
$HYPERLINKBASE
  1

  9
$STYLESHEET
  1

  9
$XEDIT
290
     1
  9
$CEPSNTYPE
380
     0
  9
$PSTYLEMODE
290
     1
  9
$FINGERPRINTGUID
  2
{81D0D5A1-50EC-4ABB-A74D-1DC62F3036ED}
  9
$VERSIONGUID
  2
{FAEB1C32-E019-11D5-929B-00C0DF256EC4}
  9
$EXTNAMES
290
     1
  9
$PSVPSCALE
 40
0.0
  9
$OLESTARTUP
290
     0
  0
ENDSEC
  0
SECTION
  2
CLASSES
  0
CLASS
  1
ACDBDICTIONARYWDFLT
  2
AcDbDictionaryWithDefault
  3
ObjectDBX Classes
 90
        0
280
     0
281
     0
  0
CLASS
  1
VISUALSTYLE
  2
AcDbVisualStyle
  3
ObjectDBX Classes
 90
     4095
280
     0
281
     0
  0
CLASS
  1
MATERIAL
  2
AcDbMaterial
  3
ObjectDBX Classes
 90
     1153
280
     0
281
     0
  0
CLASS
  1
SCALE
  2
AcDbScale
  3
ObjectDBX Classes
 90
     1153
280
     0
281
     0
  0
CLASS
  1
TABLESTYLE
  2
AcDbTableStyle
  3
ObjectDBX Classes
 90
     4095
280
     0
281
     0
  0
CLASS
  1
MLEADERSTYLE
  2
AcDbMLeaderStyle
  3
ACDB_MLEADERSTYLE_CLASS
 90
     4095
280
     0
281
     0
  0
CLASS
  1
SUN
  2
AcDbSun
  3
SCENEOE
 90
     1153
280
     0
281
     0
  0
CLASS
  1
ACDBPLACEHOLDER
  2
AcDbPlaceHolder
  3
ObjectDBX Classes
 90
        0
280
     0
281
     0
  0
CLASS
  1
LAYOUT
  2
AcDbLayout
  3
ObjectDBX Classes
 90
        0
280
     0
281
     0
  0
ENDSEC
  0
SECTION
  2
TABLES
  0
TABLE
  2
VPORT
  5
8
330
0
100
AcDbSymbolTable
 70
     1
  0
VPORT
  5
29
330
8
100
AcDbSymbolTableRecord
100
AcDbViewportTableRecord
  2
*Active
 70
     0
 10
0.0
 20
0.0
 11
1.0
 21
1.0
 12
215.9
 22
139.7
 13
0.0
 23
0.0
 14
10.0
 24
10.0
 15
10.0
 25
10.0
 16
0.0
 26
0.0
 36
1.0
 17
0.0
 27
0.0
 37
0.0
 40
279.4
 41
1.5454545455
 42
50.0
 43
0.0
 44
0.0
 50
0.0
 51
0.0
 71
     0
 72
  2000
 73
     1
 74
     3
 75
     0
 76
     0
 77
     0
 78
     0
281
     0
 65
     1
110
0.0
120
0.0
130
0.0
111
1.0
121
0.0
131
0.0
112
0.0
122
1.0
132
0.0
 79
     0
146
0.0
  0
ENDTAB
  0
TABLE
  2
LTYPE
  5
5
330
0
100
AcDbSymbolTable
 70
     6
  0
LTYPE
  5
14
330
5
100
AcDbSymbolTableRecord
100
AcDbLinetypeTableRecord
  2
ByBlock
 70
     0
  3

 72
    65
 73
     0
 40
0.0
  0
LTYPE
  5
15
330
5
100
AcDbSymbolTableRecord
100
AcDbLinetypeTableRecord
  2
ByLayer
 70
     0
  3

 72
    65
 73
     0
 40
0.0
  0
LTYPE
  5
16
330
5
100
AcDbSymbolTableRecord
100
AcDbLinetypeTableRecord
  2
Continuous
 70
     0
  3
Solid line
 72
    65
 73
     0
 40
0.0
  0
LTYPE
  5
6E
330
5
100
AcDbSymbolTableRecord
100
AcDbLinetypeTableRecord
  2
HIDDEN
 70
     0
  3
Hidden __ __ __ __ __ __ __ __ __ __ __ __ __ __
 72
    65
 73
     2
 40
1.905
 49
1.27
 74
     0
 49
-0.635
 74
     0
  0
LTYPE
  5
6F
330
5
100
AcDbSymbolTableRecord
100
AcDbLinetypeTableRecord
  2
PHANTOM
 70
     0
  3
Phantom ______  __  __  ______  __  __  ______
 72
    65
 73
     6
 40
12.7
 49
6.35
 74
     0
 49
-1.27
 74
     0
 49
1.27
 74
     0
 49
-1.27
 74
     0
 49
1.27
 74
     0
 49
-1.27
 74
     0
  0
LTYPE
  5
70
330
5
100
AcDbSymbolTableRecord
100
AcDbLinetypeTableRecord
  2
CENTER
 70
     0
  3
Center ____ _ ____ _ ____ _ ____ _ ____ _ ____
 72
    65
 73
     4
 40
10.16
 49
6.35
 74
     0
 49
-1.27
 74
     0
 49
1.27
 74
     0
 49
-1.27
 74
     0
  0
LTYPE
  5
71
330
5
100
AcDbSymbolTableRecord
100
AcDbLinetypeTableRecord
  2
CENTERX2
 70
     0
  3
Center (2x) ________  __  ________  __  _____
 72
    65
 73
     4
 40
20.32
 49
12.7
 74
     0
 49
-2.54
 74
     0
 49
2.54
 74
     0
 49
-2.54
 74
     0
  0
LTYPE
  5
72
330
5
100
AcDbSymbolTableRecord
100
AcDbLinetypeTableRecord
  2
DOT2
 70
     0
  3
Dot (.5x) ........................................
 72
    65
 73
     2
 40
0.635
 49
0.0
 74
     0
 49
-0.635
 74
     0
  0
ENDTAB
  0
TABLE
  2
LAYER
  5
2
330
0
100
AcDbSymbolTable
 70
     3
  0
LAYER
  5
10
330
2
100
AcDbSymbolTableRecord
100
AcDbLayerTableRecord
  2
0
 70
     0
 62
     7
  6
Continuous
370
    -3
390
F
  0
LAYER
  5
73
330
2
100
AcDbSymbolTableRecord
100
AcDbLayerTableRecord
  2
SLD-0
 70
     0
 62
   179
  6
Continuous
370
    -3
390
F
  0
LAYER
  5
74
330
2
100
AcDbSymbolTableRecord
100
AcDbLayerTableRecord
  2
EBENE_1
 70
     0
 62
   179
  6
Continuous
370
    -3
390
F
  0
ENDTAB
  0
TABLE
  2
STYLE
  5
3
330
0
100
AcDbSymbolTable
 70
     3
  0
STYLE
  5
11
330
3
100
AcDbSymbolTableRecord
100
AcDbTextStyleTableRecord
  2
Standard
 70
     0
 40
0.0
 41
1.0
 50
0.0
 71
     0
 42
4.9388888889
  3
txt
  4

  0
STYLE
  5
96
330
3
100
AcDbSymbolTableRecord
100
AcDbTextStyleTableRecord
  2
SLDTEXTSTYLE0
 70
     0
 40
0.0
 41
0.605
 50
0.0
 71
     0
 42
4.9388888889
  3
TXT
  4

  0
STYLE
  5
16E
330
3
100
AcDbSymbolTableRecord
100
AcDbTextStyleTableRecord
  2
SLDTEXTSTYLE1
 70
     0
 40
0.0
 41
0.75
 50
0.0
 71
     0
 42
4.9388888889
  3
TXT
  4

  0
ENDTAB
  0
TABLE
  2
VIEW
  5
6
330
0
100
AcDbSymbolTable
 70
     0
  0
ENDTAB
  0
TABLE
  2
UCS
  5
7
330
0
100
AcDbSymbolTable
 70
     0
  0
ENDTAB
  0
TABLE
  2
APPID
  5
9
330
0
100
AcDbSymbolTable
 70
     1
  0
APPID
  5
12
330
9
100
AcDbSymbolTableRecord
100
AcDbRegAppTableRecord
  2
ACAD
 70
     0
  0
ENDTAB
  0
TABLE
  2
DIMSTYLE
  5
A
330
0
100
AcDbSymbolTable
 70
     1
100
AcDbDimStyleTable
  0
DIMSTYLE
105
27
330
A
100
AcDbSymbolTableRecord
100
AcDbDimStyleTableRecord
  2
ISO-25
 70
     0
 41
2.5
 42
0.625
 43
3.75
 44
1.25
 73
     0
 74
     0
 77
     1
 78
     8
140
2.5
141
2.5
143
0.0393700787
147
0.625
171
     3
172
     1
178
     0
271
     2
272
     2
274
     3
278
    44
283
     0
284
     8
340
11
  0
ENDTAB
  0
TABLE
  2
BLOCK_RECORD
  5
1
330
0
100
AcDbSymbolTable
 70
    25
  0
BLOCK_RECORD
  5
1F
330
1
100
AcDbSymbolTableRecord
100
AcDbBlockTableRecord
  2
*Model_Space
340
22
  0
BLOCK_RECORD
  5
1B
330
1
100
AcDbSymbolTableRecord
100
AcDbBlockTableRecord
  2
*Paper_Space
340
1E
  0
BLOCK_RECORD
  5
23
330
1
100
AcDbSymbolTableRecord
100
AcDbBlockTableRecord
  2
*Paper_Space0
340
26
  0
BLOCK_RECORD
  5
75
330
1
100
AcDbSymbolTableRecord
100
AcDbBlockTableRecord
  2
Block1
340
0
102
{BLKREFS
331
16D
102
}
  0
BLOCK_RECORD
  5
8C
330
1
100
AcDbSymbolTableRecord
100
AcDbBlockTableRecord
  2
SW_BLOCK_DIMENSION_0
340
0
102
{BLKREFS
331
98
102
}
  0
BLOCK_RECORD
  5
8F
330
1
100
AcDbSymbolTableRecord
100
AcDbBlockTableRecord
  2
_ORIGIN
340
0
102
{BLKREFS
331
94
331
104
102
}
  0
BLOCK_RECORD
  5
99
330
1
100
AcDbSymbolTableRecord
100
AcDbBlockTableRecord
  2
SW_BLOCK_DIMENSION_1
340
0
102
{BLKREFS
331
A0
102
}
  0
BLOCK_RECORD
  5
A1
330
1
100
AcDbSymbolTableRecord
100
AcDbBlockTableRecord
  2
SW_BLOCK_DIMENSION_2
340
0
102
{BLKREFS
331
A8
102
}
  0
BLOCK_RECORD
  5
A9
330
1
100
AcDbSymbolTableRecord
100
AcDbBlockTableRecord
  2
SW_BLOCK_DIMENSION_3
340
0
102
{BLKREFS
331
B0
102
}
  0
BLOCK_RECORD
  5
B1
330
1
100
AcDbSymbolTableRecord
100
AcDbBlockTableRecord
  2
SW_BLOCK_DIMENSION_4
340
0
102
{BLKREFS
331
B8
102
}
  0
BLOCK_RECORD
  5
B9
330
1
100
AcDbSymbolTableRecord
100
AcDbBlockTableRecord
  2
SW_BLOCK_DIMENSION_5
340
0
102
{BLKREFS
331
C0
102
}
  0
BLOCK_RECORD
  5
C1
330
1
100
AcDbSymbolTableRecord
100
AcDbBlockTableRecord
  2
SW_BLOCK_DIMENSION_6
340
0
102
{BLKREFS
331
C8
102
}
  0
BLOCK_RECORD
  5
C9
330
1
100
AcDbSymbolTableRecord
100
AcDbBlockTableRecord
  2
SW_BLOCK_DIMENSION_7
340
0
102
{BLKREFS
331
D0
102
}
  0
BLOCK_RECORD
  5
D1
330
1
100
AcDbSymbolTableRecord
100
AcDbBlockTableRecord
  2
SW_BLOCK_DIMENSION_8
340
0
102
{BLKREFS
331
D8
102
}
  0
BLOCK_RECORD
  5
D9
330
1
100
AcDbSymbolTableRecord
100
AcDbBlockTableRecord
  2
SW_BLOCK_DIMENSION_9
340
0
102
{BLKREFS
331
E0
102
}
  0
BLOCK_RECORD
  5
E1
330
1
100
AcDbSymbolTableRecord
100
AcDbBlockTableRecord
  2
SW_BLOCK_DIMENSION_10
340
0
102
{BLKREFS
331
E8
102
}
  0
BLOCK_RECORD
  5
E9
330
1
100
AcDbSymbolTableRecord
100
AcDbBlockTableRecord
  2
SW_BLOCK_DIMENSION_11
340
0
102
{BLKREFS
331
F0
102
}
  0
BLOCK_RECORD
  5
F1
330
1
100
AcDbSymbolTableRecord
100
AcDbBlockTableRecord
  2
SW_BLOCK_DIMENSION_12
340
0
102
{BLKREFS
331
F8
102
}
  0
BLOCK_RECORD
  5
F9
330
1
100
AcDbSymbolTableRecord
100
AcDbBlockTableRecord
  2
SW_BLOCK_DIMENSION_13
340
0
102
{BLKREFS
331
100
102
}
  0
BLOCK_RECORD
  5
101
330
1
100
AcDbSymbolTableRecord
100
AcDbBlockTableRecord
  2
SW_BLOCK_DIMENSION_14
340
0
102
{BLKREFS
331
110
102
}
  0
BLOCK_RECORD
  5
111
330
1
100
AcDbSymbolTableRecord
100
AcDbBlockTableRecord
  2
SW_BLOCK_DIMENSION_15
340
0
102
{BLKREFS
331
121
102
}
  0
BLOCK_RECORD
  5
122
330
1
100
AcDbSymbolTableRecord
100
AcDbBlockTableRecord
  2
SW_BLOCK_DIMENSION_16
340
0
102
{BLKREFS
331
132
102
}
  0
BLOCK_RECORD
  5
133
330
1
100
AcDbSymbolTableRecord
100
AcDbBlockTableRecord
  2
SW_BLOCK_DIMENSION_17
340
0
102
{BLKREFS
331
143
102
}
  0
BLOCK_RECORD
  5
144
330
1
100
AcDbSymbolTableRecord
100
AcDbBlockTableRecord
  2
SW_BLOCK_DIMENSION_18
340
0
102
{BLKREFS
331
154
102
}
  0
BLOCK_RECORD
  5
155
330
1
100
AcDbSymbolTableRecord
100
AcDbBlockTableRecord
  2
SW_BLOCK_DIMENSION_19
340
0
102
{BLKREFS
331
165
102
}
  0
BLOCK_RECORD
  5
166
330
1
100
AcDbSymbolTableRecord
100
AcDbBlockTableRecord
  2
SW_NOTE_0
340
0
102
{BLKREFS
331
16B
102
}
  0
BLOCK_RECORD
  5
171
330
1
100
AcDbSymbolTableRecord
100
AcDbBlockTableRecord
  2
SW_NOTE_1
340
0
102
{BLKREFS
331
178
102
}
  0
ENDTAB
  0
ENDSEC
  0
SECTION
  2
BLOCKS
  0
BLOCK
  5
20
330
1F
100
AcDbEntity
  8
0
100
AcDbBlockBegin
  2
*Model_Space
 70
     0
 10
0.0
 20
0.0
 30
0.0
  3
*Model_Space
  1

  0
ENDBLK
  5
21
330
1F
100
AcDbEntity
  8
0
100
AcDbBlockEnd
  0
BLOCK
  5
1C
330
1B
100
AcDbEntity
 67
     1
  8
0
100
AcDbBlockBegin
  2
*Paper_Space
 70
     0
 10
0.0
 20
0.0
 30
0.0
  3
*Paper_Space
  1

  0
ENDBLK
  5
1D
330
1B
100
AcDbEntity
 67
     1
  8
0
100
AcDbBlockEnd
  0
BLOCK
  5
24
330
23
100
AcDbEntity
  8
0
100
AcDbBlockBegin
  2
*Paper_Space0
 70
     0
 10
0.0
 20
0.0
 30
0.0
  3
*Paper_Space0
  1

  0
ENDBLK
  5
25
330
23
100
AcDbEntity
  8
0
100
AcDbBlockEnd
  0
BLOCK
  5
76
330
75
100
AcDbEntity
  8
0
100
AcDbBlockBegin
  2
Block1
 70
     0
 10
0.0
 20
0.0
 30
0.0
  3
Block1
  1

  0
LINE
  5
78
330
75
100
AcDbEntity
  8
EBENE_1
100
AcDbLine
 10
363.6834285714
 20
41.3579706949
 30
0.0
 11
388.6834285714
 21
41.3579706949
 31
0.0
  0
LINE
  5
79
330
75
100
AcDbEntity
  8
EBENE_1
100
AcDbLine
 10
374.9034285714
 20
41.3579706949
 30
0.0
 11
374.9034285714
 21
171.3579706949
 31
0.0
  0
LINE
  5
7A
330
75
100
AcDbEntity
  8
EBENE_1
100
AcDbLine
 10
374.9034285714
 20
51.3579706949
 30
0.0
 11
384.9034285714
 21
51.3579706949
 31
0.0
  0
LINE
  5
7B
330
75
100
AcDbEntity
  8
EBENE_1
100
AcDbLine
 10
374.9034285714
 20
61.3579706949
 30
0.0
 11
384.9034285714
 21
61.3579706949
 31
0.0
  0
LINE
  5
7C
330
75
100
AcDbEntity
  8
EBENE_1
100
AcDbLine
 10
374.9034285714
 20
71.3579706949
 30
0.0
 11
384.9034285714
 21
71.3579706949
 31
0.0
  0
LINE
  5
7D
330
75
100
AcDbEntity
  8
EBENE_1
100
AcDbLine
 10
374.9034285714
 20
81.3579706949
 30
0.0
 11
384.9034285714
 21
81.3579706949
 31
0.0
  0
LINE
  5
7E
330
75
100
AcDbEntity
  8
EBENE_1
100
AcDbLine
 10
374.9034285714
 20
91.3579706949
 30
0.0
 11
384.9034285714
 21
91.3579706949
 31
0.0
  0
LINE
  5
7F
330
75
100
AcDbEntity
  8
EBENE_1
100
AcDbLine
 10
374.9034285714
 20
101.3579706949
 30
0.0
 11
384.9034285714
 21
101.3579706949
 31
0.0
  0
LINE
  5
80
330
75
100
AcDbEntity
  8
EBENE_1
100
AcDbLine
 10
374.9034285714
 20
111.3579706949
 30
0.0
 11
384.9034285714
 21
111.3579706949
 31
0.0
  0
LINE
  5
81
330
75
100
AcDbEntity
  8
EBENE_1
100
AcDbLine
 10
374.9034285714
 20
121.3579706949
 30
0.0
 11
384.9034285714
 21
121.3579706949
 31
0.0
  0
LINE
  5
82
330
75
100
AcDbEntity
  8
EBENE_1
100
AcDbLine
 10
374.9034285714
 20
131.3579706949
 30
0.0
 11
384.9034285714
 21
131.3579706949
 31
0.0
  0
LINE
  5
83
330
75
100
AcDbEntity
  8
EBENE_1
100
AcDbLine
 10
374.9034285714
 20
141.3579706949
 30
0.0
 11
384.9034285714
 21
141.3579706949
 31
0.0
  0
LINE
  5
84
330
75
100
AcDbEntity
  8
EBENE_1
100
AcDbLine
 10
374.9034285714
 20
151.3579706949
 30
0.0
 11
384.9034285714
 21
151.3579706949
 31
0.0
  0
LINE
  5
85
330
75
100
AcDbEntity
  8
EBENE_1
100
AcDbLine
 10
374.9034285714
 20
161.3579706949
 30
0.0
 11
384.9034285714
 21
161.3579706949
 31
0.0
  0
LINE
  5
86
330
75
100
AcDbEntity
  8
EBENE_1
100
AcDbLine
 10
374.9034285714
 20
171.3579706949
 30
0.0
 11
384.9034285714
 21
171.3579706949
 31
0.0
  0
LINE
  5
87
330
75
100
AcDbEntity
  8
EBENE_1
100
AcDbLine
 10
374.9034285714
 20
66.7579706949
 30
0.0
 11
362.9034285714
 21
66.7579706949
 31
0.0
  0
LINE
  5
88
330
75
100
AcDbEntity
  8
EBENE_1
100
AcDbLine
 10
374.9034285714
 20
92.1579706949
 30
0.0
 11
362.9034285714
 21
92.1579706949
 31
0.0
  0
LINE
  5
89
330
75
100
AcDbEntity
  8
EBENE_1
100
AcDbLine
 10
374.9034285714
 20
117.5579706949
 30
0.0
 11
362.9034285714
 21
117.5579706949
 31
0.0
  0
LINE
  5
8A
330
75
100
AcDbEntity
  8
EBENE_1
100
AcDbLine
 10
374.9034285714
 20
142.9579706949
 30
0.0
 11
362.9034285714
 21
142.9579706949
 31
0.0
  0
LINE
  5
8B
330
75
100
AcDbEntity
  8
EBENE_1
100
AcDbLine
 10
374.9034285714
 20
168.3579706949
 30
0.0
 11
362.9034285714
 21
168.3579706949
 31
0.0
  0
INSERT
  5
98
330
75
100
AcDbEntity
  8
EBENE_1
100
AcDbBlockReference
  2
SW_BLOCK_DIMENSION_0
 10
397.2096946378
 20
38.9914197296
 30
0.0
  0
INSERT
  5
A0
330
75
100
AcDbEntity
  8
EBENE_1
100
AcDbBlockReference
  2
SW_BLOCK_DIMENSION_1
 10
397.2096946378
 20
48.9914197296
 30
0.0
  0
INSERT
  5
A8
330
75
100
AcDbEntity
  8
EBENE_1
100
AcDbBlockReference
  2
SW_BLOCK_DIMENSION_2
 10
397.2096946378
 20
58.9914197296
 30
0.0
  0
INSERT
  5
B0
330
75
100
AcDbEntity
  8
EBENE_1
100
AcDbBlockReference
  2
SW_BLOCK_DIMENSION_3
 10
397.2096946378
 20
68.9914197296
 30
0.0
  0
INSERT
  5
B8
330
75
100
AcDbEntity
  8
EBENE_1
100
AcDbBlockReference
  2
SW_BLOCK_DIMENSION_4
 10
397.2096946378
 20
78.9914197296
 30
0.0
  0
INSERT
  5
C0
330
75
100
AcDbEntity
  8
EBENE_1
100
AcDbBlockReference
  2
SW_BLOCK_DIMENSION_5
 10
397.2096946378
 20
88.9914197296
 30
0.0
  0
INSERT
  5
C8
330
75
100
AcDbEntity
  8
EBENE_1
100
AcDbBlockReference
  2
SW_BLOCK_DIMENSION_6
 10
397.2096946378
 20
98.9914197296
 30
0.0
  0
INSERT
  5
D0
330
75
100
AcDbEntity
  8
EBENE_1
100
AcDbBlockReference
  2
SW_BLOCK_DIMENSION_7
 10
397.2096946378
 20
108.9914197296
 30
0.0
  0
INSERT
  5
D8
330
75
100
AcDbEntity
  8
EBENE_1
100
AcDbBlockReference
  2
SW_BLOCK_DIMENSION_8
 10
397.2096946378
 20
118.9914197296
 30
0.0
  0
INSERT
  5
E0
330
75
100
AcDbEntity
  8
EBENE_1
100
AcDbBlockReference
  2
SW_BLOCK_DIMENSION_9
 10
397.2096946378
 20
128.9914197296
 30
0.0
  0
INSERT
  5
E8
330
75
100
AcDbEntity
  8
EBENE_1
100
AcDbBlockReference
  2
SW_BLOCK_DIMENSION_10
 10
397.2096946378
 20
138.9914197296
 30
0.0
  0
INSERT
  5
F0
330
75
100
AcDbEntity
  8
EBENE_1
100
AcDbBlockReference
  2
SW_BLOCK_DIMENSION_11
 10
397.2096946378
 20
148.9914197296
 30
0.0
  0
INSERT
  5
F8
330
75
100
AcDbEntity
  8
EBENE_1
100
AcDbBlockReference
  2
SW_BLOCK_DIMENSION_12
 10
397.2096946378
 20
158.9914197296
 30
0.0
  0
INSERT
  5
100
330
75
100
AcDbEntity
  8
EBENE_1
100
AcDbBlockReference
  2
SW_BLOCK_DIMENSION_13
 10
397.2096946378
 20
168.9914197296
 30
0.0
  0
INSERT
  5
110
330
75
100
AcDbEntity
  8
EBENE_1
100
AcDbBlockReference
  2
SW_BLOCK_DIMENSION_14
 10
337.2987953614
 20
36.1691980072
 30
0.0
  0
INSERT
  5
121
330
75
100
AcDbEntity
  8
EBENE_1
100
AcDbBlockReference
  2
SW_BLOCK_DIMENSION_15
 10
337.2987953614
 20
61.5691980072
 30
0.0
  0
INSERT
  5
132
330
75
100
AcDbEntity
  8
EBENE_1
100
AcDbBlockReference
  2
SW_BLOCK_DIMENSION_16
 10
337.2987953614
 20
86.9691980072
 30
0.0
  0
INSERT
  5
143
330
75
100
AcDbEntity
  8
EBENE_1
100
AcDbBlockReference
  2
SW_BLOCK_DIMENSION_17
 10
337.2987953614
 20
112.3691980072
 30
0.0
  0
INSERT
  5
154
330
75
100
AcDbEntity
  8
EBENE_1
100
AcDbBlockReference
  2
SW_BLOCK_DIMENSION_18
 10
336.8284243759
 20
137.7691980072
 30
0.0
  0
INSERT
  5
165
330
75
100
AcDbEntity
  8
EBENE_1
100
AcDbBlockReference
  2
SW_BLOCK_DIMENSION_19
 10
337.2987953614
 20
163.1691980072
 30
0.0
  0
INSERT
  5
16B
330
75
100
AcDbEntity
  8
EBENE_1
 62
   179
100
AcDbBlockReference
  2
SW_NOTE_0
 10
337.5586028241
 20
28.8175207347
 30
0.0
  0
MTEXT
  5
16C
330
75
100
AcDbEntity
  8
EBENE_1
100
AcDbMText
 10
393.160738319
 20
33.5924424874
 30
0.0
 40
3.7041666667
 41
0.0
 71
     1
 72
     1
  1
mm
  7
SLDTEXTSTYLE0
 73
     1
 44
1.0
  0
ENDBLK
  5
77
330
75
100
AcDbEntity
  8
0
100
AcDbBlockEnd
  0
BLOCK
  5
8D
330
8C
100
AcDbEntity
  8
0
100
AcDbBlockBegin
  2
SW_BLOCK_DIMENSION_0
 70
     0
 10
0.0
 20
0.0
 30
0.0
  3
SW_BLOCK_DIMENSION_0
  1

  0
INSERT
  5
94
330
8C
100
AcDbEntity
  8
EBENE_1
 62
     0
100
AcDbBlockReference
  2
_ORIGIN
 10
-1.5805038061
 20
2.3665509652
 30
0.0
 41
0.9483022837
 42
0.9483022837
 50
0.0
  0
LINE
  5
95
330
8C
100
AcDbEntity
  8
EBENE_1
 62
     0
100
AcDbLine
 10
-6.5262660664
 20
2.3665509652
 30
0.0
 11
0.0
 21
2.3665509652
 31
0.0
  0
MTEXT
  5
97
330
8C
100
AcDbEntity
  8
EBENE_1
 62
     0
100
AcDbMText
 10
0.0
 20
4.0927900738
 30
0.0
 40
3.175
 41
0.0
 71
     1
 72
     1
  1
0
  7
SLDTEXTSTYLE0
 73
     1
 44
1.0
  0
ENDBLK
  5
8E
330
8C
100
AcDbEntity
  8
0
100
AcDbBlockEnd
  0
BLOCK
  5
90
330
8F
100
AcDbEntity
  8
0
100
AcDbBlockBegin
  2
_ORIGIN
 70
     0
 10
0.0
 20
0.0
 30
0.0
  3
_ORIGIN
  1

  0
CIRCLE
  5
92
330
8F
100
AcDbEntity
  8
0
  6
ByBlock
 62
     0
370
    -2
100
AcDbCircle
 10
0.0
 20
0.0
 30
0.0
 40
0.5
  0
LINE
  5
93
330
8F
100
AcDbEntity
  8
0
  6
ByBlock
 62
     0
370
    -2
100
AcDbLine
 10
0.0
 20
0.0
 30
0.0
 11
-1.0
 21
0.0
 31
0.0
  0
ENDBLK
  5
91
330
8F
100
AcDbEntity
  8
0
100
AcDbBlockEnd
  0
BLOCK
  5
9A
330
99
100
AcDbEntity
  8
0
100
AcDbBlockBegin
  2
SW_BLOCK_DIMENSION_1
 70
     0
 10
0.0
 20
0.0
 30
0.0
  3
SW_BLOCK_DIMENSION_1
  1

  0
SOLID
  5
9C
330
99
100
AcDbEntity
  8
EBENE_1
 62
     0
100
AcDbTrace
 10
-1.5805038061
 20
2.3665509652
 30
0.0
 11
-2.0546549479
 21
-0.7154314566
 31
0.0
 12
-1.1063526643
 22
-0.7154314566
 32
0.0
 13
-1.1063526643
 23
-0.7154314566
 33
0.0
  0
LINE
  5
9D
330
99
100
AcDbEntity
  8
EBENE_1
 62
     0
100
AcDbLine
 10
-10.3062660664
 20
2.3665509652
 30
0.0
 11
0.0
 21
2.3665509652
 31
0.0
  0
LINE
  5
9E
330
99
100
AcDbEntity
  8
EBENE_1
 62
     0
100
AcDbLine
 10
-1.5805038061
 20
-7.6334490348
 30
0.0
 11
-1.5805038061
 21
2.3665509652
 31
0.0
  0
MTEXT
  5
9F
330
99
100
AcDbEntity
  8
EBENE_1
 62
     0
100
AcDbMText
 10
0.0
 20
4.0927900738
 30
0.0
 40
3.175
 41
0.0
 71
     1
 72
     1
  1
10
  7
SLDTEXTSTYLE0
 73
     1
 44
1.0
  0
ENDBLK
  5
9B
330
99
100
AcDbEntity
  8
0
100
AcDbBlockEnd
  0
BLOCK
  5
A2
330
A1
100
AcDbEntity
  8
0
100
AcDbBlockBegin
  2
SW_BLOCK_DIMENSION_2
 70
     0
 10
0.0
 20
0.0
 30
0.0
  3
SW_BLOCK_DIMENSION_2
  1

  0
SOLID
  5
A4
330
A1
100
AcDbEntity
  8
EBENE_1
 62
     0
100
AcDbTrace
 10
-1.5805038061
 20
2.3665509652
 30
0.0
 11
-2.0546549479
 21
-0.7154314566
 31
0.0
 12
-1.1063526643
 22
-0.7154314566
 32
0.0
 13
-1.1063526643
 23
-0.7154314566
 33
0.0
  0
LINE
  5
A5
330
A1
100
AcDbEntity
  8
EBENE_1
 62
     0
100
AcDbLine
 10
-10.3062660664
 20
2.3665509652
 30
0.0
 11
0.0
 21
2.3665509652
 31
0.0
  0
LINE
  5
A6
330
A1
100
AcDbEntity
  8
EBENE_1
 62
     0
100
AcDbLine
 10
-1.5805038061
 20
-7.6334490348
 30
0.0
 11
-1.5805038061
 21
2.3665509652
 31
0.0
  0
MTEXT
  5
A7
330
A1
100
AcDbEntity
  8
EBENE_1
 62
     0
100
AcDbMText
 10
0.0
 20
4.0927900738
 30
0.0
 40
3.175
 41
0.0
 71
     1
 72
     1
  1
20
  7
SLDTEXTSTYLE0
 73
     1
 44
1.0
  0
ENDBLK
  5
A3
330
A1
100
AcDbEntity
  8
0
100
AcDbBlockEnd
  0
BLOCK
  5
AA
330
A9
100
AcDbEntity
  8
0
100
AcDbBlockBegin
  2
SW_BLOCK_DIMENSION_3
 70
     0
 10
0.0
 20
0.0
 30
0.0
  3
SW_BLOCK_DIMENSION_3
  1

  0
SOLID
  5
AC
330
A9
100
AcDbEntity
  8
EBENE_1
 62
     0
100
AcDbTrace
 10
-1.5805038061
 20
2.3665509652
 30
0.0
 11
-2.0546549479
 21
-0.7154314566
 31
0.0
 12
-1.1063526643
 22
-0.7154314566
 32
0.0
 13
-1.1063526643
 23
-0.7154314566
 33
0.0
  0
LINE
  5
AD
330
A9
100
AcDbEntity
  8
EBENE_1
 62
     0
100
AcDbLine
 10
-10.3062660664
 20
2.3665509652
 30
0.0
 11
0.0
 21
2.3665509652
 31
0.0
  0
LINE
  5
AE
330
A9
100
AcDbEntity
  8
EBENE_1
 62
     0
100
AcDbLine
 10
-1.5805038061
 20
-7.6334490348
 30
0.0
 11
-1.5805038061
 21
2.3665509652
 31
0.0
  0
MTEXT
  5
AF
330
A9
100
AcDbEntity
  8
EBENE_1
 62
     0
100
AcDbMText
 10
0.0
 20
4.0927900738
 30
0.0
 40
3.175
 41
0.0
 71
     1
 72
     1
  1
30
  7
SLDTEXTSTYLE0
 73
     1
 44
1.0
  0
ENDBLK
  5
AB
330
A9
100
AcDbEntity
  8
0
100
AcDbBlockEnd
  0
BLOCK
  5
B2
330
B1
100
AcDbEntity
  8
0
100
AcDbBlockBegin
  2
SW_BLOCK_DIMENSION_4
 70
     0
 10
0.0
 20
0.0
 30
0.0
  3
SW_BLOCK_DIMENSION_4
  1

  0
SOLID
  5
B4
330
B1
100
AcDbEntity
  8
EBENE_1
 62
     0
100
AcDbTrace
 10
-1.5805038061
 20
2.3665509652
 30
0.0
 11
-2.0546549479
 21
-0.7154314566
 31
0.0
 12
-1.1063526643
 22
-0.7154314566
 32
0.0
 13
-1.1063526643
 23
-0.7154314566
 33
0.0
  0
LINE
  5
B5
330
B1
100
AcDbEntity
  8
EBENE_1
 62
     0
100
AcDbLine
 10
-10.3062660664
 20
2.3665509652
 30
0.0
 11
0.0
 21
2.3665509652
 31
0.0
  0
LINE
  5
B6
330
B1
100
AcDbEntity
  8
EBENE_1
 62
     0
100
AcDbLine
 10
-1.5805038061
 20
-7.6334490348
 30
0.0
 11
-1.5805038061
 21
2.3665509652
 31
0.0
  0
MTEXT
  5
B7
330
B1
100
AcDbEntity
  8
EBENE_1
 62
     0
100
AcDbMText
 10
0.0
 20
4.0927900738
 30
0.0
 40
3.175
 41
0.0
 71
     1
 72
     1
  1
40
  7
SLDTEXTSTYLE0
 73
     1
 44
1.0
  0
ENDBLK
  5
B3
330
B1
100
AcDbEntity
  8
0
100
AcDbBlockEnd
  0
BLOCK
  5
BA
330
B9
100
AcDbEntity
  8
0
100
AcDbBlockBegin
  2
SW_BLOCK_DIMENSION_5
 70
     0
 10
0.0
 20
0.0
 30
0.0
  3
SW_BLOCK_DIMENSION_5
  1

  0
SOLID
  5
BC
330
B9
100
AcDbEntity
  8
EBENE_1
 62
     0
100
AcDbTrace
 10
-1.5805038061
 20
2.3665509652
 30
0.0
 11
-2.0546549479
 21
-0.7154314566
 31
0.0
 12
-1.1063526643
 22
-0.7154314566
 32
0.0
 13
-1.1063526643
 23
-0.7154314566
 33
0.0
  0
LINE
  5
BD
330
B9
100
AcDbEntity
  8
EBENE_1
 62
     0
100
AcDbLine
 10
-10.3062660664
 20
2.3665509652
 30
0.0
 11
0.0
 21
2.3665509652
 31
0.0
  0
LINE
  5
BE
330
B9
100
AcDbEntity
  8
EBENE_1
 62
     0
100
AcDbLine
 10
-1.5805038061
 20
-7.6334490348
 30
0.0
 11
-1.5805038061
 21
2.3665509652
 31
0.0
  0
MTEXT
  5
BF
330
B9
100
AcDbEntity
  8
EBENE_1
 62
     0
100
AcDbMText
 10
0.0
 20
4.0927900738
 30
0.0
 40
3.175
 41
0.0
 71
     1
 72
     1
  1
50
  7
SLDTEXTSTYLE0
 73
     1
 44
1.0
  0
ENDBLK
  5
BB
330
B9
100
AcDbEntity
  8
0
100
AcDbBlockEnd
  0
BLOCK
  5
C2
330
C1
100
AcDbEntity
  8
0
100
AcDbBlockBegin
  2
SW_BLOCK_DIMENSION_6
 70
     0
 10
0.0
 20
0.0
 30
0.0
  3
SW_BLOCK_DIMENSION_6
  1

  0
SOLID
  5
C4
330
C1
100
AcDbEntity
  8
EBENE_1
 62
     0
100
AcDbTrace
 10
-1.5805038061
 20
2.3665509652
 30
0.0
 11
-2.0546549479
 21
-0.7154314566
 31
0.0
 12
-1.1063526643
 22
-0.7154314566
 32
0.0
 13
-1.1063526643
 23
-0.7154314566
 33
0.0
  0
LINE
  5
C5
330
C1
100
AcDbEntity
  8
EBENE_1
 62
     0
100
AcDbLine
 10
-10.3062660664
 20
2.3665509652
 30
0.0
 11
0.0
 21
2.3665509652
 31
0.0
  0
LINE
  5
C6
330
C1
100
AcDbEntity
  8
EBENE_1
 62
     0
100
AcDbLine
 10
-1.5805038061
 20
-7.6334490348
 30
0.0
 11
-1.5805038061
 21
2.3665509652
 31
0.0
  0
MTEXT
  5
C7
330
C1
100
AcDbEntity
  8
EBENE_1
 62
     0
100
AcDbMText
 10
0.0
 20
4.0927900738
 30
0.0
 40
3.175
 41
0.0
 71
     1
 72
     1
  1
60
  7
SLDTEXTSTYLE0
 73
     1
 44
1.0
  0
ENDBLK
  5
C3
330
C1
100
AcDbEntity
  8
0
100
AcDbBlockEnd
  0
BLOCK
  5
CA
330
C9
100
AcDbEntity
  8
0
100
AcDbBlockBegin
  2
SW_BLOCK_DIMENSION_7
 70
     0
 10
0.0
 20
0.0
 30
0.0
  3
SW_BLOCK_DIMENSION_7
  1

  0
SOLID
  5
CC
330
C9
100
AcDbEntity
  8
EBENE_1
 62
     0
100
AcDbTrace
 10
-1.5805038061
 20
2.3665509652
 30
0.0
 11
-2.0546549479
 21
-0.7154314566
 31
0.0
 12
-1.1063526643
 22
-0.7154314566
 32
0.0
 13
-1.1063526643
 23
-0.7154314566
 33
0.0
  0
LINE
  5
CD
330
C9
100
AcDbEntity
  8
EBENE_1
 62
     0
100
AcDbLine
 10
-10.3062660664
 20
2.3665509652
 30
0.0
 11
0.0
 21
2.3665509652
 31
0.0
  0
LINE
  5
CE
330
C9
100
AcDbEntity
  8
EBENE_1
 62
     0
100
AcDbLine
 10
-1.5805038061
 20
-7.6334490348
 30
0.0
 11
-1.5805038061
 21
2.3665509652
 31
0.0
  0
MTEXT
  5
CF
330
C9
100
AcDbEntity
  8
EBENE_1
 62
     0
100
AcDbMText
 10
0.0
 20
4.0927900738
 30
0.0
 40
3.175
 41
0.0
 71
     1
 72
     1
  1
70
  7
SLDTEXTSTYLE0
 73
     1
 44
1.0
  0
ENDBLK
  5
CB
330
C9
100
AcDbEntity
  8
0
100
AcDbBlockEnd
  0
BLOCK
  5
D2
330
D1
100
AcDbEntity
  8
0
100
AcDbBlockBegin
  2
SW_BLOCK_DIMENSION_8
 70
     0
 10
0.0
 20
0.0
 30
0.0
  3
SW_BLOCK_DIMENSION_8
  1

  0
SOLID
  5
D4
330
D1
100
AcDbEntity
  8
EBENE_1
 62
     0
100
AcDbTrace
 10
-1.5805038061
 20
2.3665509652
 30
0.0
 11
-2.0546549479
 21
-0.7154314566
 31
0.0
 12
-1.1063526643
 22
-0.7154314566
 32
0.0
 13
-1.1063526643
 23
-0.7154314566
 33
0.0
  0
LINE
  5
D5
330
D1
100
AcDbEntity
  8
EBENE_1
 62
     0
100
AcDbLine
 10
-10.3062660664
 20
2.3665509652
 30
0.0
 11
0.0
 21
2.3665509652
 31
0.0
  0
LINE
  5
D6
330
D1
100
AcDbEntity
  8
EBENE_1
 62
     0
100
AcDbLine
 10
-1.5805038061
 20
-7.6334490348
 30
0.0
 11
-1.5805038061
 21
2.3665509652
 31
0.0
  0
MTEXT
  5
D7
330
D1
100
AcDbEntity
  8
EBENE_1
 62
     0
100
AcDbMText
 10
0.0
 20
4.0927900738
 30
0.0
 40
3.175
 41
0.0
 71
     1
 72
     1
  1
80
  7
SLDTEXTSTYLE0
 73
     1
 44
1.0
  0
ENDBLK
  5
D3
330
D1
100
AcDbEntity
  8
0
100
AcDbBlockEnd
  0
BLOCK
  5
DA
330
D9
100
AcDbEntity
  8
0
100
AcDbBlockBegin
  2
SW_BLOCK_DIMENSION_9
 70
     0
 10
0.0
 20
0.0
 30
0.0
  3
SW_BLOCK_DIMENSION_9
  1

  0
SOLID
  5
DC
330
D9
100
AcDbEntity
  8
EBENE_1
 62
     0
100
AcDbTrace
 10
-1.5805038061
 20
2.3665509652
 30
0.0
 11
-2.0546549479
 21
-0.7154314566
 31
0.0
 12
-1.1063526643
 22
-0.7154314566
 32
0.0
 13
-1.1063526643
 23
-0.7154314566
 33
0.0
  0
LINE
  5
DD
330
D9
100
AcDbEntity
  8
EBENE_1
 62
     0
100
AcDbLine
 10
-10.3062660664
 20
2.3665509652
 30
0.0
 11
0.0
 21
2.3665509652
 31
0.0
  0
LINE
  5
DE
330
D9
100
AcDbEntity
  8
EBENE_1
 62
     0
100
AcDbLine
 10
-1.5805038061
 20
-7.6334490348
 30
0.0
 11
-1.5805038061
 21
2.3665509652
 31
0.0
  0
MTEXT
  5
DF
330
D9
100
AcDbEntity
  8
EBENE_1
 62
     0
100
AcDbMText
 10
0.0
 20
4.0927900738
 30
0.0
 40
3.175
 41
0.0
 71
     1
 72
     1
  1
90
  7
SLDTEXTSTYLE0
 73
     1
 44
1.0
  0
ENDBLK
  5
DB
330
D9
100
AcDbEntity
  8
0
100
AcDbBlockEnd
  0
BLOCK
  5
E2
330
E1
100
AcDbEntity
  8
0
100
AcDbBlockBegin
  2
SW_BLOCK_DIMENSION_10
 70
     0
 10
0.0
 20
0.0
 30
0.0
  3
SW_BLOCK_DIMENSION_10
  1

  0
SOLID
  5
E4
330
E1
100
AcDbEntity
  8
EBENE_1
 62
     0
100
AcDbTrace
 10
-1.5805038061
 20
2.3665509652
 30
0.0
 11
-2.0546549479
 21
-0.7154314566
 31
0.0
 12
-1.1063526643
 22
-0.7154314566
 32
0.0
 13
-1.1063526643
 23
-0.7154314566
 33
0.0
  0
LINE
  5
E5
330
E1
100
AcDbEntity
  8
EBENE_1
 62
     0
100
AcDbLine
 10
-10.3062660664
 20
2.3665509652
 30
0.0
 11
0.0
 21
2.3665509652
 31
0.0
  0
LINE
  5
E6
330
E1
100
AcDbEntity
  8
EBENE_1
 62
     0
100
AcDbLine
 10
-1.5805038061
 20
-7.6334490348
 30
0.0
 11
-1.5805038061
 21
2.3665509652
 31
0.0
  0
MTEXT
  5
E7
330
E1
100
AcDbEntity
  8
EBENE_1
 62
     0
100
AcDbMText
 10
0.0
 20
4.0927900738
 30
0.0
 40
3.175
 41
0.0
 71
     1
 72
     1
  1
100
  7
SLDTEXTSTYLE0
 73
     1
 44
1.0
  0
ENDBLK
  5
E3
330
E1
100
AcDbEntity
  8
0
100
AcDbBlockEnd
  0
BLOCK
  5
EA
330
E9
100
AcDbEntity
  8
0
100
AcDbBlockBegin
  2
SW_BLOCK_DIMENSION_11
 70
     0
 10
0.0
 20
0.0
 30
0.0
  3
SW_BLOCK_DIMENSION_11
  1

  0
SOLID
  5
EC
330
E9
100
AcDbEntity
  8
EBENE_1
 62
     0
100
AcDbTrace
 10
-1.5805038061
 20
2.3665509652
 30
0.0
 11
-2.0546549479
 21
-0.7154314566
 31
0.0
 12
-1.1063526643
 22
-0.7154314566
 32
0.0
 13
-1.1063526643
 23
-0.7154314566
 33
0.0
  0
LINE
  5
ED
330
E9
100
AcDbEntity
  8
EBENE_1
 62
     0
100
AcDbLine
 10
-10.3062660664
 20
2.3665509652
 30
0.0
 11
0.0
 21
2.3665509652
 31
0.0
  0
LINE
  5
EE
330
E9
100
AcDbEntity
  8
EBENE_1
 62
     0
100
AcDbLine
 10
-1.5805038061
 20
-7.6334490348
 30
0.0
 11
-1.5805038061
 21
2.3665509652
 31
0.0
  0
MTEXT
  5
EF
330
E9
100
AcDbEntity
  8
EBENE_1
 62
     0
100
AcDbMText
 10
0.0
 20
4.0927900738
 30
0.0
 40
3.175
 41
0.0
 71
     1
 72
     1
  1
110
  7
SLDTEXTSTYLE0
 73
     1
 44
1.0
  0
ENDBLK
  5
EB
330
E9
100
AcDbEntity
  8
0
100
AcDbBlockEnd
  0
BLOCK
  5
F2
330
F1
100
AcDbEntity
  8
0
100
AcDbBlockBegin
  2
SW_BLOCK_DIMENSION_12
 70
     0
 10
0.0
 20
0.0
 30
0.0
  3
SW_BLOCK_DIMENSION_12
  1

  0
SOLID
  5
F4
330
F1
100
AcDbEntity
  8
EBENE_1
 62
     0
100
AcDbTrace
 10
-1.5805038061
 20
2.3665509652
 30
0.0
 11
-2.0546549479
 21
-0.7154314566
 31
0.0
 12
-1.1063526643
 22
-0.7154314566
 32
0.0
 13
-1.1063526643
 23
-0.7154314566
 33
0.0
  0
LINE
  5
F5
330
F1
100
AcDbEntity
  8
EBENE_1
 62
     0
100
AcDbLine
 10
-10.3062660664
 20
2.3665509652
 30
0.0
 11
0.0
 21
2.3665509652
 31
0.0
  0
LINE
  5
F6
330
F1
100
AcDbEntity
  8
EBENE_1
 62
     0
100
AcDbLine
 10
-1.5805038061
 20
-7.6334490348
 30
0.0
 11
-1.5805038061
 21
2.3665509652
 31
0.0
  0
MTEXT
  5
F7
330
F1
100
AcDbEntity
  8
EBENE_1
 62
     0
100
AcDbMText
 10
0.0
 20
4.0927900738
 30
0.0
 40
3.175
 41
0.0
 71
     1
 72
     1
  1
120
  7
SLDTEXTSTYLE0
 73
     1
 44
1.0
  0
ENDBLK
  5
F3
330
F1
100
AcDbEntity
  8
0
100
AcDbBlockEnd
  0
BLOCK
  5
FA
330
F9
100
AcDbEntity
  8
0
100
AcDbBlockBegin
  2
SW_BLOCK_DIMENSION_13
 70
     0
 10
0.0
 20
0.0
 30
0.0
  3
SW_BLOCK_DIMENSION_13
  1

  0
SOLID
  5
FC
330
F9
100
AcDbEntity
  8
EBENE_1
 62
     0
100
AcDbTrace
 10
-1.5805038061
 20
2.3665509652
 30
0.0
 11
-2.0546549479
 21
-0.7154314566
 31
0.0
 12
-1.1063526643
 22
-0.7154314566
 32
0.0
 13
-1.1063526643
 23
-0.7154314566
 33
0.0
  0
LINE
  5
FD
330
F9
100
AcDbEntity
  8
EBENE_1
 62
     0
100
AcDbLine
 10
-10.3062660664
 20
2.3665509652
 30
0.0
 11
0.0
 21
2.3665509652
 31
0.0
  0
LINE
  5
FE
330
F9
100
AcDbEntity
  8
EBENE_1
 62
     0
100
AcDbLine
 10
-1.5805038061
 20
-7.6334490348
 30
0.0
 11
-1.5805038061
 21
2.3665509652
 31
0.0
  0
MTEXT
  5
FF
330
F9
100
AcDbEntity
  8
EBENE_1
 62
     0
100
AcDbMText
 10
0.0
 20
4.0927900738
 30
0.0
 40
3.175
 41
0.0
 71
     1
 72
     1
  1
130
  7
SLDTEXTSTYLE0
 73
     1
 44
1.0
  0
ENDBLK
  5
FB
330
F9
100
AcDbEntity
  8
0
100
AcDbBlockEnd
  0
BLOCK
  5
102
330
101
100
AcDbEntity
  8
0
100
AcDbBlockBegin
  2
SW_BLOCK_DIMENSION_14
 70
     0
 10
0.0
 20
0.0
 30
0.0
  3
SW_BLOCK_DIMENSION_14
  1

  0
INSERT
  5
104
330
101
100
AcDbEntity
  8
EBENE_1
 62
     0
100
AcDbBlockReference
  2
_ORIGIN
 10
16.3971707594
 20
5.1887726877
 30
0.0
 41
0.9483022837
 42
0.9483022837
 50
0.0
  0
LINE
  5
105
330
101
100
AcDbEntity
  8
EBENE_1
 62
     0
100
AcDbLine
 10
3.2925925916
 20
9.671990294
 30
0.0
 11
2.2342592711
 21
9.671990294
 31
0.0
  0
LINE
  5
106
330
101
100
AcDbEntity
  8
EBENE_1
 62
     0
100
AcDbLine
 10
2.2342592711
 20
9.671990294
 30
0.0
 11
2.2342592711
 21
4.9388883635
 31
0.0
  0
LINE
  5
107
330
101
100
AcDbEntity
  8
EBENE_1
 62
     0
100
AcDbLine
 10
2.2342592711
 20
4.9388883635
 30
0.0
 11
3.2925925916
 21
4.9388883635
 31
0.0
  0
LINE
  5
108
330
101
100
AcDbEntity
  8
EBENE_1
 62
     0
100
AcDbLine
 10
11.5240741288
 20
9.671990294
 30
0.0
 11
12.5824074494
 21
9.671990294
 31
0.0
  0
LINE
  5
109
330
101
100
AcDbEntity
  8
EBENE_1
 62
     0
100
AcDbLine
 10
12.5824074494
 20
9.671990294
 30
0.0
 11
12.5824074494
 21
4.9388883635
 31
0.0
  0
LINE
  5
10A
330
101
100
AcDbEntity
  8
EBENE_1
 62
     0
100
AcDbLine
 10
12.5824074494
 20
4.9388883635
 30
0.0
 11
11.5240741288
 21
4.9388883635
 31
0.0
  0
LINE
  5
10B
330
101
100
AcDbEntity
  8
EBENE_1
 62
     0
100
AcDbLine
 10
24.38463321
 20
5.1887726877
 30
0.0
 11
14.8166669533
 21
5.1887726877
 31
0.0
  0
MTEXT
  5
10C
330
101
100
AcDbEntity
  8
EBENE_1
 62
     0
100
AcDbMText
 10
1.190625
 20
4.0927900738
 30
0.0
 40
3.175
 41
0.0
 71
     1
 72
     1
  1

  7
SLDTEXTSTYLE0
 73
     1
 44
1.0
  0
MTEXT
  5
10D
330
101
100
AcDbEntity
  8
EBENE_1
 62
     0
100
AcDbMText
 10
3.2925925916
 20
9.0316784373
 30
0.0
 40
3.175
 41
0.0
 71
     1
 72
     1
  1
0,00
  7
SLDTEXTSTYLE0
 73
     1
 44
1.0
  0
MTEXT
  5
10E
330
101
100
AcDbEntity
  8
EBENE_1
 62
     0
100
AcDbMText
 10
6.2324074097
 20
4.0927898409
 30
0.0
 40
3.175
 41
0.0
 71
     1
 72
     1
  1
0
  7
SLDTEXTSTYLE0
 73
     1
 44
1.0
  0
MTEXT
  5
10F
330
101
100
AcDbEntity
  8
EBENE_1
 62
     0
100
AcDbMText
 10
14.8313658863
 20
4.0927900738
 30
0.0
 40
3.175
 41
0.0
 71
     1
 72
     1
  1

  7
SLDTEXTSTYLE0
 73
     1
 44
1.0
  0
ENDBLK
  5
103
330
101
100
AcDbEntity
  8
0
100
AcDbBlockEnd
  0
BLOCK
  5
112
330
111
100
AcDbEntity
  8
0
100
AcDbBlockBegin
  2
SW_BLOCK_DIMENSION_15
 70
     0
 10
0.0
 20
0.0
 30
0.0
  3
SW_BLOCK_DIMENSION_15
  1

  0
SOLID
  5
114
330
111
100
AcDbEntity
  8
EBENE_1
 62
     0
100
AcDbTrace
 10
16.3971707594
 20
5.1887726877
 30
0.0
 11
15.9230196175
 21
2.1067902658
 31
0.0
 12
16.8713219012
 22
2.1067902658
 32
0.0
 13
16.8713219012
 23
2.1067902658
 33
0.0
  0
LINE
  5
115
330
111
100
AcDbEntity
  8
EBENE_1
 62
     0
100
AcDbLine
 10
3.2925925916
 20
9.671990294
 30
0.0
 11
2.2342592711
 21
9.671990294
 31
0.0
  0
LINE
  5
116
330
111
100
AcDbEntity
  8
EBENE_1
 62
     0
100
AcDbLine
 10
2.2342592711
 20
9.671990294
 30
0.0
 11
2.2342592711
 21
4.9388883635
 31
0.0
  0
LINE
  5
117
330
111
100
AcDbEntity
  8
EBENE_1
 62
     0
100
AcDbLine
 10
2.2342592711
 20
4.9388883635
 30
0.0
 11
3.2925925916
 21
4.9388883635
 31
0.0
  0
LINE
  5
118
330
111
100
AcDbEntity
  8
EBENE_1
 62
     0
100
AcDbLine
 10
11.5240741288
 20
9.671990294
 30
0.0
 11
12.5824074494
 21
9.671990294
 31
0.0
  0
LINE
  5
119
330
111
100
AcDbEntity
  8
EBENE_1
 62
     0
100
AcDbLine
 10
12.5824074494
 20
9.671990294
 30
0.0
 11
12.5824074494
 21
4.9388883635
 31
0.0
  0
LINE
  5
11A
330
111
100
AcDbEntity
  8
EBENE_1
 62
     0
100
AcDbLine
 10
12.5824074494
 20
4.9388883635
 30
0.0
 11
11.5240741288
 21
4.9388883635
 31
0.0
  0
LINE
  5
11B
330
111
100
AcDbEntity
  8
EBENE_1
 62
     0
100
AcDbLine
 10
23.60463321
 20
5.1887726877
 30
0.0
 11
14.8166669533
 21
5.1887726877
 31
0.0
  0
LINE
  5
11C
330
111
100
AcDbEntity
  8
EBENE_1
 62
     0
100
AcDbLine
 10
16.3971707594
 20
-20.2112273123
 30
0.0
 11
16.3971707594
 21
5.1887726877
 31
0.0
  0
MTEXT
  5
11D
330
111
100
AcDbEntity
  8
EBENE_1
 62
     0
100
AcDbMText
 10
1.190625
 20
4.0927900738
 30
0.0
 40
3.175
 41
0.0
 71
     1
 72
     1
  1

  7
SLDTEXTSTYLE0
 73
     1
 44
1.0
  0
MTEXT
  5
11E
330
111
100
AcDbEntity
  8
EBENE_1
 62
     0
100
AcDbMText
 10
3.2925925916
 20
9.0316784373
 30
0.0
 40
3.175
 41
0.0
 71
     1
 72
     1
  1
1,00
  7
SLDTEXTSTYLE0
 73
     1
 44
1.0
  0
MTEXT
  5
11F
330
111
100
AcDbEntity
  8
EBENE_1
 62
     0
100
AcDbMText
 10
2.1166665247
 20
4.0927898409
 30
0.0
 40
3.175
 41
0.0
 71
     1
 72
     1
  1
25,40
  7
SLDTEXTSTYLE0
 73
     1
 44
1.0
  0
MTEXT
  5
120
330
111
100
AcDbEntity
  8
EBENE_1
 62
     0
100
AcDbMText
 10
14.8313658863
 20
4.0927900738
 30
0.0
 40
3.175
 41
0.0
 71
     1
 72
     1
  1

  7
SLDTEXTSTYLE0
 73
     1
 44
1.0
  0
ENDBLK
  5
113
330
111
100
AcDbEntity
  8
0
100
AcDbBlockEnd
  0
BLOCK
  5
123
330
122
100
AcDbEntity
  8
0
100
AcDbBlockBegin
  2
SW_BLOCK_DIMENSION_16
 70
     0
 10
0.0
 20
0.0
 30
0.0
  3
SW_BLOCK_DIMENSION_16
  1

  0
SOLID
  5
125
330
122
100
AcDbEntity
  8
EBENE_1
 62
     0
100
AcDbTrace
 10
16.3971707594
 20
5.1887726877
 30
0.0
 11
15.9230196175
 21
2.1067902658
 31
0.0
 12
16.8713219012
 22
2.1067902658
 32
0.0
 13
16.8713219012
 23
2.1067902658
 33
0.0
  0
LINE
  5
126
330
122
100
AcDbEntity
  8
EBENE_1
 62
     0
100
AcDbLine
 10
3.2925925916
 20
9.671990294
 30
0.0
 11
2.2342592711
 21
9.671990294
 31
0.0
  0
LINE
  5
127
330
122
100
AcDbEntity
  8
EBENE_1
 62
     0
100
AcDbLine
 10
2.2342592711
 20
9.671990294
 30
0.0
 11
2.2342592711
 21
4.9388883635
 31
0.0
  0
LINE
  5
128
330
122
100
AcDbEntity
  8
EBENE_1
 62
     0
100
AcDbLine
 10
2.2342592711
 20
4.9388883635
 30
0.0
 11
3.2925925916
 21
4.9388883635
 31
0.0
  0
LINE
  5
129
330
122
100
AcDbEntity
  8
EBENE_1
 62
     0
100
AcDbLine
 10
11.5240741288
 20
9.671990294
 30
0.0
 11
12.5824074494
 21
9.671990294
 31
0.0
  0
LINE
  5
12A
330
122
100
AcDbEntity
  8
EBENE_1
 62
     0
100
AcDbLine
 10
12.5824074494
 20
9.671990294
 30
0.0
 11
12.5824074494
 21
4.9388883635
 31
0.0
  0
LINE
  5
12B
330
122
100
AcDbEntity
  8
EBENE_1
 62
     0
100
AcDbLine
 10
12.5824074494
 20
4.9388883635
 30
0.0
 11
11.5240741288
 21
4.9388883635
 31
0.0
  0
LINE
  5
12C
330
122
100
AcDbEntity
  8
EBENE_1
 62
     0
100
AcDbLine
 10
23.60463321
 20
5.1887726877
 30
0.0
 11
14.8166669533
 21
5.1887726877
 31
0.0
  0
LINE
  5
12D
330
122
100
AcDbEntity
  8
EBENE_1
 62
     0
100
AcDbLine
 10
16.3971707594
 20
-20.2112273123
 30
0.0
 11
16.3971707594
 21
5.1887726877
 31
0.0
  0
MTEXT
  5
12E
330
122
100
AcDbEntity
  8
EBENE_1
 62
     0
100
AcDbMText
 10
1.190625
 20
4.0927900738
 30
0.0
 40
3.175
 41
0.0
 71
     1
 72
     1
  1

  7
SLDTEXTSTYLE0
 73
     1
 44
1.0
  0
MTEXT
  5
12F
330
122
100
AcDbEntity
  8
EBENE_1
 62
     0
100
AcDbMText
 10
3.2925925916
 20
9.0316784373
 30
0.0
 40
3.175
 41
0.0
 71
     1
 72
     1
  1
2,00
  7
SLDTEXTSTYLE0
 73
     1
 44
1.0
  0
MTEXT
  5
130
330
122
100
AcDbEntity
  8
EBENE_1
 62
     0
100
AcDbMText
 10
2.1166665247
 20
4.0927898409
 30
0.0
 40
3.175
 41
0.0
 71
     1
 72
     1
  1
50,80
  7
SLDTEXTSTYLE0
 73
     1
 44
1.0
  0
MTEXT
  5
131
330
122
100
AcDbEntity
  8
EBENE_1
 62
     0
100
AcDbMText
 10
14.8313658863
 20
4.0927900738
 30
0.0
 40
3.175
 41
0.0
 71
     1
 72
     1
  1

  7
SLDTEXTSTYLE0
 73
     1
 44
1.0
  0
ENDBLK
  5
124
330
122
100
AcDbEntity
  8
0
100
AcDbBlockEnd
  0
BLOCK
  5
134
330
133
100
AcDbEntity
  8
0
100
AcDbBlockBegin
  2
SW_BLOCK_DIMENSION_17
 70
     0
 10
0.0
 20
0.0
 30
0.0
  3
SW_BLOCK_DIMENSION_17
  1

  0
SOLID
  5
136
330
133
100
AcDbEntity
  8
EBENE_1
 62
     0
100
AcDbTrace
 10
16.3971707594
 20
5.1887726877
 30
0.0
 11
15.9230196175
 21
2.1067902658
 31
0.0
 12
16.8713219012
 22
2.1067902658
 32
0.0
 13
16.8713219012
 23
2.1067902658
 33
0.0
  0
LINE
  5
137
330
133
100
AcDbEntity
  8
EBENE_1
 62
     0
100
AcDbLine
 10
3.2925925916
 20
9.671990294
 30
0.0
 11
2.2342592711
 21
9.671990294
 31
0.0
  0
LINE
  5
138
330
133
100
AcDbEntity
  8
EBENE_1
 62
     0
100
AcDbLine
 10
2.2342592711
 20
9.671990294
 30
0.0
 11
2.2342592711
 21
4.9388883635
 31
0.0
  0
LINE
  5
139
330
133
100
AcDbEntity
  8
EBENE_1
 62
     0
100
AcDbLine
 10
2.2342592711
 20
4.9388883635
 30
0.0
 11
3.2925925916
 21
4.9388883635
 31
0.0
  0
LINE
  5
13A
330
133
100
AcDbEntity
  8
EBENE_1
 62
     0
100
AcDbLine
 10
11.5240741288
 20
9.671990294
 30
0.0
 11
12.5824074494
 21
9.671990294
 31
0.0
  0
LINE
  5
13B
330
133
100
AcDbEntity
  8
EBENE_1
 62
     0
100
AcDbLine
 10
12.5824074494
 20
9.671990294
 30
0.0
 11
12.5824074494
 21
4.9388883635
 31
0.0
  0
LINE
  5
13C
330
133
100
AcDbEntity
  8
EBENE_1
 62
     0
100
AcDbLine
 10
12.5824074494
 20
4.9388883635
 30
0.0
 11
11.5240741288
 21
4.9388883635
 31
0.0
  0
LINE
  5
13D
330
133
100
AcDbEntity
  8
EBENE_1
 62
     0
100
AcDbLine
 10
23.60463321
 20
5.1887726877
 30
0.0
 11
14.8166669533
 21
5.1887726877
 31
0.0
  0
LINE
  5
13E
330
133
100
AcDbEntity
  8
EBENE_1
 62
     0
100
AcDbLine
 10
16.3971707594
 20
-20.2112273123
 30
0.0
 11
16.3971707594
 21
5.1887726877
 31
0.0
  0
MTEXT
  5
13F
330
133
100
AcDbEntity
  8
EBENE_1
 62
     0
100
AcDbMText
 10
1.190625
 20
4.0927900738
 30
0.0
 40
3.175
 41
0.0
 71
     1
 72
     1
  1

  7
SLDTEXTSTYLE0
 73
     1
 44
1.0
  0
MTEXT
  5
140
330
133
100
AcDbEntity
  8
EBENE_1
 62
     0
100
AcDbMText
 10
3.2925925916
 20
9.0316784373
 30
0.0
 40
3.175
 41
0.0
 71
     1
 72
     1
  1
3,00
  7
SLDTEXTSTYLE0
 73
     1
 44
1.0
  0
MTEXT
  5
141
330
133
100
AcDbEntity
  8
EBENE_1
 62
     0
100
AcDbMText
 10
2.1166665247
 20
4.0927898409
 30
0.0
 40
3.175
 41
0.0
 71
     1
 72
     1
  1
76,20
  7
SLDTEXTSTYLE0
 73
     1
 44
1.0
  0
MTEXT
  5
142
330
133
100
AcDbEntity
  8
EBENE_1
 62
     0
100
AcDbMText
 10
14.8313658863
 20
4.0927900738
 30
0.0
 40
3.175
 41
0.0
 71
     1
 72
     1
  1

  7
SLDTEXTSTYLE0
 73
     1
 44
1.0
  0
ENDBLK
  5
135
330
133
100
AcDbEntity
  8
0
100
AcDbBlockEnd
  0
BLOCK
  5
145
330
144
100
AcDbEntity
  8
0
100
AcDbBlockBegin
  2
SW_BLOCK_DIMENSION_18
 70
     0
 10
0.0
 20
0.0
 30
0.0
  3
SW_BLOCK_DIMENSION_18
  1

  0
SOLID
  5
147
330
144
100
AcDbEntity
  8
EBENE_1
 62
     0
100
AcDbTrace
 10
16.8675417449
 20
5.1887726877
 30
0.0
 11
16.3933906031
 21
2.1067902658
 31
0.0
 12
17.3416928868
 22
2.1067902658
 32
0.0
 13
17.3416928868
 23
2.1067902658
 33
0.0
  0
LINE
  5
148
330
144
100
AcDbEntity
  8
EBENE_1
 62
     0
100
AcDbLine
 10
3.5277780844
 20
9.671990294
 30
0.0
 11
2.4694447638
 21
9.671990294
 31
0.0
  0
LINE
  5
149
330
144
100
AcDbEntity
  8
EBENE_1
 62
     0
100
AcDbLine
 10
2.4694447638
 20
9.671990294
 30
0.0
 11
2.4694447638
 21
4.9388883635
 31
0.0
  0
LINE
  5
14A
330
144
100
AcDbEntity
  8
EBENE_1
 62
     0
100
AcDbLine
 10
2.4694447638
 20
4.9388883635
 30
0.0
 11
3.5277780844
 21
4.9388883635
 31
0.0
  0
LINE
  5
14B
330
144
100
AcDbEntity
  8
EBENE_1
 62
     0
100
AcDbLine
 10
11.7592596216
 20
9.671990294
 30
0.0
 11
12.8175929422
 21
9.671990294
 31
0.0
  0
LINE
  5
14C
330
144
100
AcDbEntity
  8
EBENE_1
 62
     0
100
AcDbLine
 10
12.8175929422
 20
9.671990294
 30
0.0
 11
12.8175929422
 21
4.9388883635
 31
0.0
  0
LINE
  5
14D
330
144
100
AcDbEntity
  8
EBENE_1
 62
     0
100
AcDbLine
 10
12.8175929422
 20
4.9388883635
 30
0.0
 11
11.7592596216
 21
4.9388883635
 31
0.0
  0
LINE
  5
14E
330
144
100
AcDbEntity
  8
EBENE_1
 62
     0
100
AcDbLine
 10
24.0750041956
 20
5.1887726877
 30
0.0
 11
15.2870379388
 21
5.1887726877
 31
0.0
  0
LINE
  5
14F
330
144
100
AcDbEntity
  8
EBENE_1
 62
     0
100
AcDbLine
 10
16.8675417449
 20
-20.2112273123
 30
0.0
 11
16.8675417449
 21
5.1887726877
 31
0.0
  0
MTEXT
  5
150
330
144
100
AcDbEntity
  8
EBENE_1
 62
     0
100
AcDbMText
 10
1.190625
 20
4.0927900738
 30
0.0
 40
3.175
 41
0.0
 71
     1
 72
     1
  1

  7
SLDTEXTSTYLE0
 73
     1
 44
1.0
  0
MTEXT
  5
151
330
144
100
AcDbEntity
  8
EBENE_1
 62
     0
100
AcDbMText
 10
3.5277780844
 20
9.0316784373
 30
0.0
 40
3.175
 41
0.0
 71
     1
 72
     1
  1
4,00
  7
SLDTEXTSTYLE0
 73
     1
 44
1.0
  0
MTEXT
  5
152
330
144
100
AcDbEntity
  8
EBENE_1
 62
     0
100
AcDbMText
 10
1.1759259505
 20
4.0927898409
 30
0.0
 40
3.175
 41
0.0
 71
     1
 72
     1
  1
101,60
  7
SLDTEXTSTYLE0
 73
     1
 44
1.0
  0
MTEXT
  5
153
330
144
100
AcDbEntity
  8
EBENE_1
 62
     0
100
AcDbMText
 10
15.3017368719
 20
4.0927900738
 30
0.0
 40
3.175
 41
0.0
 71
     1
 72
     1
  1

  7
SLDTEXTSTYLE0
 73
     1
 44
1.0
  0
ENDBLK
  5
146
330
144
100
AcDbEntity
  8
0
100
AcDbBlockEnd
  0
BLOCK
  5
156
330
155
100
AcDbEntity
  8
0
100
AcDbBlockBegin
  2
SW_BLOCK_DIMENSION_19
 70
     0
 10
0.0
 20
0.0
 30
0.0
  3
SW_BLOCK_DIMENSION_19
  1

  0
SOLID
  5
158
330
155
100
AcDbEntity
  8
EBENE_1
 62
     0
100
AcDbTrace
 10
16.3971707594
 20
5.1887726877
 30
0.0
 11
15.9230196175
 21
2.1067902658
 31
0.0
 12
16.8713219012
 22
2.1067902658
 32
0.0
 13
16.8713219012
 23
2.1067902658
 33
0.0
  0
LINE
  5
159
330
155
100
AcDbEntity
  8
EBENE_1
 62
     0
100
AcDbLine
 10
3.2925925916
 20
9.671990294
 30
0.0
 11
2.2342592711
 21
9.671990294
 31
0.0
  0
LINE
  5
15A
330
155
100
AcDbEntity
  8
EBENE_1
 62
     0
100
AcDbLine
 10
2.2342592711
 20
9.671990294
 30
0.0
 11
2.2342592711
 21
4.9388883635
 31
0.0
  0
LINE
  5
15B
330
155
100
AcDbEntity
  8
EBENE_1
 62
     0
100
AcDbLine
 10
2.2342592711
 20
4.9388883635
 30
0.0
 11
3.2925925916
 21
4.9388883635
 31
0.0
  0
LINE
  5
15C
330
155
100
AcDbEntity
  8
EBENE_1
 62
     0
100
AcDbLine
 10
11.5240741288
 20
9.671990294
 30
0.0
 11
12.5824074494
 21
9.671990294
 31
0.0
  0
LINE
  5
15D
330
155
100
AcDbEntity
  8
EBENE_1
 62
     0
100
AcDbLine
 10
12.5824074494
 20
9.671990294
 30
0.0
 11
12.5824074494
 21
4.9388883635
 31
0.0
  0
LINE
  5
15E
330
155
100
AcDbEntity
  8
EBENE_1
 62
     0
100
AcDbLine
 10
12.5824074494
 20
4.9388883635
 30
0.0
 11
11.5240741288
 21
4.9388883635
 31
0.0
  0
LINE
  5
15F
330
155
100
AcDbEntity
  8
EBENE_1
 62
     0
100
AcDbLine
 10
23.60463321
 20
5.1887726877
 30
0.0
 11
14.8166669533
 21
5.1887726877
 31
0.0
  0
LINE
  5
160
330
155
100
AcDbEntity
  8
EBENE_1
 62
     0
100
AcDbLine
 10
16.3971707594
 20
-20.2112273123
 30
0.0
 11
16.3971707594
 21
5.1887726877
 31
0.0
  0
MTEXT
  5
161
330
155
100
AcDbEntity
  8
EBENE_1
 62
     0
100
AcDbMText
 10
1.190625
 20
4.0927900738
 30
0.0
 40
3.175
 41
0.0
 71
     1
 72
     1
  1

  7
SLDTEXTSTYLE0
 73
     1
 44
1.0
  0
MTEXT
  5
162
330
155
100
AcDbEntity
  8
EBENE_1
 62
     0
100
AcDbMText
 10
3.2925925916
 20
9.0316784373
 30
0.0
 40
3.175
 41
0.0
 71
     1
 72
     1
  1
5,00
  7
SLDTEXTSTYLE0
 73
     1
 44
1.0
  0
MTEXT
  5
163
330
155
100
AcDbEntity
  8
EBENE_1
 62
     0
100
AcDbMText
 10
3.8805556251
 20
4.0927898409
 30
0.0
 40
3.175
 41
0.0
 71
     1
 72
     1
  1
127
  7
SLDTEXTSTYLE0
 73
     1
 44
1.0
  0
MTEXT
  5
164
330
155
100
AcDbEntity
  8
EBENE_1
 62
     0
100
AcDbMText
 10
14.8313658863
 20
4.0927900738
 30
0.0
 40
3.175
 41
0.0
 71
     1
 72
     1
  1

  7
SLDTEXTSTYLE0
 73
     1
 44
1.0
  0
ENDBLK
  5
157
330
155
100
AcDbEntity
  8
0
100
AcDbBlockEnd
  0
BLOCK
  5
167
330
166
100
AcDbEntity
  8
0
100
AcDbBlockBegin
  2
SW_NOTE_0
 70
     0
 10
0.0
 20
0.0
 30
0.0
  3
SW_NOTE_0
  1

  0
MTEXT
  5
169
330
166
100
AcDbEntity
  8
EBENE_1
 62
     0
100
AcDbMText
 10
6.7138020833
 20
4.7749217527
 30
0.0
 40
3.7041666667
 41
0.0
 71
     2
 72
     1
  1
(Inch)
  7
SLDTEXTSTYLE0
 73
     1
 44
1.0
  0
MTEXT
  5
16A
330
166
100
AcDbEntity
  8
EBENE_1
 62
     0
100
AcDbMText
 10
6.7309508326
 20
-1.1639672404
 30
0.0
 40
3.7041666667
 41
0.0
 71
     2
 72
     1
  1
mm
  7
SLDTEXTSTYLE0
 73
     1
 44
1.0
  0
ENDBLK
  5
168
330
166
100
AcDbEntity
  8
0
100
AcDbBlockEnd
  0
BLOCK
  5
172
330
171
100
AcDbEntity
  8
0
100
AcDbBlockBegin
  2
SW_NOTE_1
 70
     0
 10
0.0
 20
0.0
 30
0.0
  3
SW_NOTE_1
  1

  0
MTEXT
  5
174
330
171
100
AcDbEntity
  8
0
  6
Continuous
 62
     0
370
     0
100
AcDbMText
 10
19.893359375
 20
4.0927900738
 30
0.0
 40
3.175
 41
0.0
 71
     2
 72
     1
  1
ABP-Beyerle GmbH
  7
SLDTEXTSTYLE0
 73
     1
 44
1.0
  0
MTEXT
  5
175
330
171
100
AcDbEntity
  8
0
  6
Continuous
 62
     0
370
     0
100
AcDbMText
 10
20.6558884293
 20
-0.1405432084
 30
0.0
 40
3.175
 41
0.0
 71
     2
 72
     1
  1
Im Schollengarten 24b, 76646 Bruchsal
  7
SLDTEXTSTYLE0
 73
     1
 44
1.0
  0
MTEXT
  5
176
330
171
100
AcDbEntity
  8
0
  6
Continuous
 62
     0
370
     0
100
AcDbMText
 10
20.7863491923
 20
-4.3738764906
 30
0.0
 40
3.175
 41
0.0
 71
     2
 72
     1
  1
Tel. +49 (0)7251-9127-0, Fax. +49 (0)7251-9127-29
  7
SLDTEXTSTYLE0
 73
     1
 44
1.0
  0
MTEXT
  5
177
330
171
100
AcDbEntity
  8
0
  6
Continuous
 62
     0
370
     0
100
AcDbMText
 10
20.8392552227
 20
-8.6072097727
 30
0.0
 40
3.175
 41
0.0
 71
     2
 72
     1
  1
info@abp-beyerle.de, www.abp-beyerle.de
  7
SLDTEXTSTYLE0
 73
     1
 44
1.0
  0
ENDBLK
  5
173
330
171
100
AcDbEntity
  8
0
100
AcDbBlockEnd
  0
ENDSEC
  0
SECTION
  2
ENTITIES
  0
INSERT
  5
16D
330
1F
100
AcDbEntity
  8
EBENE_1
100
AcDbBlockReference
  2
Block1
 10
19.561342692
 20
-6.9223244521
 30
0.0
  0
MTEXT
  5
16F
330
1F
100
AcDbEntity
  8
0
  6
Continuous
 62
     7
370
     0
100
AcDbMText
 10
402.5
 20
14.7189135832
 30
0.0
 40
6.35
 41
0.0
 71
     1
 72
     1
  1
1:1
  7
SLDTEXTSTYLE1
 73
     1
 44
1.0
  0
MTEXT
  5
170
330
1F
100
AcDbEntity
  8
0
  6
Continuous
 62
     7
370
     0
100
AcDbMText
 10
168.4090458961
 20
14.7189131175
 30
0.0
 40
6.35
 41
0.0
 71
     1
 72
     1
  1
USU35DS-2300EF
  7
SLDTEXTSTYLE1
 73
     1
 44
1.0
  0
INSERT
  5
178
330
1F
100
AcDbEntity
  8
0
  6
Continuous
 62
     7
370
     0
100
AcDbBlockReference
  2
SW_NOTE_1
 10
35.4202146835
 20
20.1681939512
 30
0.0
  0
LINE
  5
179
330
1F
100
AcDbEntity
  8
0
  6
Continuous
 62
     7
370
    15
100
AcDbLine
 10
1634.6561140194
 20
2137.6611812457
 30
0.0
 11
1635.6562799587
 21
2138.6611814096
 31
0.0
  0
LINE
  5
17A
330
1F
100
AcDbEntity
  8
0
  6
Continuous
 62
     7
370
    15
100
AcDbLine
 10
1635.6562799587
 20
2161.6611814543
 30
0.0
 11
1634.6561140194
 21
2162.6611816182
 31
0.0
  0
LINE
  5
17B
330
1F
100
AcDbEntity
  8
0
  6
Continuous
 62
     7
370
    15
100
AcDbLine
 10
-663.3437895403
 20
2162.6611816182
 30
0.0
 11
-664.3437915668
 21
2161.6611814543
 31
0.0
  0
LINE
  5
17C
330
1F
100
AcDbEntity
  8
0
  6
Continuous
 62
     7
370
    15
100
AcDbLine
 10
-664.3437915668
 20
2138.6611814096
 30
0.0
 11
-663.3437895403
 21
2137.6611812457
 31
0.0
  0
LINE
  5
17D
330
1F
100
AcDbEntity
  8
0
  6
Continuous
 62
     7
370
    15
100
AcDbLine
 10
-663.3437895403
 20
2137.6611812457
 30
0.0
 11
-628.0872174725
 21
2137.6611812457
 31
0.0
  0
LINE
  5
17E
330
1F
100
AcDbEntity
  8
0
  6
Continuous
 62
     7
370
    15
100
AcDbLine
 10
-580.6003757939
 20
2137.6611812457
 30
0.0
 11
-510.2520515398
 21
2137.6611812457
 31
0.0
  0
LINE
  5
17F
330
1F
100
AcDbEntity
  8
0
  6
Continuous
 62
     7
370
    15
100
AcDbLine
 10
-488.2520497963
 20
2137.6611812457
 30
0.0
 11
189.7479719296
 21
2137.6611812457
 31
0.0
  0
LINE
  5
180
330
1F
100
AcDbEntity
  8
0
  6
Continuous
 62
     7
370
    15
100
AcDbLine
 10
211.7479271069
 20
2137.6611812457
 30
0.0
 11
1561.9126981869
 21
2137.6611812457
 31
0.0
  0
LINE
  5
181
330
1F
100
AcDbEntity
  8
0
  6
Continuous
 62
     7
370
    15
100
AcDbLine
 10
1609.3997186794
 20
2137.6611812457
 30
0.0
 11
1634.6561140194
 21
2137.6611812457
 31
0.0
  0
LINE
  5
182
330
1F
100
AcDbEntity
  8
0
  6
Continuous
 62
     7
370
    15
100
AcDbLine
 10
1634.6561140194
 20
2162.6611816182
 30
0.0
 11
1596.3215059414
 21
2162.6611816182
 31
0.0
  0
LINE
  5
183
330
1F
100
AcDbEntity
  8
0
  6
Continuous
 62
     7
370
    15
100
AcDbLine
 10
1574.9909109249
 20
2162.6611816182
 30
0.0
 11
213.5931676998
 21
2162.6611816182
 31
0.0
  0
LINE
  5
184
330
1F
100
AcDbEntity
  8
0
  6
Continuous
 62
     7
370
    15
100
AcDbLine
 10
187.9027313366
 20
2162.6611816182
 30
0.0
 11
-486.406816654
 21
2162.6611816182
 31
0.0
  0
LINE
  5
185
330
1F
100
AcDbEntity
  8
0
  6
Continuous
 62
     7
370
    15
100
AcDbLine
 10
-512.0972828195
 20
2162.6611816182
 30
0.0
 11
-593.6784320698
 21
2162.6611816182
 31
0.0
  0
LINE
  5
186
330
1F
100
AcDbEntity
  8
0
  6
Continuous
 62
     7
370
    15
100
AcDbLine
 10
-615.0091611967
 20
2162.6611816182
 30
0.0
 11
-663.3437895403
 21
2162.6611816182
 31
0.0
  0
LINE
  5
187
330
1F
100
AcDbEntity
  8
0
  6
Continuous
 62
     7
370
    15
100
AcDbLine
 10
1529.1561311855
 20
2123.761181575
 30
0.0
 11
1531.1562246456
 21
2123.761181575
 31
0.0
  0
LINE
  5
188
330
1F
100
AcDbEntity
  8
0
  6
Continuous
 62
     7
370
    15
100
AcDbLine
 10
1531.1562246456
 20
2133.7611813515
 30
0.0
 11
1529.1561311855
 21
2133.7611813515
 31
0.0
  0
LINE
  5
189
330
1F
100
AcDbEntity
  8
0
  6
Continuous
 62
     7
370
    15
100
AcDbLine
 10
-547.8437966854
 20
2133.7611813515
 30
0.0
 11
-549.8437960819
 21
2133.7611813515
 31
0.0
  0
LINE
  5
18A
330
1F
100
AcDbEntity
  8
0
  6
Continuous
 62
     7
370
    15
100
AcDbLine
 10
-549.8437960819
 20
2123.761181575
 30
0.0
 11
-547.8437966854
 21
2123.761181575
 31
0.0
  0
ARC
  5
18B
330
1F
100
AcDbEntity
  8
0
  6
Continuous
 62
     7
370
    15
100
AcDbCircle
 10
1560.9562036648
 20
2121.566181432
 30
0.0
 40
0.3000000000001819
100
AcDbArc
 50
180.0
 51
270.0
  0
ARC
  5
18C
330
1F
100
AcDbEntity
  8
0
  6
Continuous
 62
     7
370
    15
100
AcDbCircle
 10
1560.9562036648
 20
2135.956181432
 30
0.0
 40
0.3000000000001819
100
AcDbArc
 50
90.0
 51
180.0
  0
LINE
  5
18D
330
1F
100
AcDbEntity
  8
0
  6
Continuous
 62
     7
370
    15
100
AcDbLine
 10
1562.1627992764
 20
2136.2561814904
 30
0.0
 11
1560.9561628475
 21
2136.2561814904
 31
0.0
  0
LINE
  5
18E
330
1F
100
AcDbEntity
  8
0
  6
Continuous
 62
     7
370
    15
100
AcDbLine
 10
1560.9561628475
 20
2121.2661814361
 30
0.0
 11
1572.2326463833
 21
2121.2661814361
 31
0.0
  0
ARC
  5
18F
330
1F
100
AcDbEntity
  8
0
  6
Continuous
 62
     7
370
    15
100
AcDbCircle
 10
-579.6437963352
 20
2135.956181432
 30
0.0
 40
0.3000000000001819
100
AcDbArc
 50
0.0
 51
90.0
  0
ARC
  5
190
330
1F
100
AcDbEntity
  8
0
  6
Continuous
 62
     7
370
    15
100
AcDbCircle
 10
-579.6437963352
 20
2121.566181432
 30
0.0
 40
0.3000000000001819
100
AcDbArc
 50
270.0
 51
0.0
  0
LINE
  5
191
330
1F
100
AcDbEntity
  8
0
  6
Continuous
 62
     7
370
    15
100
AcDbLine
 10
-590.9203463421
 20
2121.2661814361
 30
0.0
 11
-579.6437957511
 21
2121.2661814361
 31
0.0
  0
LINE
  5
192
330
1F
100
AcDbEntity
  8
0
  6
Continuous
 62
     7
370
    15
100
AcDbLine
 10
-579.6437957511
 20
2136.2561814904
 30
0.0
 11
-580.8503725753
 21
2136.2561814904
 31
0.0
  0
ARC
  5
193
330
1F
100
AcDbEntity
  8
0
  6
Continuous
 62
     7
370
    15
100
AcDbCircle
 10
1531.4562036648
 20
2123.111181432
 30
0.0
 40
0.3000000000001819
100
AcDbArc
 50
180.0
 51
270.0
  0
ARC
  5
194
330
1F
100
AcDbEntity
  8
0
  6
Continuous
 62
     7
370
    15
100
AcDbCircle
 10
1531.4562036648
 20
2134.411181432
 30
0.0
 40
0.2999999999997272
100
AcDbArc
 50
90.0
 51
180.0
  0
LINE
  5
195
330
1F
100
AcDbEntity
  8
0
  6
Continuous
 62
     7
370
    15
100
AcDbLine
 10
1560.656232275
 20
2134.7111816003
 30
0.0
 11
1531.4561552181
 21
2134.7111816003
 31
0.0
  0
LINE
  5
196
330
1F
100
AcDbEntity
  8
0
  6
Continuous
 62
     7
370
    15
100
AcDbLine
 10
1531.4561552181
 20
2122.8111822575
 30
0.0
 11
1560.656232275
 21
2122.8111822575
 31
0.0
  0
LINE
  5
197
330
1F
100
AcDbEntity
  8
0
  6
Continuous
 62
     7
370
    15
100
AcDbLine
 10
-579.3437981234
 20
2122.8111822575
 30
0.0
 11
-550.1437955723
 21
2122.8111822575
 31
0.0
  0
LINE
  5
198
330
1F
100
AcDbEntity
  8
0
  6
Continuous
 62
     7
370
    15
100
AcDbLine
 10
-550.1437955723
 20
2134.7111816003
 30
0.0
 11
-579.3437981234
 21
2134.7111816003
 31
0.0
  0
ARC
  5
199
330
1F
100
AcDbEntity
  8
0
  6
Continuous
 62
     7
370
    15
100
AcDbCircle
 10
-550.1437963352
 20
2134.411181432
 30
0.0
 40
0.3000000000000682
100
AcDbArc
 50
0.0
 51
90.0
  0
ARC
  5
19A
330
1F
100
AcDbEntity
  8
0
  6
Continuous
 62
     7
370
    15
100
AcDbCircle
 10
-550.1437963352
 20
2123.111181432
 30
0.0
 40
0.3000000000001819
100
AcDbArc
 50
270.0
 51
0.0
  0
LINE
  5
19B
330
1F
100
AcDbEntity
  8
0
  6
Continuous
 62
     7
370
    15
100
AcDbLine
 10
1524.5813554897
 20
2133.8417910456
 30
0.0
 11
1529.1561311855
 21
2133.4986806333
 31
0.0
  0
LINE
  5
19C
330
1F
100
AcDbEntity
  8
0
  6
Continuous
 62
     7
370
    15
100
AcDbLine
 10
1523.672027029
 20
2137.6611812457
 30
0.0
 11
1523.6562914028
 21
2137.4833731397
 31
0.0
  0
ARC
  5
19D
330
1F
100
AcDbEntity
  8
0
  6
Continuous
 62
     7
370
    15
100
AcDbCircle
 10
1524.6562036648
 20
2134.838989988
 30
0.0
 40
1.0
100
AcDbArc
 50
180.0
 51
265.7108466712
  0
LINE
  5
19E
330
1F
100
AcDbEntity
  8
0
  6
Continuous
 62
     7
370
    15
100
AcDbLine
 10
-547.8437966854
 20
2133.4986806333
 30
0.0
 11
-543.2690060884
 21
2133.8417910456
 31
0.0
  0
ARC
  5
19F
330
1F
100
AcDbEntity
  8
0
  6
Continuous
 62
     7
370
    15
100
AcDbCircle
 10
-543.3437963352
 20
2134.838989988
 30
0.0
 40
1.0
100
AcDbArc
 50
274.2891533288
 51
0.0
  0
LINE
  5
1A0
330
1F
100
AcDbEntity
  8
0
  6
Continuous
 62
     7
370
    15
100
AcDbLine
 10
-542.3437967152
 20
2137.4833731397
 30
0.0
 11
-542.3597316444
 21
2137.6611812457
 31
0.0
  0
ARC
  5
1A1
330
1F
100
AcDbEntity
  8
0
  6
Continuous
 62
     7
370
    15
100
AcDbCircle
 10
233.6302495595
 20
62.161181432
 30
0.0
 40
1.500000000000057
100
AcDbArc
 50
181.0
 51
270.0
  0
ARC
  5
1A2
330
1F
100
AcDbEntity
  8
0
  6
Continuous
 62
     7
370
    15
100
AcDbCircle
 10
202.6821577701
 20
62.161181432
 30
0.0
 40
1.500000000000057
100
AcDbArc
 50
270.0
 51
359.0
  0
LINE
  5
1A3
330
1F
100
AcDbEntity
  8
0
  6
Continuous
 62
     7
370
    15
100
AcDbLine
 10
232.1304506435
 20
62.1348962604
 30
0.0
 11
232.0864028111
 21
64.6611795246
 31
0.0
  0
LINE
  5
1A4
330
1F
100
AcDbEntity
  8
0
  6
Continuous
 62
     7
370
    15
100
AcDbLine
 10
204.2259997501
 20
64.6611795246
 30
0.0
 11
204.1819519177
 21
62.1348962604
 31
0.0
  0
LINE
  5
1A5
330
1F
100
AcDbEntity
  8
0
  6
Continuous
 62
     7
370
    15
100
AcDbLine
 10
-510.2520515398
 20
2173.1692485928
 30
0.0
 11
-510.2520515398
 21
1976.6611800014
 31
0.0
  0
LINE
  5
1A6
330
1F
100
AcDbEntity
  8
0
  6
Continuous
 62
     7
370
    15
100
AcDbLine
 10
-510.2520515398
 20
2210.6611811041
 30
0.0
 11
-510.2520515398
 21
2204.1531138539
 31
0.0
  0
LINE
  5
1A7
330
1F
100
AcDbEntity
  8
0
  6
Continuous
 62
     7
370
    15
100
AcDbLine
 10
-488.2520497963
 20
2204.1531138539
 30
0.0
 11
-488.2520497963
 21
2210.6611811041
 31
0.0
  0
LINE
  5
1A8
330
1F
100
AcDbEntity
  8
0
  6
Continuous
 62
     7
370
    15
100
AcDbLine
 10
-488.2520497963
 20
2131.1066810458
 30
0.0
 11
-488.2520497963
 21
2173.1692485928
 31
0.0
  0
LINE
  5
1A9
330
1F
100
AcDbEntity
  8
0
  6
Continuous
 62
     7
370
    15
100
AcDbLine
 10
-488.2520497963
 20
1976.6611800014
 30
0.0
 11
-488.2520497963
 21
2126.2156822204
 31
0.0
  0
LINE
  5
1AA
330
1F
100
AcDbEntity
  8
0
  6
Continuous
 62
     7
370
    15
100
AcDbLine
 10
-488.2520497963
 20
2210.6611811041
 30
0.0
 11
-490.2520501242
 21
2212.661181432
 31
0.0
  0
LINE
  5
1AB
330
1F
100
AcDbEntity
  8
0
  6
Continuous
 62
     7
370
    15
100
AcDbLine
 10
-508.2520512119
 20
2212.661181432
 30
0.0
 11
-510.2520515398
 21
2210.6611811041
 31
0.0
  0
LINE
  5
1AC
330
1F
100
AcDbEntity
  8
0
  6
Continuous
 62
     7
370
    15
100
AcDbLine
 10
-510.2520515398
 20
1976.6611800014
 30
0.0
 11
-508.2520512119
 21
1974.6611759483
 31
0.0
  0
LINE
  5
1AD
330
1F
100
AcDbEntity
  8
0
  6
Continuous
 62
     7
370
    15
100
AcDbLine
 10
-490.2520501242
 20
1974.6611759483
 30
0.0
 11
-488.2520497963
 21
1976.6611800014
 31
0.0
  0
LINE
  5
1AE
330
1F
100
AcDbEntity
  8
0
  6
Continuous
 62
     7
370
    15
100
AcDbLine
 10
189.7479719296
 20
2173.1692485928
 30
0.0
 11
189.7479719296
 21
1976.6611800014
 31
0.0
  0
LINE
  5
1AF
330
1F
100
AcDbEntity
  8
0
  6
Continuous
 62
     7
370
    15
100
AcDbLine
 10
189.7479719296
 20
2210.6611811041
 30
0.0
 11
189.7479719296
 21
2204.1531138539
 31
0.0
  0
LINE
  5
1B0
330
1F
100
AcDbEntity
  8
0
  6
Continuous
 62
     7
370
    15
100
AcDbLine
 10
211.7479271069
 20
2204.1531138539
 30
0.0
 11
211.7479271069
 21
2210.6611811041
 31
0.0
  0
LINE
  5
1B1
330
1F
100
AcDbEntity
  8
0
  6
Continuous
 62
     7
370
    15
100
AcDbLine
 10
211.7479271069
 20
2131.1066810458
 30
0.0
 11
211.7479271069
 21
2173.1692485928
 31
0.0
  0
LINE
  5
1B2
330
1F
100
AcDbEntity
  8
0
  6
Continuous
 62
     7
370
    15
100
AcDbLine
 10
211.7479271069
 20
1976.6611800014
 30
0.0
 11
211.7479271069
 21
2126.2156822204
 31
0.0
  0
LINE
  5
1B3
330
1F
100
AcDbEntity
  8
0
  6
Continuous
 62
     7
370
    15
100
AcDbLine
 10
189.7479719296
 20
1976.6611800014
 30
0.0
 11
191.7479461803
 21
1974.6611759483
 31
0.0
  0
LINE
  5
1B4
330
1F
100
AcDbEntity
  8
0
  6
Continuous
 62
     7
370
    15
100
AcDbLine
 10
209.7479528561
 20
1974.6611759483
 30
0.0
 11
211.7479271069
 21
1976.6611800014
 31
0.0
  0
LINE
  5
1B5
330
1F
100
AcDbEntity
  8
0
  6
Continuous
 62
     7
370
    15
100
AcDbLine
 10
211.7479271069
 20
2210.6611811041
 30
0.0
 11
209.7479528561
 21
2212.661181432
 31
0.0
  0
LINE
  5
1B6
330
1F
100
AcDbEntity
  8
0
  6
Continuous
 62
     7
370
    15
100
AcDbLine
 10
191.7479461803
 20
2212.661181432
 30
0.0
 11
189.7479719296
 21
2210.6611811041
 31
0.0
  0
LINE
  5
1B7
330
1F
100
AcDbEntity
  8
0
  6
Continuous
 62
     7
370
    15
100
AcDbLine
 10
182.0342964306
 20
2191.9475578188
 30
0.0
 11
181.7479557171
 21
2191.6611798524
 31
0.0
  0
LINE
  5
1B8
330
1F
100
AcDbEntity
  8
0
  6
Continuous
 62
     7
370
    15
100
AcDbLine
 10
181.7479557171
 20
2185.6611825942
 30
0.0
 11
182.0342964306
 21
2185.3748046278
 31
0.0
  0
LINE
  5
1B9
330
1F
100
AcDbEntity
  8
0
  6
Continuous
 62
     7
370
    15
100
AcDbLine
 10
-517.9656748847
 20
2191.9475578188
 30
0.0
 11
-518.2520509884
 21
2191.6611798524
 31
0.0
  0
LINE
  5
1BA
330
1F
100
AcDbEntity
  8
0
  6
Continuous
 62
     7
370
    15
100
AcDbLine
 10
-518.2520509884
 20
2185.6611825942
 30
0.0
 11
-517.9656748847
 21
2185.3748046278
 31
0.0
  0
LINE
  5
1BB
330
1F
100
AcDbEntity
  8
0
  6
Continuous
 62
     7
370
    15
100
AcDbLine
 10
219.4616026058
 20
2185.3748046278
 30
0.0
 11
219.7479433193
 21
2185.6611825942
 31
0.0
  0
LINE
  5
1BC
330
1F
100
AcDbEntity
  8
0
  6
Continuous
 62
     7
370
    15
100
AcDbLine
 10
219.7479433193
 20
2191.6611798524
 30
0.0
 11
219.4616026058
 21
2191.9475578188
 31
0.0
  0
LINE
  5
1BD
330
1F
100
AcDbEntity
  8
0
  6
Continuous
 62
     7
370
    15
100
AcDbLine
 10
-480.5384264514
 20
2185.3748046278
 30
0.0
 11
-480.2520522103
 21
2185.6611825942
 31
0.0
  0
LINE
  5
1BE
330
1F
100
AcDbEntity
  8
0
  6
Continuous
 62
     7
370
    15
100
AcDbLine
 10
-480.2520522103
 20
2191.6611798524
 30
0.0
 11
-480.5384264514
 21
2191.9475578188
 31
0.0
  0
LINE
  5
1BF
330
1F
100
AcDbEntity
  8
0
  6
Continuous
 62
     7
370
    15
100
AcDbLine
 10
1635.6562799587
 20
2161.6611814543
 30
0.0
 11
1635.6562799587
 21
2138.6611814096
 31
0.0
  0
LINE
  5
1C0
330
1F
100
AcDbEntity
  8
0
  6
Continuous
 62
     7
370
    15
100
AcDbLine
 10
1634.6561140194
 20
2137.6611812457
 30
0.0
 11
1634.6561140194
 21
2162.6611816182
 31
0.0
  0
LINE
  5
1C1
330
1F
100
AcDbEntity
  8
0
  6
Continuous
 62
     7
370
    15
100
AcDbLine
 10
-663.3437895403
 20
2162.6611816182
 30
0.0
 11
-663.3437895403
 21
2137.6611812457
 31
0.0
  0
LINE
  5
1C2
330
1F
100
AcDbEntity
  8
0
  6
Continuous
 62
     7
370
    15
100
AcDbLine
 10
-664.3437915668
 20
2138.6611814096
 30
0.0
 11
-664.3437915668
 21
2161.6611814543
 31
0.0
  0
SPLINE
  5
1C3
330
1F
100
AcDbEntity
  8
0
  6
Continuous
 62
     7
370
    15
100
AcDbSpline
210
0.0
220
0.0
230
1.0
 70
    11
 71
     3
 72
    28
 73
    24
 74
     0
 42
0.000000001
 43
0.00000001
 40
0.0
 40
0.0
 40
0.0
 40
0.0
 40
0.0475550616334657
 40
0.0949665064150149
 40
0.1460706110104961
 40
0.2034569389711761
 40
0.2467858636442248
 40
0.2901870407614294
 40
0.333033759107237
 40
0.3834843124346399
 40
0.4410927275671422
 40
0.4950490947365996
 40
0.541590983793559
 40
0.5869406162545009
 40
0.6370256638843574
 40
0.6937096468581607
 40
0.7381341227074256
 40
0.7826953867213738
 40
0.8249695162301254
 40
0.873730916795073
 40
0.9306923582969776
 40
0.9860187653198839
 40
1.0
 40
1.0
 40
1.0
 40
1.0
 10
833.2062191143085
 20
2150.161181431952
 30
0.0
 10
833.1362616233477
 20
2149.388383883808
 30
0.0
 10
832.9965579138801
 20
2147.84512264531
 30
0.0
 10
831.9236131686953
 20
2145.759396893133
 30
0.0
 10
830.2691742213607
 20
2144.008182656201
 30
0.0
 10
828.1411584464931
 20
2142.894539441964
 30
0.0
 10
825.8156860567319
 20
2142.512098928796
 30
0.0
 10
823.7009237262716
 20
2142.769938320113
 30
0.0
 10
821.7057913211715
 20
2143.605837934168
 30
0.0
 10
819.8896700703336
 20
2145.077008843523
 30
0.0
 10
818.5193036924511
 20
2147.246763395086
 30
0.0
 10
817.9790038065626
 20
2149.796444221241
 30
0.0
 10
818.2678478133124
 20
2152.180403639674
 30
0.0
 10
819.1832436040842
 20
2154.258089278017
 30
0.0
 10
820.7239296455537
 20
2156.052783446589
 30
0.0
 10
822.7582473418672
 20
2157.271505690832
 30
0.0
 10
825.0669932965645
 20
2157.79430570499
 30
0.0
 10
827.2305804435643
 20
2157.645505614474
 30
0.0
 10
829.2606928876055
 20
2156.908434291586
 30
0.0
 10
831.1198622987289
 20
2155.560747529714
 30
0.0
 10
832.5955834217572
 20
2153.509107620631
 30
0.0
 10
833.1684935595171
 20
2151.508370600913
 30
0.0
 10
833.1998863378575
 20
2150.387326491745
 30
0.0
 10
833.2062191143083
 20
2150.161181431952
 30
0.0
  0
SPLINE
  5
1C4
330
1F
100
AcDbEntity
  8
0
  6
Continuous
 62
     7
370
    15
100
AcDbSpline
210
0.0
220
0.0
230
1.0
 70
    11
 71
     3
 72
    28
 73
    24
 74
     0
 42
0.000000001
 43
0.00000001
 40
0.0
 40
0.0
 40
0.0
 40
0.0
 40
0.0475550225951808
 40
0.0949653817792759
 40
0.1460710516114018
 40
0.2034552336630057
 40
0.2467865320098711
 40
0.2901876734987438
 40
0.3330321561208606
 40
0.3834844814528781
 40
0.4410928492942269
 40
0.4950491721705226
 40
0.5415913118624102
 40
0.5869399509707315
 40
0.6370249574854199
 40
0.6937088939269425
 40
0.7381357032445435
 40
0.7826969306778363
 40
0.8249710254834572
 40
0.873732386019828
 40
0.9306924151921085
 40
0.9860187767971778
 40
0.9999999999999999
 40
0.9999999999999999
 40
0.9999999999999999
 40
0.9999999999999999
 10
1513.206166662221
 20
2150.161181431952
 30
0.0
 10
1513.136196873074
 20
2149.388390237406
 30
0.0
 10
1512.996470144398
 20
2147.845158695904
 30
0.0
 10
1511.923719271396
 20
2145.759324364798
 30
0.0
 10
1510.269114756467
 20
2144.008263001066
 30
0.0
 10
1508.141175872786
 20
2142.894488145491
 30
0.0
 10
1505.815670275219
 20
2142.512114953555
 30
0.0
 10
1503.700894296536
 20
2142.76990838353
 30
0.0
 10
1501.705831682619
 20
2143.605903528063
 30
0.0
 10
1499.889604483744
 20
2145.076959748252
 30
0.0
 10
1498.519276456768
 20
2147.246766883152
 30
0.0
 10
1497.97888751888
 20
2149.796458052384
 30
0.0
 10
1498.26798844477
 20
2152.18036437354
 30
0.0
 10
1499.183146340026
 20
2154.25811996546
 30
0.0
 10
1500.723895259525
 20
2156.052775314844
 30
0.0
 10
1502.758220961883
 20
2157.271533932791
 30
0.0
 10
1505.06702517778
 20
2157.794295512784
 30
0.0
 10
1507.230647597586
 20
2157.645509791245
 30
0.0
 10
1509.260754163698
 20
2156.908429558088
 30
0.0
 10
1511.119939206541
 20
2155.560777978136
 30
0.0
 10
1512.59550804234
 20
2153.509067808349
 30
0.0
 10
1513.168442561438
 20
2151.508371508309
 30
0.0
 10
1513.199834129846
 20
2150.387326644065
 30
0.0
 10
1513.206166662221
 20
2150.161181431952
 30
0.0
  0
SPLINE
  5
1C5
330
1F
100
AcDbEntity
  8
0
  6
Continuous
 62
     7
370
    15
100
AcDbSpline
210
0.0
220
0.0
230
1.0
 70
    11
 71
     3
 72
    28
 73
    24
 74
     0
 42
0.000000001
 43
0.00000001
 40
0.0
 40
0.0
 40
0.0
 40
0.0
 40
0.0475551017581347
 40
0.0949664478301078
 40
0.1460694109748495
 40
0.2034572620135004
 40
0.2467854039304237
 40
0.2901854595561331
 40
0.3330337828653832
 40
0.3834830941484214
 40
0.4410924202715021
 40
0.4950486988046565
 40
0.5415905724712554
 40
0.5869408337005552
 40
0.6370247232952839
 40
0.6937086281078213
 40
0.7381340333147005
 40
0.7826955103207563
 40
0.8249696366383904
 40
0.8737310939239666
 40
0.9306923259971266
 40
0.9860188322291003
 40
1.0
 40
1.0
 40
1.0
 40
1.0
 10
-526.793796122129
 20
2150.161181431952
 30
0.0
 10
-526.8637642926058
 20
2149.388383351773
 30
0.0
 10
-527.0034891247624
 20
2147.845123304977
 30
0.0
 10
-528.0764277013425
 20
2145.75942418326
 30
0.0
 10
-529.7307875214149
 20
2144.008129810881
 30
0.0
 10
-531.8588615198195
 20
2142.894568072806
 30
0.0
 10
-534.1843174226406
 20
2142.51208857395
 30
0.0
 10
-536.2990638209965
 20
2142.769967183779
 30
0.0
 10
-538.2942390362329
 20
2143.605788694205
 30
0.0
 10
-540.1102776697345
 20
2145.077064741885
 30
0.0
 10
-541.4807828069594
 20
2147.246730609837
 30
0.0
 10
-542.0210330803702
 20
2149.796445957576
 30
0.0
 10
-541.7322160651233
 20
2152.180425992525
 30
0.0
 10
-540.8166790132016
 20
2154.258041791692
 30
0.0
 10
-539.276129779406
 20
2156.052812920565
 30
0.0
 10
-537.2417751803074
 20
2157.271512520424
 30
0.0
 10
-534.9330124451494
 20
2157.794303057177
 30
0.0
 10
-532.7694028722918
 20
2157.645508052838
 30
0.0
 10
-530.7392883499671
 20
2156.908432372139
 30
0.0
 10
-528.8800996639525
 20
2155.560754419678
 30
0.0
 10
-527.4044440888347
 20
2153.509096388292
 30
0.0
 10
-526.831392405721
 20
2151.508377669999
 30
0.0
 10
-526.8001071709715
 20
2150.387326690109
 30
0.0
 10
-526.793796122129
 20
2150.161181431952
 30
0.0
  0
SPLINE
  5
1C6
330
1F
100
AcDbEntity
  8
0
  6
Continuous
 62
     7
370
    15
100
AcDbSpline
210
0.0
220
0.0
230
1.0
 70
    11
 71
     3
 72
    28
 73
    24
 74
     0
 42
0.000000001
 43
0.00000001
 40
0.0
 40
0.0
 40
0.0
 40
0.0
 40
0.0475551847882845
 40
0.0949660433736552
 40
0.1460692766611053
 40
0.2034576273825592
 40
0.2467852900033758
 40
0.2901851945322929
 40
0.3330340566610995
 40
0.3834827297507425
 40
0.4410923179447156
 40
0.4950486135938513
 40
0.5415904409585389
 40
0.5869409695447956
 40
0.637024431346512
 40
0.6937083391844805
 40
0.7381339411147251
 40
0.7826951460617625
 40
0.8249692195352489
 40
0.8737315024265189
 40
0.9306921856312164
 40
0.9860188390508998
 40
1.0
 40
1.0
 40
1.0
 40
1.0
 10
153.2062119617509
 20
2150.161181431952
 30
0.0
 10
153.1362254739204
 20
2149.388386039375
 30
0.0
 10
152.9964649016825
 20
2147.845140626762
 30
0.0
 10
151.9236180569578
 20
2145.75940413428
 30
0.0
 10
150.2692093360871
 20
2144.008129660119
 30
0.0
 10
148.1411321312277
 20
2142.894576752965
 30
0.0
 10
145.81567782937
 20
2142.512085312929
 30
0.0
 10
143.7009375018812
 20
2142.769975901942
 30
0.0
 10
141.7057451906296
 20
2143.605768870536
 30
0.0
 10
139.8897470698369
 20
2145.077087618226
 30
0.0
 10
138.5192016454272
 20
2147.24672212911
 30
0.0
 10
137.9789582200428
 20
2149.796443292663
 30
0.0
 10
138.2677392146847
 20
2152.180436873209
 30
0.0
 10
139.1833413981688
 20
2154.258022845777
 30
0.0
 10
140.7238365470407
 20
2156.052824832737
 30
0.0
 10
142.7582058870814
 20
2157.271512891017
 30
0.0
 10
145.066965037092
 20
2157.794301666514
 30
0.0
 10
147.2305770876609
 20
2157.645509734017
 30
0.0
 10
149.2606861901594
 20
2156.908417669487
 30
0.0
 10
151.1199332248349
 20
2155.560786714434
 30
0.0
 10
152.595511031356
 20
2153.509072746523
 30
0.0
 10
153.1686224170373
 20
2151.508381528752
 30
0.0
 10
153.1999020573169
 20
2150.387326864911
 30
0.0
 10
153.2062119617509
 20
2150.161181431952
 30
0.0
  0
LINE
  5
1C7
330
1F
100
AcDbEntity
  8
0
  6
Continuous
 62
     7
370
    15
100
AcDbLine
 10
1529.1561311855
 20
2128.7611805319
 30
0.0
 11
1529.1561311855
 21
2123.761181575
 31
0.0
  0
LINE
  5
1C8
330
1F
100
AcDbEntity
  8
0
  6
Continuous
 62
     7
370
    15
100
AcDbLine
 10
1529.1561311855
 20
2133.7611813515
 30
0.0
 11
1529.1561311855
 21
2128.7611805319
 31
0.0
  0
LINE
  5
1C9
330
1F
100
AcDbEntity
  8
0
  6
Continuous
 62
     7
370
    15
100
AcDbLine
 10
-547.8437966854
 20
2126.784995985
 30
0.0
 11
-547.8437966854
 21
2133.7611813515
 31
0.0
  0
LINE
  5
1CA
330
1F
100
AcDbEntity
  8
0
  6
Continuous
 62
     7
370
    15
100
AcDbLine
 10
-547.8437966854
 20
2123.761181575
 30
0.0
 11
-547.8437966854
 21
2126.784995985
 31
0.0
  0
LINE
  5
1CB
330
1F
100
AcDbEntity
  8
0
  6
Continuous
 62
     7
370
    15
100
AcDbLine
 10
1560.656232275
 20
2135.111804907
 30
0.0
 11
1560.656232275
 21
2135.9561810687
 31
0.0
  0
LINE
  5
1CC
330
1F
100
AcDbEntity
  8
0
  6
Continuous
 62
     7
370
    15
100
AcDbLine
 10
1560.656232275
 20
2121.5661809265
 30
0.0
 11
1560.656232275
 21
2135.111804907
 31
0.0
  0
LINE
  5
1CD
330
1F
100
AcDbEntity
  8
0
  6
Continuous
 62
     7
370
    15
100
AcDbLine
 10
-579.3437981234
 20
2135.9561810687
 30
0.0
 11
-579.3437981234
 21
2121.5661809265
 31
0.0
  0
LINE
  5
1CE
330
1F
100
AcDbEntity
  8
0
  6
Continuous
 62
     7
370
    15
100
AcDbLine
 10
1531.1562246456
 20
2130.2368220359
 30
0.0
 11
1531.1562246456
 21
2134.4111811786
 31
0.0
  0
LINE
  5
1CF
330
1F
100
AcDbEntity
  8
0
  6
Continuous
 62
     7
370
    15
100
AcDbLine
 10
1531.1562246456
 20
2123.1111817479
 30
0.0
 11
1531.1562246456
 21
2130.2368220359
 31
0.0
  0
LINE
  5
1D0
330
1F
100
AcDbEntity
  8
0
  6
Continuous
 62
     7
370
    15
100
AcDbLine
 10
-549.8437960819
 20
2134.4111811786
 30
0.0
 11
-549.8437960819
 21
2123.1111817479
 31
0.0
  0
CIRCLE
  5
1D1
330
1F
100
AcDbEntity
  8
0
  6
Continuous
 62
     7
370
    15
100
AcDbCircle
 10
1585.6562036648
 20
2141.161181432
 30
0.0
 40
21.9999999999995
  0
CIRCLE
  5
1D2
330
1F
100
AcDbEntity
  8
0
  6
Continuous
 62
     7
370
    15
100
AcDbCircle
 10
1582.1258867023
 20
2131.0073958254
 30
0.0
 40
1.299999999999645
  0
CIRCLE
  5
1D3
330
1F
100
AcDbEntity
  8
0
  6
Continuous
 62
     7
370
    15
100
AcDbCircle
 10
1595.8099892714
 20
2137.6308644695
 30
0.0
 40
1.299999999999794
  0
CIRCLE
  5
1D4
330
1F
100
AcDbEntity
  8
0
  6
Continuous
 62
     7
370
    15
100
AcDbCircle
 10
1589.1865206272
 20
2151.3149670385
 30
0.0
 40
1.300000000000149
  0
CIRCLE
  5
1D5
330
1F
100
AcDbEntity
  8
0
  6
Continuous
 62
     7
370
    15
100
AcDbCircle
 10
1575.5024180582
 20
2144.6914983944
 30
0.0
 40
1.300000000000504
  0
CIRCLE
  5
1D6
330
1F
100
AcDbEntity
  8
0
  6
Continuous
 62
     7
370
    15
100
AcDbCircle
 10
1585.6562036648
 20
2141.161181432
 30
0.0
 40
24.00000000000019
  0
CIRCLE
  5
1D7
330
1F
100
AcDbEntity
  8
0
  6
Continuous
 62
     7
370
    15
100
AcDbCircle
 10
-604.3437963352
 20
2141.161181432
 30
0.0
 40
21.99999999999989
  0
CIRCLE
  5
1D8
330
1F
100
AcDbEntity
  8
0
  6
Continuous
 62
     7
370
    15
100
AcDbCircle
 10
-604.3437963352
 20
2141.161181432
 30
0.0
 40
23.99999999999989
  0
CIRCLE
  5
1D9
330
1F
100
AcDbEntity
  8
0
  6
Continuous
 62
     7
370
    15
100
AcDbCircle
 10
-604.3437963352
 20
2151.911181432
 30
0.0
 40
1.300000000000068
  0
CIRCLE
  5
1DA
330
1F
100
AcDbEntity
  8
0
  6
Continuous
 62
     7
370
    15
100
AcDbCircle
 10
-615.0937963352
 20
2141.161181432
 30
0.0
 40
1.299999999999955
  0
CIRCLE
  5
1DB
330
1F
100
AcDbEntity
  8
0
  6
Continuous
 62
     7
370
    15
100
AcDbCircle
 10
-593.5937963352
 20
2141.161181432
 30
0.0
 40
1.299999999999955
  0
CIRCLE
  5
1DC
330
1F
100
AcDbEntity
  8
0
  6
Continuous
 62
     7
370
    15
100
AcDbCircle
 10
-604.3437963352
 20
2130.411181432
 30
0.0
 40
1.299999999999955
  0
LINE
  5
1DD
330
1F
100
AcDbEntity
  8
0
  6
Continuous
 62
     7
370
    15
100
AcDbLine
 10
1561.0562986507
 20
2137.6611812457
 30
0.0
 11
1561.0562986507
 21
2136.2561814904
 31
0.0
  0
LINE
  5
1DE
330
1F
100
AcDbEntity
  8
0
  6
Continuous
 62
     7
370
    15
100
AcDbLine
 10
1523.6562914028
 20
2134.8389897912
 30
0.0
 11
1523.6562914028
 21
2137.4833731397
 31
0.0
  0
LINE
  5
1DF
330
1F
100
AcDbEntity
  8
0
  6
Continuous
 62
     7
370
    15
100
AcDbLine
 10
-579.7437974439
 20
2136.2561814904
 30
0.0
 11
-579.7437974439
 21
2137.6611812457
 31
0.0
  0
LINE
  5
1E0
330
1F
100
AcDbEntity
  8
0
  6
Continuous
 62
     7
370
    15
100
AcDbLine
 10
-573.8437981532
 20
2134.7111816003
 30
0.0
 11
-573.8437981532
 21
2137.6611812457
 31
0.0
  0
LINE
  5
1E1
330
1F
100
AcDbEntity
  8
0
  6
Continuous
 62
     7
370
    15
100
AcDbLine
 10
-577.3437977955
 20
2134.7111816003
 30
0.0
 11
-577.3437977955
 21
2137.6611812457
 31
0.0
  0
LINE
  5
1E2
330
1F
100
AcDbEntity
  8
0
  6
Continuous
 62
     7
370
    15
100
AcDbLine
 10
-542.3437967152
 20
2136.1611809998
 30
0.0
 11
-542.3437967152
 21
2134.8389897912
 31
0.0
  0
LINE
  5
1E3
330
1F
100
AcDbEntity
  8
0
  6
Continuous
 62
     7
370
    15
100
AcDbLine
 10
-542.3437967152
 20
2137.4833731397
 30
0.0
 11
-542.3437967152
 21
2136.1611809998
 31
0.0
  0
LINE
  5
1E4
330
1F
100
AcDbEntity
  8
0
  6
Continuous
 62
     7
370
    15
100
AcDbLine
 10
300.7479733601
 20
64.6611795246
 30
0.0
 11
300.7479733601
 21
2114.6611802697
 31
0.0
  0
LINE
  5
1E5
330
1F
100
AcDbEntity
  8
0
  6
Continuous
 62
     7
370
    15
100
AcDbLine
 10
-599.2520475016
 20
64.6611795246
 30
0.0
 11
300.7479733601
 21
64.6611795246
 31
0.0
  0
LINE
  5
1E6
330
1F
100
AcDbEntity
  8
0
  6
Continuous
 62
     7
370
    15
100
AcDbLine
 10
300.7479733601
 20
2114.6611802697
 30
0.0
 11
211.7479271069
 21
2114.6611802697
 31
0.0
  0
LINE
  5
1E7
330
1F
100
AcDbEntity
  8
0
  6
Continuous
 62
     7
370
    15
100
AcDbLine
 10
189.7479719296
 20
2114.6611802697
 30
0.0
 11
-488.2520497963
 21
2114.6611802697
 31
0.0
  0
LINE
  5
1E8
330
1F
100
AcDbEntity
  8
0
  6
Continuous
 62
     7
370
    15
100
AcDbLine
 10
-510.2520515398
 20
2114.6611802697
 30
0.0
 11
-599.2520475016
 21
2114.6611802697
 31
0.0
  0
LINE
  5
1E9
330
1F
100
AcDbEntity
  8
0
  6
Continuous
 62
     7
370
    15
100
AcDbLine
 10
-599.2520475016
 20
2114.6611802697
 30
0.0
 11
-599.2520475016
 21
64.6611795246
 31
0.0
  0
ARC
  5
1EA
330
1F
100
AcDbEntity
  8
0
  6
Continuous
 62
     7
370
    15
100
AcDbCircle
 10
-499.2520507079
 20
2188.661181432
 30
0.0
 40
28.95000000000038
100
AcDbArc
 50
292.3315430442
 51
157.6948819598
  0
ARC
  5
1EB
330
1F
100
AcDbEntity
  8
0
  6
Continuous
 62
     7
370
    15
100
AcDbCircle
 10
-499.2520507079
 20
2188.661181432
 30
0.0
 40
28.95000000000038
100
AcDbArc
 50
157.6948819598
 51
247.6684569558
  0
ARC
  5
1EC
330
1F
100
AcDbEntity
  8
0
  6
Continuous
 62
     7
370
    15
100
AcDbCircle
 10
200.7479492921
 20
2188.661181432
 30
0.0
 40
28.95000000000033
100
AcDbArc
 50
292.3315430442
 51
157.6948819598
  0
ARC
  5
1ED
330
1F
100
AcDbEntity
  8
0
  6
Continuous
 62
     7
370
    15
100
AcDbCircle
 10
200.7479492921
 20
2188.661181432
 30
0.0
 40
28.95000000000033
100
AcDbArc
 50
157.6948819598
 51
247.6684569558
  0
CIRCLE
  5
1EE
330
1F
100
AcDbEntity
  8
0
  6
Continuous
 62
     7
370
    15
100
AcDbCircle
 10
200.7479492921
 20
2188.661181432
 30
0.0
 40
19.0
  0
CIRCLE
  5
1EF
330
1F
100
AcDbEntity
  8
0
  6
Continuous
 62
     7
370
    15
100
AcDbCircle
 10
200.7479492921
 20
2188.661181432
 30
0.0
 40
16.99999999999955
  0
CIRCLE
  5
1F0
330
1F
100
AcDbEntity
  8
0
  6
Continuous
 62
     7
370
    15
100
AcDbCircle
 10
-499.2520507079
 20
2188.661181432
 30
0.0
 40
18.99999999999955
  0
CIRCLE
  5
1F1
330
1F
100
AcDbEntity
  8
0
  6
Continuous
 62
     7
370
    15
100
AcDbCircle
 10
-499.2520507079
 20
2188.661181432
 30
0.0
 40
16.99999999999955
  0
LINE
  5
1F2
330
1F
100
AcDbEntity
  8
0
  6
Continuous
 62
     7
370
    15
100
AcDbLine
 10
193.6561888828
 20
60.661231023
 30
0.0
 11
193.6561888828
 21
56.6612825214
 31
0.0
  0
LINE
  5
1F3
330
1F
100
AcDbEntity
  8
0
  6
Continuous
 62
     7
370
    15
100
AcDbLine
 10
191.156191267
 20
56.6612825214
 30
0.0
 11
191.156191267
 21
60.661231023
 31
0.0
  0
LINE
  5
1F4
330
1F
100
AcDbEntity
  8
0
  6
Continuous
 62
     7
370
    15
100
AcDbLine
 10
191.156191267
 20
60.661231023
 30
0.0
 11
193.6561888828
 21
60.661231023
 31
0.0
  0
LINE
  5
1F5
330
1F
100
AcDbEntity
  8
0
  6
Continuous
 62
     7
370
    15
100
AcDbLine
 10
193.6561888828
 20
56.6612825214
 30
0.0
 11
191.156191267
 21
56.6612825214
 31
0.0
  0
LINE
  5
1F6
330
1F
100
AcDbEntity
  8
0
  6
Continuous
 62
     7
370
    15
100
AcDbLine
 10
253.1562275066
 20
56.6612825214
 30
0.0
 11
253.1562275066
 21
60.661231023
 31
0.0
  0
LINE
  5
1F7
330
1F
100
AcDbEntity
  8
0
  6
Continuous
 62
     7
370
    15
100
AcDbLine
 10
193.6561888828
 20
60.661231023
 30
0.0
 11
253.1562275066
 21
60.661231023
 31
0.0
  0
LINE
  5
1F8
330
1F
100
AcDbEntity
  8
0
  6
Continuous
 62
     7
370
    15
100
AcDbLine
 10
193.6561888828
 20
56.6612825214
 30
0.0
 11
253.1562275066
 21
56.6612825214
 31
0.0
  0
LINE
  5
1F9
330
1F
100
AcDbEntity
  8
0
  6
Continuous
 62
     7
370
    15
100
AcDbLine
 10
255.6562251225
 20
60.661231023
 30
0.0
 11
255.6562251225
 21
56.6612825214
 31
0.0
  0
LINE
  5
1FA
330
1F
100
AcDbEntity
  8
0
  6
Continuous
 62
     7
370
    15
100
AcDbLine
 10
253.1562275066
 20
60.661231023
 30
0.0
 11
255.6562251225
 21
60.661231023
 31
0.0
  0
LINE
  5
1FB
330
1F
100
AcDbEntity
  8
0
  6
Continuous
 62
     7
370
    15
100
AcDbLine
 10
255.6562251225
 20
56.6612825214
 30
0.0
 11
253.1562275066
 21
56.6612825214
 31
0.0
  0
ARC
  5
1FC
330
1F
100
AcDbEntity
  8
0
  6
Continuous
 62
     7
370
    15
100
AcDbCircle
 10
203.1278239771
 20
61.79329953
 30
0.0
 40
1.826057007591896
100
AcDbArc
 50
321.6873381453
 51
10.7817219937
  0
LINE
  5
1FD
330
1F
100
AcDbEntity
  8
0
  6
Continuous
 62
     7
370
    15
100
AcDbLine
 10
204.9216455593
 20
62.1348962604
 30
0.0
 11
231.3907570019
 21
62.1348962604
 31
0.0
  0
ARC
  5
1FE
330
1F
100
AcDbEntity
  8
0
  6
Continuous
 62
     7
370
    15
100
AcDbCircle
 10
233.1845785841
 20
61.79329953
 30
0.0
 40
1.826057007591918
100
AcDbArc
 50
169.2182780063
 51
218.3126618547
  0
ARC
  5
1FF
330
1F
100
AcDbEntity
  8
0
  6
Continuous
 62
     7
370
    15
100
AcDbCircle
 10
-499.2520507079
 20
2059.661181432
 30
0.0
 40
13.59868421052648
100
AcDbArc
 50
323.9887716943
 51
36.0112283057
  0
ARC
  5
200
330
1F
100
AcDbEntity
  8
0
  6
Continuous
 62
     7
370
    15
100
AcDbCircle
 10
-499.2520507079
 20
2059.661181432
 30
0.0
 40
13.59868421052648
100
AcDbArc
 50
143.9887716943
 51
216.0112283057
  0
ARC
  5
201
330
1F
100
AcDbEntity
  8
0
  6
Continuous
 62
     7
370
    15
100
AcDbCircle
 10
-499.2520507079
 20
2059.661181432
 30
0.0
 40
15.00000000000001
100
AcDbArc
 50
317.1665719339
 51
42.8334280661
  0
ARC
  5
202
330
1F
100
AcDbEntity
  8
0
  6
Continuous
 62
     7
370
    15
100
AcDbCircle
 10
-499.2520507079
 20
2059.661181432
 30
0.0
 40
15.00000000000001
100
AcDbArc
 50
137.1665719339
 51
222.8334280661
  0
ARC
  5
203
330
1F
100
AcDbEntity
  8
0
  6
Continuous
 62
     7
370
    15
100
AcDbCircle
 10
-499.2520507079
 20
2004.661181432
 30
0.0
 40
13.59868421052648
100
AcDbArc
 50
323.9887716943
 51
36.0112283057
  0
ARC
  5
204
330
1F
100
AcDbEntity
  8
0
  6
Continuous
 62
     7
370
    15
100
AcDbCircle
 10
-499.2520507079
 20
2004.661181432
 30
0.0
 40
13.59868421052635
100
AcDbArc
 50
143.9887716943
 51
216.0112283057
  0
ARC
  5
205
330
1F
100
AcDbEntity
  8
0
  6
Continuous
 62
     7
370
    15
100
AcDbCircle
 10
-499.2520507079
 20
2004.661181432
 30
0.0
 40
15.00000000000001
100
AcDbArc
 50
317.1665719339
 51
42.8334280661
  0
ARC
  5
206
330
1F
100
AcDbEntity
  8
0
  6
Continuous
 62
     7
370
    15
100
AcDbCircle
 10
-499.2520507079
 20
2004.661181432
 30
0.0
 40
15.00000000000001
100
AcDbArc
 50
137.1665719339
 51
222.8334280661
  0
ARC
  5
207
330
1F
100
AcDbEntity
  8
0
  6
Continuous
 62
     7
370
    15
100
AcDbCircle
 10
200.7479492921
 20
2004.661181432
 30
0.0
 40
13.59868421052635
100
AcDbArc
 50
323.9887716943
 51
36.0112283057
  0
ARC
  5
208
330
1F
100
AcDbEntity
  8
0
  6
Continuous
 62
     7
370
    15
100
AcDbCircle
 10
200.7479492921
 20
2004.661181432
 30
0.0
 40
13.59868421052637
100
AcDbArc
 50
143.9887716943
 51
216.0112283057
  0
ARC
  5
209
330
1F
100
AcDbEntity
  8
0
  6
Continuous
 62
     7
370
    15
100
AcDbCircle
 10
200.7479492921
 20
2004.661181432
 30
0.0
 40
15.00000000000001
100
AcDbArc
 50
317.1665719339
 51
42.8334280661
  0
ARC
  5
20A
330
1F
100
AcDbEntity
  8
0
  6
Continuous
 62
     7
370
    15
100
AcDbCircle
 10
200.7479492921
 20
2004.661181432
 30
0.0
 40
15.00000000000003
100
AcDbArc
 50
137.1665719339
 51
222.8334280661
  0
ARC
  5
20B
330
1F
100
AcDbEntity
  8
0
  6
Continuous
 62
     7
370
    15
100
AcDbCircle
 10
200.7479492921
 20
2059.661181432
 30
0.0
 40
13.59868421052648
100
AcDbArc
 50
323.9887716943
 51
36.0112283057
  0
ARC
  5
20C
330
1F
100
AcDbEntity
  8
0
  6
Continuous
 62
     7
370
    15
100
AcDbCircle
 10
200.7479492921
 20
2059.661181432
 30
0.0
 40
13.59868421052651
100
AcDbArc
 50
143.9887716943
 51
216.0112283057
  0
ARC
  5
20D
330
1F
100
AcDbEntity
  8
0
  6
Continuous
 62
     7
370
    15
100
AcDbCircle
 10
200.7479492921
 20
2059.661181432
 30
0.0
 40
15.00000000000001
100
AcDbArc
 50
317.1665719339
 51
42.8334280661
  0
ARC
  5
20E
330
1F
100
AcDbEntity
  8
0
  6
Continuous
 62
     7
370
    15
100
AcDbCircle
 10
200.7479492921
 20
2059.661181432
 30
0.0
 40
15.00000000000003
100
AcDbArc
 50
137.1665719339
 51
222.8334280661
  0
LINE
  5
20F
330
1F
100
AcDbEntity
  8
0
  6
Continuous
 62
     7
370
    15
100
AcDbLine
 10
-488.2520497963
 20
2210.6611811041
 30
0.0
 11
-510.2520515398
 21
2210.6611811041
 31
0.0
  0
LINE
  5
210
330
1F
100
AcDbEntity
  8
0
  6
Continuous
 62
     7
370
    15
100
AcDbLine
 10
-510.2520515398
 20
1976.6611800014
 30
0.0
 11
-488.2520497963
 21
1976.6611800014
 31
0.0
  0
LINE
  5
211
330
1F
100
AcDbEntity
  8
0
  6
Continuous
 62
     7
370
    15
100
AcDbLine
 10
-508.2520512119
 20
2212.661181432
 30
0.0
 11
-490.2520501242
 21
2212.661181432
 31
0.0
  0
LINE
  5
212
330
1F
100
AcDbEntity
  8
0
  6
Continuous
 62
     7
370
    15
100
AcDbLine
 10
-490.2520501242
 20
1974.6611759483
 30
0.0
 11
-508.2520512119
 21
1974.6611759483
 31
0.0
  0
LINE
  5
213
330
1F
100
AcDbEntity
  8
0
  6
Continuous
 62
     7
370
    15
100
AcDbLine
 10
211.7479271069
 20
2210.6611811041
 30
0.0
 11
189.7479719296
 21
2210.6611811041
 31
0.0
  0
LINE
  5
214
330
1F
100
AcDbEntity
  8
0
  6
Continuous
 62
     7
370
    15
100
AcDbLine
 10
189.7479719296
 20
1976.6611800014
 30
0.0
 11
211.7479271069
 21
1976.6611800014
 31
0.0
  0
LINE
  5
215
330
1F
100
AcDbEntity
  8
0
  6
Continuous
 62
     7
370
    15
100
AcDbLine
 10
209.7479528561
 20
1974.6611759483
 30
0.0
 11
191.7479461803
 21
1974.6611759483
 31
0.0
  0
LINE
  5
216
330
1F
100
AcDbEntity
  8
0
  6
Continuous
 62
     7
370
    15
100
AcDbLine
 10
191.7479461803
 20
2212.661181432
 30
0.0
 11
209.7479528561
 21
2212.661181432
 31
0.0
  0
ARC
  5
217
330
1F
100
AcDbEntity
  8
0
  6
Continuous
 62
     7
370
    15
100
AcDbCircle
 10
-499.2520507079
 20
2188.661181432
 30
0.0
 40
29.00000000000016
100
AcDbArc
 50
292.2909703748
 51
153.7186912654
  0
ARC
  5
218
330
1F
100
AcDbEntity
  8
0
  6
Continuous
 62
     7
370
    15
100
AcDbCircle
 10
-499.2520507079
 20
2188.661181432
 30
0.0
 40
29.00000000000016
100
AcDbArc
 50
153.7186912654
 51
247.7090296252
  0
ARC
  5
219
330
1F
100
AcDbEntity
  8
0
  6
Continuous
 62
     7
370
    15
100
AcDbCircle
 10
200.7479492921
 20
2188.661181432
 30
0.0
 40
29.00000000000016
100
AcDbArc
 50
292.2909703748
 51
153.7186912654
  0
ARC
  5
21A
330
1F
100
AcDbEntity
  8
0
  6
Continuous
 62
     7
370
    15
100
AcDbCircle
 10
200.7479492921
 20
2188.661181432
 30
0.0
 40
29.00000000000016
100
AcDbArc
 50
153.7186912654
 51
247.7090296252
  0
LINE
  5
21B
330
1F
100
AcDbEntity
  8
0
  6
Continuous
 62
     7
370
    15
100
AcDbLine
 10
181.7479557171
 20
2185.6611825942
 30
0.0
 11
181.7479557171
 21
2191.6611798524
 31
0.0
  0
LINE
  5
21C
330
1F
100
AcDbEntity
  8
0
  6
Continuous
 62
     7
370
    15
100
AcDbLine
 10
-518.2520509884
 20
2185.6611825942
 30
0.0
 11
-518.2520509884
 21
2191.6611798524
 31
0.0
  0
LINE
  5
21D
330
1F
100
AcDbEntity
  8
0
  6
Continuous
 62
     7
370
    15
100
AcDbLine
 10
219.7479433193
 20
2191.6611798524
 30
0.0
 11
219.7479433193
 21
2185.6611825942
 31
0.0
  0
LINE
  5
21E
330
1F
100
AcDbEntity
  8
0
  6
Continuous
 62
     7
370
    15
100
AcDbLine
 10
-480.2520522103
 20
2191.6611798524
 30
0.0
 11
-480.2520522103
 21
2185.6611825942
 31
0.0
  0
LINE
  5
21F
330
1F
100
AcDbEntity
  8
0
  6
Continuous
 62
     7
370
    15
100
AcDbLine
 10
-488.5721900687
 20
2130.0962407559
 30
0.0
 11
-488.5721900687
 21
2127.2261225104
 31
0.0
  0
LINE
  5
220
330
1F
100
AcDbEntity
  8
0
  6
Continuous
 62
     7
370
    15
100
AcDbLine
 10
-488.2520497963
 20
2126.2752831399
 30
0.0
 11
-488.2520497963
 21
2126.2156822204
 31
0.0
  0
LINE
  5
221
330
1F
100
AcDbEntity
  8
0
  6
Continuous
 62
     7
370
    15
100
AcDbLine
 10
-488.2520497963
 20
2131.1066810458
 30
0.0
 11
-488.2520497963
 21
2126.2752831399
 31
0.0
  0
LINE
  5
222
330
1F
100
AcDbEntity
  8
0
  6
Continuous
 62
     7
370
    15
100
AcDbLine
 10
211.7479271069
 20
2126.2752831399
 30
0.0
 11
211.7479271069
 21
2126.2156822204
 31
0.0
  0
LINE
  5
223
330
1F
100
AcDbEntity
  8
0
  6
Continuous
 62
     7
370
    15
100
AcDbLine
 10
211.7479271069
 20
2131.1066810458
 30
0.0
 11
211.7479271069
 21
2126.2752831399
 31
0.0
  0
LINE
  5
224
330
1F
100
AcDbEntity
  8
0
  6
Continuous
 62
     7
370
    15
100
AcDbLine
 10
211.4277905598
 20
2130.0962407559
 30
0.0
 11
211.4277905598
 21
2127.2261225104
 31
0.0
  0
CIRCLE
  5
225
330
1F
100
AcDbEntity
  8
0
  6
Continuous
 62
     7
370
    15
100
AcDbCircle
 10
1505.6562036648
 20
2150.161181432
 30
0.0
 40
6.450000000000228
  0
CIRCLE
  5
226
330
1F
100
AcDbEntity
  8
0
  6
Continuous
 62
     7
370
    15
100
AcDbCircle
 10
1505.6562036648
 20
2150.161181432
 30
0.0
 40
7.450000000000102
  0
CIRCLE
  5
227
330
1F
100
AcDbEntity
  8
0
  6
Continuous
 62
     7
370
    15
100
AcDbCircle
 10
1502.2152673621
 20
2147.6666960419
 30
0.0
 40
1.250000000000002
  0
CIRCLE
  5
228
330
1F
100
AcDbEntity
  8
0
  6
Continuous
 62
     7
370
    15
100
AcDbCircle
 10
1503.1617182747
 20
2153.6021177346
 30
0.0
 40
1.250000000000002
  0
CIRCLE
  5
229
330
1F
100
AcDbEntity
  8
0
  6
Continuous
 62
     7
370
    15
100
AcDbCircle
 10
1508.1506890548
 20
2146.7202451293
 30
0.0
 40
1.250000000000136
  0
CIRCLE
  5
22A
330
1F
100
AcDbEntity
  8
0
  6
Continuous
 62
     7
370
    15
100
AcDbCircle
 10
1509.0971399674
 20
2152.655666822
 30
0.0
 40
1.249999999999901
  0
CIRCLE
  5
22B
330
1F
100
AcDbEntity
  8
0
  6
Continuous
 62
     7
370
    15
100
AcDbCircle
 10
-537.7847326379
 20
2147.6666960419
 30
0.0
 40
1.250000000000069
  0
CIRCLE
  5
22C
330
1F
100
AcDbEntity
  8
0
  6
Continuous
 62
     7
370
    15
100
AcDbCircle
 10
-536.8382817253
 20
2153.6021177346
 30
0.0
 40
1.250000000000002
  0
CIRCLE
  5
22D
330
1F
100
AcDbEntity
  8
0
  6
Continuous
 62
     7
370
    15
100
AcDbCircle
 10
-530.9028600326
 20
2152.655666822
 30
0.0
 40
1.249999999999634
  0
CIRCLE
  5
22E
330
1F
100
AcDbEntity
  8
0
  6
Continuous
 62
     7
370
    15
100
AcDbCircle
 10
-531.8493109452
 20
2146.7202451293
 30
0.0
 40
1.250000000000002
  0
CIRCLE
  5
22F
330
1F
100
AcDbEntity
  8
0
  6
Continuous
 62
     7
370
    15
100
AcDbCircle
 10
-534.3437963352
 20
2150.161181432
 30
0.0
 40
6.450000000000294
  0
CIRCLE
  5
230
330
1F
100
AcDbEntity
  8
0
  6
Continuous
 62
     7
370
    15
100
AcDbCircle
 10
-534.3437963352
 20
2150.161181432
 30
0.0
 40
7.450000000000302
  0
CIRCLE
  5
231
330
1F
100
AcDbEntity
  8
0
  6
Continuous
 62
     7
370
    15
100
AcDbCircle
 10
822.2152673621
 20
2147.6666960419
 30
0.0
 40
1.250000000000136
  0
CIRCLE
  5
232
330
1F
100
AcDbEntity
  8
0
  6
Continuous
 62
     7
370
    15
100
AcDbCircle
 10
823.1617182747
 20
2153.6021177346
 30
0.0
 40
1.250000000000136
  0
CIRCLE
  5
233
330
1F
100
AcDbEntity
  8
0
  6
Continuous
 62
     7
370
    15
100
AcDbCircle
 10
829.0971399674
 20
2152.655666822
 30
0.0
 40
1.249999999999567
  0
CIRCLE
  5
234
330
1F
100
AcDbEntity
  8
0
  6
Continuous
 62
     7
370
    15
100
AcDbCircle
 10
828.1506890548
 20
2146.7202451293
 30
0.0
 40
1.250000000000069
  0
CIRCLE
  5
235
330
1F
100
AcDbEntity
  8
0
  6
Continuous
 62
     7
370
    15
100
AcDbCircle
 10
825.6562036648
 20
2150.161181432
 30
0.0
 40
6.450000000000294
  0
CIRCLE
  5
236
330
1F
100
AcDbEntity
  8
0
  6
Continuous
 62
     7
370
    15
100
AcDbCircle
 10
825.6562036648
 20
2150.161181432
 30
0.0
 40
7.450000000000302
  0
CIRCLE
  5
237
330
1F
100
AcDbEntity
  8
0
  6
Continuous
 62
     7
370
    15
100
AcDbCircle
 10
145.6562036648
 20
2150.161181432
 30
0.0
 40
6.450000000000277
  0
CIRCLE
  5
238
330
1F
100
AcDbEntity
  8
0
  6
Continuous
 62
     7
370
    15
100
AcDbCircle
 10
145.6562036648
 20
2150.161181432
 30
0.0
 40
7.450000000000268
  0
CIRCLE
  5
239
330
1F
100
AcDbEntity
  8
0
  6
Continuous
 62
     7
370
    15
100
AcDbCircle
 10
142.2152673621
 20
2147.6666960419
 30
0.0
 40
1.250000000000036
  0
CIRCLE
  5
23A
330
1F
100
AcDbEntity
  8
0
  6
Continuous
 62
     7
370
    15
100
AcDbCircle
 10
143.1617182747
 20
2153.6021177346
 30
0.0
 40
1.250000000000036
  0
CIRCLE
  5
23B
330
1F
100
AcDbEntity
  8
0
  6
Continuous
 62
     7
370
    15
100
AcDbCircle
 10
148.1506890548
 20
2146.7202451293
 30
0.0
 40
1.250000000000036
  0
CIRCLE
  5
23C
330
1F
100
AcDbEntity
  8
0
  6
Continuous
 62
     7
370
    15
100
AcDbCircle
 10
149.0971399674
 20
2152.655666822
 30
0.0
 40
1.249999999999734
  0
ARC
  5
23D
330
1F
100
AcDbEntity
  8
0
  6
Continuous
 62
     7
370
    15
100
AcDbCircle
 10
1505.6562036648
 20
2150.161181432
 30
0.0
 40
14.99999999999962
100
AcDbArc
 50
236.4426902381
 51
303.5573097619
  0
ARC
  5
23E
330
1F
100
AcDbEntity
  8
0
  6
Continuous
 62
     7
370
    15
100
AcDbCircle
 10
1505.6562036648
 20
2150.161181432
 30
0.0
 40
14.99999999999962
100
AcDbArc
 50
56.4426902381
 51
123.5573097619
  0
ARC
  5
23F
330
1F
100
AcDbEntity
  8
0
  6
Continuous
 62
     7
370
    15
100
AcDbCircle
 10
1505.6562036648
 20
2150.161181432
 30
0.0
 40
30.00000000000003
100
AcDbArc
 50
24.6243183522
 51
155.3756816478
  0
ARC
  5
240
330
1F
100
AcDbEntity
  8
0
  6
Continuous
 62
     7
370
    15
100
AcDbCircle
 10
1505.6562036648
 20
2150.161181432
 30
0.0
 40
30.00000000000003
100
AcDbArc
 50
204.6243183522
 51
321.5667936592
  0
ARC
  5
241
330
1F
100
AcDbEntity
  8
0
  6
Continuous
 62
     7
370
    15
100
AcDbCircle
 10
145.6562036648
 20
2150.161181432
 30
0.0
 40
14.99999999999948
100
AcDbArc
 50
236.4426902381
 51
303.5573097619
  0
ARC
  5
242
330
1F
100
AcDbEntity
  8
0
  6
Continuous
 62
     7
370
    15
100
AcDbCircle
 10
145.6562036648
 20
2150.161181432
 30
0.0
 40
14.99999999999972
100
AcDbArc
 50
56.4426902381
 51
123.5573097619
  0
ARC
  5
243
330
1F
100
AcDbEntity
  8
0
  6
Continuous
 62
     7
370
    15
100
AcDbCircle
 10
145.6562036648
 20
2150.161181432
 30
0.0
 40
30.0000000000001
100
AcDbArc
 50
24.6243183522
 51
155.3756816478
  0
ARC
  5
244
330
1F
100
AcDbEntity
  8
0
  6
Continuous
 62
     7
370
    15
100
AcDbCircle
 10
145.6562036648
 20
2150.161181432
 30
0.0
 40
29.99999999999999
100
AcDbArc
 50
204.6243183522
 51
335.3756816478
  0
ARC
  5
245
330
1F
100
AcDbEntity
  8
0
  6
Continuous
 62
     7
370
    15
100
AcDbCircle
 10
825.6562036648
 20
2150.161181432
 30
0.0
 40
14.99999999999956
100
AcDbArc
 50
236.4426902381
 51
303.5573097619
  0
ARC
  5
246
330
1F
100
AcDbEntity
  8
0
  6
Continuous
 62
     7
370
    15
100
AcDbCircle
 10
825.6562036648
 20
2150.161181432
 30
0.0
 40
14.99999999999943
100
AcDbArc
 50
56.4426902381
 51
123.5573097619
  0
ARC
  5
247
330
1F
100
AcDbEntity
  8
0
  6
Continuous
 62
     7
370
    15
100
AcDbCircle
 10
825.6562036648
 20
2150.161181432
 30
0.0
 40
30.00000000000013
100
AcDbArc
 50
24.6243183522
 51
155.3756816478
  0
ARC
  5
248
330
1F
100
AcDbEntity
  8
0
  6
Continuous
 62
     7
370
    15
100
AcDbCircle
 10
825.6562036648
 20
2150.161181432
 30
0.0
 40
29.99999999999993
100
AcDbArc
 50
204.6243183522
 51
335.3756816478
  0
ARC
  5
249
330
1F
100
AcDbEntity
  8
0
  6
Continuous
 62
     7
370
    15
100
AcDbCircle
 10
-534.3437963352
 20
2150.161181432
 30
0.0
 40
14.9999999999995
100
AcDbArc
 50
237.7690473645
 51
303.5573097619
  0
ARC
  5
24A
330
1F
100
AcDbEntity
  8
0
  6
Continuous
 62
     7
370
    15
100
AcDbCircle
 10
-534.3437963352
 20
2150.161181432
 30
0.0
 40
14.99999999999975
100
AcDbArc
 50
56.4426902381
 51
123.5573097619
  0
ARC
  5
24B
330
1F
100
AcDbEntity
  8
0
  6
Continuous
 62
     7
370
    15
100
AcDbCircle
 10
-534.3437963352
 20
2150.161181432
 30
0.0
 40
30.00000000000013
100
AcDbArc
 50
75.1414276949
 51
155.3756816478
  0
ARC
  5
24C
330
1F
100
AcDbEntity
  8
0
  6
Continuous
 62
     7
370
    15
100
AcDbCircle
 10
-534.3437963352
 20
2150.161181432
 30
0.0
 40
30.00000000000019
100
AcDbArc
 50
241.6423634237
 51
323.4231381743
  0
LINE
  5
24D
330
1F
100
AcDbEntity
  8
0
  6
Continuous
 62
     8
370
    15
100
AcDbLine
 10
1560.9561628475
 20
2135.3765976101
 30
0.0
 11
1560.9561628475
 21
2121.2661814361
 31
0.0
  0
LINE
  5
24E
330
1F
100
AcDbEntity
  8
0
  6
Continuous
 62
     8
370
    15
100
AcDbLine
 10
1560.9561628475
 20
2136.2561814904
 30
0.0
 11
1560.9561628475
 21
2135.3765976101
 31
0.0
  0
LINE
  5
24F
330
1F
100
AcDbEntity
  8
0
  6
Continuous
 62
     8
370
    15
100
AcDbLine
 10
-579.6437957511
 20
2121.2661814361
 30
0.0
 11
-579.6437957511
 21
2136.2561814904
 31
0.0
  0
LINE
  5
250
330
1F
100
AcDbEntity
  8
0
  6
Continuous
 62
     8
370
    15
100
AcDbLine
 10
1531.4561552181
 20
2130.3151742041
 30
0.0
 11
1531.4561552181
 21
2122.8111822575
 31
0.0
  0
LINE
  5
251
330
1F
100
AcDbEntity
  8
0
  6
Continuous
 62
     8
370
    15
100
AcDbLine
 10
1531.4561552181
 20
2134.7111816003
 30
0.0
 11
1531.4561552181
 21
2130.3151742041
 31
0.0
  0
LINE
  5
252
330
1F
100
AcDbEntity
  8
0
  6
Continuous
 62
     8
370
    15
100
AcDbLine
 10
-550.1437955723
 20
2122.8111822575
 30
0.0
 11
-550.1437955723
 21
2134.7111816003
 31
0.0
  0
LINE
  5
253
330
1F
100
AcDbEntity
  8
0
  6
Continuous
 62
     8
370
    15
100
AcDbLine
 10
1560.9561628475
 20
2136.2561814904
 30
0.0
 11
1560.9561628475
 21
2137.6611812457
 31
0.0
  0
LINE
  5
254
330
1F
100
AcDbEntity
  8
0
  6
Continuous
 62
     8
370
    15
100
AcDbLine
 10
1547.0644659176
 20
2137.6611812457
 30
0.0
 11
1547.0644659176
 21
2134.7111816003
 31
0.0
  0
LINE
  5
255
330
1F
100
AcDbEntity
  8
0
  6
Continuous
 62
     8
370
    15
100
AcDbLine
 10
1544.4890684261
 20
2134.7111816003
 30
0.0
 11
1544.4890684261
 21
2137.6611812457
 31
0.0
  0
LINE
  5
256
330
1F
100
AcDbEntity
  8
0
  6
Continuous
 62
     8
370
    15
100
AcDbLine
 10
1531.1717218533
 20
2134.5062189221
 30
0.0
 11
1531.1717218533
 21
2137.6611812457
 31
0.0
  0
LINE
  5
257
330
1F
100
AcDbEntity
  8
0
  6
Continuous
 62
     8
370
    15
100
AcDbLine
 10
1533.9793390408
 20
2137.6611812457
 30
0.0
 11
1533.9793390408
 21
2134.7111816003
 31
0.0
  0
LINE
  5
258
330
1F
100
AcDbEntity
  8
0
  6
Continuous
 62
     8
370
    15
100
AcDbLine
 10
1524.5813554897
 20
2133.9076467275
 30
0.0
 11
1524.5813554897
 21
2133.8417910456
 31
0.0
  0
LINE
  5
259
330
1F
100
AcDbEntity
  8
0
  6
Continuous
 62
     8
370
    15
100
AcDbLine
 10
1524.5813554897
 20
2137.6611812457
 30
0.0
 11
1524.5813554897
 21
2133.9076467275
 31
0.0
  0
LINE
  5
25A
330
1F
100
AcDbEntity
  8
0
  6
Continuous
 62
     8
370
    15
100
AcDbLine
 10
1541.6561788693
 20
2137.6611812457
 30
0.0
 11
1541.6561788693
 21
2134.7111816003
 31
0.0
  0
LINE
  5
25B
330
1F
100
AcDbEntity
  8
0
  6
Continuous
 62
     8
370
    15
100
AcDbLine
 10
1536.6563028469
 20
2137.6611812457
 30
0.0
 11
1536.6563028469
 21
2134.7111816003
 31
0.0
  0
LINE
  5
25C
330
1F
100
AcDbEntity
  8
0
  6
Continuous
 62
     8
370
    15
100
AcDbLine
 10
-579.6437957511
 20
2137.6611812457
 30
0.0
 11
-579.6437957511
 21
2136.2561814904
 31
0.0
  0
LINE
  5
25D
330
1F
100
AcDbEntity
  8
0
  6
Continuous
 62
     8
370
    15
100
AcDbLine
 10
-565.7521248982
 20
2136.1611809998
 30
0.0
 11
-565.7521248982
 21
2137.6611812457
 31
0.0
  0
LINE
  5
25E
330
1F
100
AcDbEntity
  8
0
  6
Continuous
 62
     8
370
    15
100
AcDbLine
 10
-565.7521248982
 20
2134.7111816003
 30
0.0
 11
-565.7521248982
 21
2136.1611809998
 31
0.0
  0
LINE
  5
25F
330
1F
100
AcDbEntity
  8
0
  6
Continuous
 62
     8
370
    15
100
AcDbLine
 10
-563.1767292694
 20
2137.6611812457
 30
0.0
 11
-563.1767292694
 21
2134.7111816003
 31
0.0
  0
LINE
  5
260
330
1F
100
AcDbEntity
  8
0
  6
Continuous
 62
     8
370
    15
100
AcDbLine
 10
-549.8592476547
 20
2137.6611812457
 30
0.0
 11
-549.8592476547
 21
2134.5062189221
 31
0.0
  0
LINE
  5
261
330
1F
100
AcDbEntity
  8
0
  6
Continuous
 62
     8
370
    15
100
AcDbLine
 10
-552.6668154821
 20
2136.1611809998
 30
0.0
 11
-552.6668154821
 21
2137.6611812457
 31
0.0
  0
LINE
  5
262
330
1F
100
AcDbEntity
  8
0
  6
Continuous
 62
     8
370
    15
100
AcDbLine
 10
-552.6668154821
 20
2134.7111816003
 30
0.0
 11
-552.6668154821
 21
2136.1611809998
 31
0.0
  0
LINE
  5
263
330
1F
100
AcDbEntity
  8
0
  6
Continuous
 62
     8
370
    15
100
AcDbLine
 10
-543.2690060884
 20
2136.1611809998
 30
0.0
 11
-543.2690060884
 21
2137.6611812457
 31
0.0
  0
LINE
  5
264
330
1F
100
AcDbEntity
  8
0
  6
Continuous
 62
     8
370
    15
100
AcDbLine
 10
-543.2690060884
 20
2133.8417910456
 30
0.0
 11
-543.2690060884
 21
2136.1611809998
 31
0.0
  0
LINE
  5
265
330
1F
100
AcDbEntity
  8
0
  6
Continuous
 62
     8
370
    15
100
AcDbLine
 10
-560.3437968717
 20
2136.1611809998
 30
0.0
 11
-560.3437968717
 21
2137.6611812457
 31
0.0
  0
LINE
  5
266
330
1F
100
AcDbEntity
  8
0
  6
Continuous
 62
     8
370
    15
100
AcDbLine
 10
-560.3437968717
 20
2134.7111816003
 30
0.0
 11
-560.3437968717
 21
2136.1611809998
 31
0.0
  0
LINE
  5
267
330
1F
100
AcDbEntity
  8
0
  6
Continuous
 62
     8
370
    15
100
AcDbLine
 10
-555.3437960521
 20
2136.1611809998
 30
0.0
 11
-555.3437960521
 21
2137.6611812457
 31
0.0
  0
LINE
  5
268
330
1F
100
AcDbEntity
  8
0
  6
Continuous
 62
     8
370
    15
100
AcDbLine
 10
-555.3437960521
 20
2134.7111816003
 30
0.0
 11
-555.3437960521
 21
2136.1611809998
 31
0.0
  0
LINE
  5
269
330
1F
100
AcDbEntity
  8
0
  6
Continuous
 62
     8
370
    15
100
AcDbLine
 10
204.9322551861
 20
64.6611795246
 30
0.0
 11
204.9216455593
 21
62.1348962604
 31
0.0
  0
LINE
  5
26A
330
1F
100
AcDbEntity
  8
0
  6
Continuous
 62
     8
370
    15
100
AcDbLine
 10
231.3801473751
 20
64.6611795246
 30
0.0
 11
231.3907570019
 21
62.1348962604
 31
0.0
  0
LINE
  5
26B
330
1F
100
AcDbEntity
  8
0
  6
Continuous
 62
     8
370
    15
100
AcDbLine
 10
231.3907570019
 20
62.1348962604
 30
0.0
 11
232.1304506435
 21
62.1348962604
 31
0.0
  0
LINE
  5
26C
330
1F
100
AcDbEntity
  8
0
  6
Continuous
 62
     8
370
    15
100
AcDbLine
 10
204.1819519177
 20
62.1348962604
 30
0.0
 11
204.9216455593
 21
62.1348962604
 31
0.0
  0
LINE
  5
26D
330
1F
100
AcDbEntity
  8
0
  6
Continuous
 62
     7
370
    15
100
AcDbLine
 10
1513.2061666622
 20
-228.3202407311
 30
0.0
 11
1563.9955228939
 21
-228.3202407311
 31
0.0
  0
LINE
  5
26E
330
1F
100
AcDbEntity
  8
0
  6
Continuous
 62
     7
370
    15
100
AcDbLine
 10
1607.3950952663
 20
-228.3202407311
 30
0.0
 11
1634.6561140194
 21
-228.3202407311
 31
0.0
  0
LINE
  5
26F
330
1F
100
AcDbEntity
  8
0
  6
Continuous
 62
     7
370
    15
100
AcDbLine
 10
833.2062191143
 20
-228.3202407311
 30
0.0
 11
1498.138112463
 21
-228.3202407311
 31
0.0
  0
LINE
  5
270
330
1F
100
AcDbEntity
  8
0
  6
Continuous
 62
     7
370
    15
100
AcDbLine
 10
153.2062119618
 20
-228.3202407311
 30
0.0
 11
181.7479557171
 21
-228.3202407311
 31
0.0
  0
LINE
  5
271
330
1F
100
AcDbEntity
  8
0
  6
Continuous
 62
     7
370
    15
100
AcDbLine
 10
219.7479433193
 20
-228.3202407311
 30
0.0
 11
818.1381649151
 21
-228.3202407311
 31
0.0
  0
LINE
  5
272
330
1F
100
AcDbEntity
  8
0
  6
Continuous
 62
     7
370
    15
100
AcDbLine
 10
-526.7937961221
 20
-228.3202407311
 30
0.0
 11
-518.2520509884
 21
-228.3202407311
 31
0.0
  0
LINE
  5
273
330
1F
100
AcDbEntity
  8
0
  6
Continuous
 62
     7
370
    15
100
AcDbLine
 10
-480.2520522103
 20
-228.3202407311
 30
0.0
 11
138.1381577625
 21
-228.3202407311
 31
0.0
  0
LINE
  5
274
330
1F
100
AcDbEntity
  8
0
  6
Continuous
 62
     7
370
    15
100
AcDbLine
 10
-663.3437895403
 20
-228.3202407311
 30
0.0
 11
-626.0044970736
 21
-228.3202407311
 31
0.0
  0
LINE
  5
275
330
1F
100
AcDbEntity
  8
0
  6
Continuous
 62
     7
370
    15
100
AcDbLine
 10
-582.6049694047
 20
-228.3202407311
 30
0.0
 11
-541.8618377485
 21
-228.3202407311
 31
0.0
  0
LINE
  5
276
330
1F
100
AcDbEntity
  8
0
  6
Continuous
 62
     7
370
    15
100
AcDbLine
 10
-541.8437961676
 20
-203.3202422212
 30
0.0
 11
-582.5976417587
 21
-203.3202422212
 31
0.0
  0
LINE
  5
277
330
1F
100
AcDbEntity
  8
0
  6
Continuous
 62
     7
370
    15
100
AcDbLine
 10
-626.3692253456
 20
-203.3202422212
 30
0.0
 11
-663.3437895403
 21
-203.3202422212
 31
0.0
  0
LINE
  5
278
330
1F
100
AcDbEntity
  8
0
  6
Continuous
 62
     7
370
    15
100
AcDbLine
 10
138.1562179699
 20
-203.3202422212
 30
0.0
 11
-485.7520521805
 21
-203.3202422212
 31
0.0
  0
LINE
  5
279
330
1F
100
AcDbEntity
  8
0
  6
Continuous
 62
     7
370
    15
100
AcDbLine
 10
-512.7520510182
 20
-203.3202422212
 30
0.0
 11
-526.8437965029
 21
-203.3202422212
 31
0.0
  0
LINE
  5
27A
330
1F
100
AcDbEntity
  8
0
  6
Continuous
 62
     7
370
    15
100
AcDbLine
 10
818.1561655178
 20
-203.3202422212
 30
0.0
 11
214.2479247227
 21
-203.3202422212
 31
0.0
  0
LINE
  5
27B
330
1F
100
AcDbEntity
  8
0
  6
Continuous
 62
     7
370
    15
100
AcDbLine
 10
187.2479743137
 20
-203.3202422212
 30
0.0
 11
153.1562036648
 21
-203.3202422212
 31
0.0
  0
LINE
  5
27C
330
1F
100
AcDbEntity
  8
0
  6
Continuous
 62
     7
370
    15
100
AcDbLine
 10
1498.156232275
 20
-203.3202422212
 30
0.0
 11
833.1561512127
 21
-203.3202422212
 31
0.0
  0
LINE
  5
27D
330
1F
100
AcDbEntity
  8
0
  6
Continuous
 62
     7
370
    15
100
AcDbLine
 10
1634.6561140194
 20
-203.3202422212
 30
0.0
 11
1607.4022478237
 21
-203.3202422212
 31
0.0
  0
LINE
  5
27E
330
1F
100
AcDbEntity
  8
0
  6
Continuous
 62
     7
370
    15
100
AcDbLine
 10
1563.6307424679
 20
-203.3202422212
 30
0.0
 11
1513.1560987606
 21
-203.3202422212
 31
0.0
  0
LINE
  5
27F
330
1F
100
AcDbEntity
  8
0
  6
Continuous
 62
     7
370
    15
100
AcDbLine
 10
1634.6561140194
 20
-228.3202407311
 30
0.0
 11
1635.6562799587
 21
-227.3202424298
 31
0.0
  0
LINE
  5
280
330
1F
100
AcDbEntity
  8
0
  6
Continuous
 62
     7
370
    15
100
AcDbLine
 10
1635.6562799587
 20
-204.3202423851
 30
0.0
 11
1634.6561140194
 21
-203.3202422212
 31
0.0
  0
LINE
  5
281
330
1F
100
AcDbEntity
  8
0
  6
Continuous
 62
     7
370
    15
100
AcDbLine
 10
-663.3437895403
 20
-203.3202422212
 30
0.0
 11
-664.3437915668
 21
-204.3202423851
 31
0.0
  0
LINE
  5
282
330
1F
100
AcDbEntity
  8
0
  6
Continuous
 62
     7
370
    15
100
AcDbLine
 10
-664.3437915668
 20
-227.3202424298
 30
0.0
 11
-663.3437895403
 21
-228.3202407311
 31
0.0
  0
LINE
  5
283
330
1F
100
AcDbEntity
  8
0
  6
Continuous
 62
     7
370
    15
100
AcDbLine
 10
1609.6562570705
 20
-201.1202422331
 30
0.0
 11
1609.3560880795
 21
-200.8202427427
 31
0.0
  0
LINE
  5
284
330
1F
100
AcDbEntity
  8
0
  6
Continuous
 62
     7
370
    15
100
AcDbLine
 10
1561.9560903683
 20
-200.8202427427
 30
0.0
 11
1561.6561597958
 21
-201.1202422331
 31
0.0
  0
LINE
  5
285
330
1F
100
AcDbEntity
  8
0
  6
Continuous
 62
     7
370
    15
100
AcDbLine
 10
1561.6561597958
 20
-228.3202407311
 30
0.0
 11
1561.6561597958
 21
-237.0202427159
 31
0.0
  0
LINE
  5
286
330
1F
100
AcDbEntity
  8
0
  6
Continuous
 62
     7
370
    15
100
AcDbLine
 10
1561.6561597958
 20
-201.1202422331
 30
0.0
 11
1561.6561597958
 21
-203.3202422212
 31
0.0
  0
LINE
  5
287
330
1F
100
AcDbEntity
  8
0
  6
Continuous
 62
     7
370
    15
100
AcDbLine
 10
1609.6562570705
 20
-203.3202422212
 30
0.0
 11
1609.6562570705
 21
-201.1202422331
 31
0.0
  0
LINE
  5
288
330
1F
100
AcDbEntity
  8
0
  6
Continuous
 62
     7
370
    15
100
AcDbLine
 10
1609.6562570705
 20
-237.0202427159
 30
0.0
 11
1609.6562570705
 21
-228.3202407311
 31
0.0
  0
LINE
  5
289
330
1F
100
AcDbEntity
  8
0
  6
Continuous
 62
     7
370
    15
100
AcDbLine
 10
1561.6561597958
 20
-237.0202427159
 30
0.0
 11
1561.9560903683
 21
-237.3202440689
 31
0.0
  0
LINE
  5
28A
330
1F
100
AcDbEntity
  8
0
  6
Continuous
 62
     7
370
    15
100
AcDbLine
 10
1609.3560880795
 20
-237.3202440689
 30
0.0
 11
1609.6562570705
 21
-237.0202427159
 31
0.0
  0
LINE
  5
28B
330
1F
100
AcDbEntity
  8
0
  6
Continuous
 62
     7
370
    15
100
AcDbLine
 10
1560.9561628475
 20
-230.3152417193
 30
0.0
 11
1561.6561597958
 21
-230.3152417193
 31
0.0
  0
ARC
  5
28C
330
1F
100
AcDbEntity
  8
0
  6
Continuous
 62
     7
370
    15
100
AcDbCircle
 10
1560.9562036648
 20
-230.0152423404
 30
0.0
 40
0.3000000000001819
100
AcDbArc
 50
180.0
 51
270.0
  0
LINE
  5
28D
330
1F
100
AcDbEntity
  8
0
  6
Continuous
 62
     7
370
    15
100
AcDbLine
 10
-580.3437964246
 20
-230.3152417193
 30
0.0
 11
-579.6437957511
 21
-230.3152417193
 31
0.0
  0
ARC
  5
28E
330
1F
100
AcDbEntity
  8
0
  6
Continuous
 62
     7
370
    15
100
AcDbCircle
 10
-579.6437963352
 20
-230.0152423404
 30
0.0
 40
0.3000000000000114
100
AcDbArc
 50
270.0
 51
0.0
  0
LINE
  5
28F
330
1F
100
AcDbEntity
  8
0
  6
Continuous
 62
     7
370
    15
100
AcDbLine
 10
1531.4561552181
 20
-228.770240898
 30
0.0
 11
1560.656232275
 21
-228.770240898
 31
0.0
  0
ARC
  5
290
330
1F
100
AcDbEntity
  8
0
  6
Continuous
 62
     7
370
    15
100
AcDbCircle
 10
1531.4562036648
 20
-228.4702423404
 30
0.0
 40
0.3000000000000114
100
AcDbArc
 50
180.0
 51
270.0
  0
ARC
  5
291
330
1F
100
AcDbEntity
  8
0
  6
Continuous
 62
     7
370
    15
100
AcDbCircle
 10
-550.1437963352
 20
-228.4702423404
 30
0.0
 40
0.3000000000000682
100
AcDbArc
 50
270.0
 51
0.0
  0
LINE
  5
292
330
1F
100
AcDbEntity
  8
0
  6
Continuous
 62
     7
370
    15
100
AcDbLine
 10
-579.3437981234
 20
-228.770240898
 30
0.0
 11
-550.1437955723
 21
-228.770240898
 31
0.0
  0
LINE
  5
293
330
1F
100
AcDbEntity
  8
0
  6
Continuous
 62
     7
370
    15
100
AcDbLine
 10
1609.6562570705
 20
-237.5202437292
 30
0.0
 11
1609.4562238827
 21
-237.3202440689
 31
0.0
  0
LINE
  5
294
330
1F
100
AcDbEntity
  8
0
  6
Continuous
 62
     7
370
    15
100
AcDbLine
 10
1561.8561929836
 20
-237.3202440689
 30
0.0
 11
1561.6561597958
 21
-237.5202437292
 31
0.0
  0
LINE
  5
295
330
1F
100
AcDbEntity
  8
0
  6
Continuous
 62
     7
370
    15
100
AcDbLine
 10
1561.6561597958
 20
-237.5202437292
 30
0.0
 11
1561.6561597958
 21
-240.8202437113
 31
0.0
  0
LINE
  5
296
330
1F
100
AcDbEntity
  8
0
  6
Continuous
 62
     7
370
    15
100
AcDbLine
 10
1609.6562570705
 20
-240.8202437113
 30
0.0
 11
1609.6562570705
 21
-237.5202437292
 31
0.0
  0
LINE
  5
297
330
1F
100
AcDbEntity
  8
0
  6
Continuous
 62
     7
370
    15
100
AcDbLine
 10
1561.6561597958
 20
-240.8202437113
 30
0.0
 11
1563.6562532558
 21
-242.8202440391
 31
0.0
  0
LINE
  5
298
330
1F
100
AcDbEntity
  8
0
  6
Continuous
 62
     7
370
    15
100
AcDbLine
 10
1607.6561636105
 20
-242.8202440391
 30
0.0
 11
1609.6562570705
 21
-240.8202437113
 31
0.0
  0
LINE
  5
299
330
1F
100
AcDbEntity
  8
0
  6
Continuous
 62
     7
370
    15
100
AcDbLine
 10
-580.3437964246
 20
-237.5202437292
 30
0.0
 11
-580.5437960849
 21
-237.3202440689
 31
0.0
  0
LINE
  5
29A
330
1F
100
AcDbEntity
  8
0
  6
Continuous
 62
     7
370
    15
100
AcDbLine
 10
-628.1437971816
 20
-237.3202440689
 30
0.0
 11
-628.3437931166
 21
-237.5202437292
 31
0.0
  0
LINE
  5
29B
330
1F
100
AcDbEntity
  8
0
  6
Continuous
 62
     7
370
    15
100
AcDbLine
 10
-628.3437931166
 20
-237.5202437292
 30
0.0
 11
-628.3437931166
 21
-240.8202437113
 31
0.0
  0
LINE
  5
29C
330
1F
100
AcDbEntity
  8
0
  6
Continuous
 62
     7
370
    15
100
AcDbLine
 10
-580.3437964246
 20
-240.8202437113
 30
0.0
 11
-580.3437964246
 21
-237.5202437292
 31
0.0
  0
LINE
  5
29D
330
1F
100
AcDbEntity
  8
0
  6
Continuous
 62
     7
370
    15
100
AcDbLine
 10
-628.3437931166
 20
-240.8202437113
 30
0.0
 11
-626.343796514
 21
-242.8202440391
 31
0.0
  0
LINE
  5
29E
330
1F
100
AcDbEntity
  8
0
  6
Continuous
 62
     7
370
    15
100
AcDbLine
 10
-582.3437967524
 20
-242.8202440391
 30
0.0
 11
-580.3437964246
 21
-240.8202437113
 31
0.0
  0
LINE
  5
29F
330
1F
100
AcDbEntity
  8
0
  6
Continuous
 62
     7
370
    15
100
AcDbLine
 10
1560.9561628475
 20
-203.0202427308
 30
0.0
 11
1547.0644659176
 21
-203.0202427308
 31
0.0
  0
ARC
  5
2A0
330
1F
100
AcDbEntity
  8
0
  6
Continuous
 62
     7
370
    15
100
AcDbCircle
 10
1547.064530578
 20
-208.0202423404
 30
0.0
 40
5.000000000000004
100
AcDbArc
 50
90.0
 51
109.9484435888
  0
ARC
  5
2A1
330
1F
100
AcDbEntity
  8
0
  6
Continuous
 62
     7
370
    15
100
AcDbCircle
 10
1560.9562036648
 20
-203.1202423404
 30
0.0
 40
0.1000000000000227
100
AcDbArc
 50
0.0
 51
90.0
  0
ARC
  5
2A2
330
1F
100
AcDbEntity
  8
0
  6
Continuous
 62
     7
370
    15
100
AcDbCircle
 10
1531.5456047608
 20
-208.1925800382
 30
0.0
 40
4.999999999999995
100
AcDbArc
 50
77.0248504935
 51
94.2891533288
  0
LINE
  5
2A3
330
1F
100
AcDbEntity
  8
0
  6
Continuous
 62
     7
370
    15
100
AcDbLine
 10
1531.1717218533
 20
-203.2065836142
 30
0.0
 11
1529.6560949459
 21
-203.3202422212
 31
0.0
  0
LINE
  5
2A4
330
1F
100
AcDbEntity
  8
0
  6
Continuous
 62
     7
370
    15
100
AcDbLine
 10
1561.6561597958
 20
-203.2702432375
 30
0.0
 11
1561.0562986507
 21
-203.2702432375
 31
0.0
  0
ARC
  5
2A5
330
1F
100
AcDbEntity
  8
0
  6
Continuous
 62
     7
370
    15
100
AcDbCircle
 10
-579.6437963352
 20
-203.1202423404
 30
0.0
 40
0.0999999999999943
100
AcDbArc
 50
90.0
 51
180.0
  0
LINE
  5
2A6
330
1F
100
AcDbEntity
  8
0
  6
Continuous
 62
     7
370
    15
100
AcDbLine
 10
-577.3437977955
 20
-203.0202427308
 30
0.0
 11
-579.6437957511
 21
-203.0202427308
 31
0.0
  0
LINE
  5
2A7
330
1F
100
AcDbEntity
  8
0
  6
Continuous
 62
     7
370
    15
100
AcDbLine
 10
-565.7521248982
 20
-203.0202427308
 30
0.0
 11
-573.8437981532
 21
-203.0202427308
 31
0.0
  0
ARC
  5
2A8
330
1F
100
AcDbEntity
  8
0
  6
Continuous
 62
     7
370
    15
100
AcDbCircle
 10
-565.7521232484
 20
-208.0202423404
 30
0.0
 40
4.999999999999979
100
AcDbArc
 50
70.0515564112
 51
90.0
  0
ARC
  5
2A9
330
1F
100
AcDbEntity
  8
0
  6
Continuous
 62
     7
370
    15
100
AcDbCircle
 10
-550.2331974313
 20
-208.1925800382
 30
0.0
 40
5.000000000000012
100
AcDbArc
 50
85.7108466712
 51
102.9751495065
  0
LINE
  5
2AA
330
1F
100
AcDbEntity
  8
0
  6
Continuous
 62
     7
370
    15
100
AcDbLine
 10
-548.3437967673
 20
-203.3202422212
 30
0.0
 11
-549.8592476547
 21
-203.2065836142
 31
0.0
  0
LINE
  5
2AB
330
1F
100
AcDbEntity
  8
0
  6
Continuous
 62
     7
370
    15
100
AcDbLine
 10
-579.7437974439
 20
-203.2702432375
 30
0.0
 11
-580.3437964246
 21
-203.2702432375
 31
0.0
  0
LINE
  5
2AC
330
1F
100
AcDbEntity
  8
0
  6
Continuous
 62
     7
370
    15
100
AcDbLine
 10
-580.3437964246
 20
-201.1202422331
 30
0.0
 11
-580.6437977776
 21
-200.8202427427
 31
0.0
  0
LINE
  5
2AD
330
1F
100
AcDbEntity
  8
0
  6
Continuous
 62
     7
370
    15
100
AcDbLine
 10
-628.0437954888
 20
-200.8202427427
 30
0.0
 11
-628.3437931166
 21
-201.1202422331
 31
0.0
  0
LINE
  5
2AE
330
1F
100
AcDbEntity
  8
0
  6
Continuous
 62
     7
370
    15
100
AcDbLine
 10
-628.3437931166
 20
-228.3202407311
 30
0.0
 11
-628.3437931166
 21
-237.0202427159
 31
0.0
  0
LINE
  5
2AF
330
1F
100
AcDbEntity
  8
0
  6
Continuous
 62
     7
370
    15
100
AcDbLine
 10
-628.3437931166
 20
-201.1202422331
 30
0.0
 11
-628.3437931166
 21
-203.3202422212
 31
0.0
  0
LINE
  5
2B0
330
1F
100
AcDbEntity
  8
0
  6
Continuous
 62
     7
370
    15
100
AcDbLine
 10
-580.3437964246
 20
-203.3202422212
 30
0.0
 11
-580.3437964246
 21
-201.1202422331
 31
0.0
  0
LINE
  5
2B1
330
1F
100
AcDbEntity
  8
0
  6
Continuous
 62
     7
370
    15
100
AcDbLine
 10
-580.3437964246
 20
-237.0202427159
 30
0.0
 11
-580.3437964246
 21
-228.3202407311
 31
0.0
  0
LINE
  5
2B2
330
1F
100
AcDbEntity
  8
0
  6
Continuous
 62
     7
370
    15
100
AcDbLine
 10
-628.3437931166
 20
-237.0202427159
 30
0.0
 11
-628.0437954888
 21
-237.3202440689
 31
0.0
  0
LINE
  5
2B3
330
1F
100
AcDbEntity
  8
0
  6
Continuous
 62
     7
370
    15
100
AcDbLine
 10
-580.6437977776
 20
-237.3202440689
 30
0.0
 11
-580.3437964246
 21
-237.0202427159
 31
0.0
  0
LINE
  5
2B4
330
1F
100
AcDbEntity
  8
0
  6
Continuous
 62
     7
370
    15
100
AcDbLine
 10
192.7479333057
 20
-201.5202415536
 30
0.0
 11
192.7479333057
 21
-202.8202430706
 31
0.0
  0
LINE
  5
2B5
330
1F
100
AcDbEntity
  8
0
  6
Continuous
 62
     7
370
    15
100
AcDbLine
 10
208.7479657307
 20
-202.8202430706
 30
0.0
 11
208.7479657307
 21
-201.5202415536
 31
0.0
  0
LINE
  5
2B6
330
1F
100
AcDbEntity
  8
0
  6
Continuous
 62
     7
370
    15
100
AcDbLine
 10
-507.252051048
 20
-201.5202415536
 30
0.0
 11
-507.252051048
 21
-202.8202430706
 31
0.0
  0
LINE
  5
2B7
330
1F
100
AcDbEntity
  8
0
  6
Continuous
 62
     7
370
    15
100
AcDbLine
 10
-491.2520521507
 20
-202.8202430706
 30
0.0
 11
-491.2520521507
 21
-201.5202415536
 31
0.0
  0
LINE
  5
2B8
330
1F
100
AcDbEntity
  8
0
  6
Continuous
 62
     7
370
    15
100
AcDbLine
 10
-484.2520491407
 20
-204.8202415357
 30
0.0
 11
-486.2520494685
 21
-202.8202430706
 31
0.0
  0
LINE
  5
2B9
330
1F
100
AcDbEntity
  8
0
  6
Continuous
 62
     7
370
    15
100
AcDbLine
 10
-512.252050005
 20
-202.8202430706
 30
0.0
 11
-514.2520503328
 21
-204.8202415357
 31
0.0
  0
LINE
  5
2BA
330
1F
100
AcDbEntity
  8
0
  6
Continuous
 62
     7
370
    15
100
AcDbLine
 10
-514.2520503328
 20
-204.8202415357
 30
0.0
 11
-514.2520503328
 21
-205.8202416997
 31
0.0
  0
LINE
  5
2BB
330
1F
100
AcDbEntity
  8
0
  6
Continuous
 62
     7
370
    15
100
AcDbLine
 10
-484.2520491407
 20
-205.8202416997
 30
0.0
 11
-484.2520491407
 21
-204.8202415357
 31
0.0
  0
LINE
  5
2BC
330
1F
100
AcDbEntity
  8
0
  6
Continuous
 62
     7
370
    15
100
AcDbLine
 10
-509.0020508692
 20
-205.8202416997
 30
0.0
 11
-509.0020508692
 21
-206.19024312
 31
0.0
  0
LINE
  5
2BD
330
1F
100
AcDbEntity
  8
0
  6
Continuous
 62
     7
370
    15
100
AcDbLine
 10
-489.5020523295
 20
-206.19024312
 30
0.0
 11
-489.5020523295
 21
-205.8202416997
 31
0.0
  0
LINE
  5
2BE
330
1F
100
AcDbEntity
  8
0
  6
Continuous
 62
     7
370
    15
100
AcDbLine
 10
-508.8320509717
 20
-206.6902422707
 30
0.0
 11
-508.7020513788
 21
-206.8202418636
 31
0.0
  0
LINE
  5
2BF
330
1F
100
AcDbEntity
  8
0
  6
Continuous
 62
     7
370
    15
100
AcDbLine
 10
-489.8020499573
 20
-206.8202418636
 30
0.0
 11
-489.672052227
 21
-206.6902422707
 31
0.0
  0
LINE
  5
2C0
330
1F
100
AcDbEntity
  8
0
  6
Continuous
 62
     7
370
    15
100
AcDbLine
 10
215.7479352131
 20
-204.8202415357
 30
0.0
 11
213.7479609623
 21
-202.8202430706
 31
0.0
  0
LINE
  5
2C1
330
1F
100
AcDbEntity
  8
0
  6
Continuous
 62
     7
370
    15
100
AcDbLine
 10
187.7479380741
 20
-202.8202430706
 30
0.0
 11
185.7479638233
 21
-204.8202415357
 31
0.0
  0
LINE
  5
2C2
330
1F
100
AcDbEntity
  8
0
  6
Continuous
 62
     7
370
    15
100
AcDbLine
 10
185.7479638233
 20
-204.8202415357
 30
0.0
 11
185.7479638233
 21
-205.8202416997
 31
0.0
  0
LINE
  5
2C3
330
1F
100
AcDbEntity
  8
0
  6
Continuous
 62
     7
370
    15
100
AcDbLine
 10
215.7479352131
 20
-205.8202416997
 30
0.0
 11
215.7479352131
 21
-204.8202415357
 31
0.0
  0
LINE
  5
2C4
330
1F
100
AcDbEntity
  8
0
  6
Continuous
 62
     7
370
    15
100
AcDbLine
 10
190.9979409351
 20
-205.8202416997
 30
0.0
 11
190.9979409351
 21
-206.19024312
 31
0.0
  0
LINE
  5
2C5
330
1F
100
AcDbEntity
  8
0
  6
Continuous
 62
     7
370
    15
100
AcDbLine
 10
210.4979581013
 20
-206.19024312
 30
0.0
 11
210.4979581013
 21
-205.8202416997
 31
0.0
  0
LINE
  5
2C6
330
1F
100
AcDbEntity
  8
0
  6
Continuous
 62
     7
370
    15
100
AcDbLine
 10
191.167933382
 20
-206.6902422707
 30
0.0
 11
191.2979311123
 21
-206.8202418636
 31
0.0
  0
LINE
  5
2C7
330
1F
100
AcDbEntity
  8
0
  6
Continuous
 62
     7
370
    15
100
AcDbLine
 10
210.1979679241
 20
-206.8202418636
 30
0.0
 11
210.3279656544
 21
-206.6902422707
 31
0.0
  0
LINE
  5
2C8
330
1F
100
AcDbEntity
  8
0
  6
Continuous
 62
     7
370
    15
100
AcDbLine
 10
-470.3020476923
 20
-225.4502435575
 30
0.0
 11
-470.3020476923
 21
-224.9502425443
 31
0.0
  0
LINE
  5
2C9
330
1F
100
AcDbEntity
  8
0
  6
Continuous
 62
     7
370
    15
100
AcDbLine
 10
-528.2020508499
 20
-224.9502425443
 30
0.0
 11
-528.2020508499
 21
-225.4502435575
 31
0.0
  0
LINE
  5
2CA
330
1F
100
AcDbEntity
  8
0
  6
Continuous
 62
     7
370
    15
100
AcDbLine
 10
229.6979254856
 20
-225.4502435575
 30
0.0
 11
229.6979254856
 21
-224.9502425443
 31
0.0
  0
LINE
  5
2CB
330
1F
100
AcDbEntity
  8
0
  6
Continuous
 62
     7
370
    15
100
AcDbLine
 10
171.7979735508
 20
-224.9502425443
 30
0.0
 11
171.7979735508
 21
-225.4502435575
 31
0.0
  0
LINE
  5
2CC
330
1F
100
AcDbEntity
  8
0
  6
Continuous
 62
     7
370
    15
100
AcDbLine
 10
171.7979735508
 20
-206.19024312
 30
0.0
 11
171.7979735508
 21
-206.6902422707
 31
0.0
  0
LINE
  5
2CD
330
1F
100
AcDbEntity
  8
0
  6
Continuous
 62
     7
370
    15
100
AcDbLine
 10
229.6979254856
 20
-206.6902422707
 30
0.0
 11
229.6979254856
 21
-206.19024312
 31
0.0
  0
LINE
  5
2CE
330
1F
100
AcDbEntity
  8
0
  6
Continuous
 62
     7
370
    15
100
AcDbLine
 10
-528.2020508499
 20
-206.19024312
 30
0.0
 11
-528.2020508499
 21
-206.6902422707
 31
0.0
  0
LINE
  5
2CF
330
1F
100
AcDbEntity
  8
0
  6
Continuous
 62
     7
370
    15
100
AcDbLine
 10
-470.3020476923
 20
-206.6902422707
 30
0.0
 11
-470.3020476923
 21
-206.19024312
 31
0.0
  0
LINE
  5
2D0
330
1F
100
AcDbEntity
  8
0
  6
Continuous
 62
     7
370
    15
100
AcDbLine
 10
219.7479433193
 20
-226.3202441285
 30
0.0
 11
219.2479199543
 21
-225.8202431153
 31
0.0
  0
LINE
  5
2D1
330
1F
100
AcDbEntity
  8
0
  6
Continuous
 62
     7
370
    15
100
AcDbLine
 10
182.2479790821
 20
-225.8202431153
 30
0.0
 11
181.7479557171
 21
-226.3202441285
 31
0.0
  0
LINE
  5
2D2
330
1F
100
AcDbEntity
  8
0
  6
Continuous
 62
     7
370
    15
100
AcDbLine
 10
219.7479433193
 20
-245.4202396224
 30
0.0
 11
219.7479433193
 21
-226.3202441285
 31
0.0
  0
LINE
  5
2D3
330
1F
100
AcDbEntity
  8
0
  6
Continuous
 62
     7
370
    15
100
AcDbLine
 10
219.7479433193
 20
-263.3202446054
 30
0.0
 11
219.7479433193
 21
-252.1763888548
 31
0.0
  0
LINE
  5
2D4
330
1F
100
AcDbEntity
  8
0
  6
Continuous
 62
     7
370
    15
100
AcDbLine
 10
181.7479557171
 20
-252.1763888548
 30
0.0
 11
181.7479557171
 21
-263.3202446054
 31
0.0
  0
LINE
  5
2D5
330
1F
100
AcDbEntity
  8
0
  6
Continuous
 62
     7
370
    15
100
AcDbLine
 10
181.7479557171
 20
-226.3202441285
 30
0.0
 11
181.7479557171
 21
-245.4202396224
 31
0.0
  0
LINE
  5
2D6
330
1F
100
AcDbEntity
  8
0
  6
Continuous
 62
     7
370
    15
100
AcDbLine
 10
181.7479557171
 20
-263.3202446054
 30
0.0
 11
183.7479299679
 21
-265.3202412079
 31
0.0
  0
LINE
  5
2D7
330
1F
100
AcDbEntity
  8
0
  6
Continuous
 62
     7
370
    15
100
AcDbLine
 10
217.7479690685
 20
-265.3202412079
 30
0.0
 11
219.7479433193
 21
-263.3202446054
 31
0.0
  0
LINE
  5
2D8
330
1F
100
AcDbEntity
  8
0
  6
Continuous
 62
     7
370
    15
100
AcDbLine
 10
190.9979409351
 20
-225.4502435575
 30
0.0
 11
190.9979409351
 21
-225.8202431153
 31
0.0
  0
LINE
  5
2D9
330
1F
100
AcDbEntity
  8
0
  6
Continuous
 62
     7
370
    15
100
AcDbLine
 10
210.4979581013
 20
-225.8202431153
 30
0.0
 11
210.4979581013
 21
-225.4502435575
 31
0.0
  0
LINE
  5
2DA
330
1F
100
AcDbEntity
  8
0
  6
Continuous
 62
     7
370
    15
100
AcDbLine
 10
210.3279656544
 20
-224.9502425443
 30
0.0
 11
210.1979679241
 21
-224.8202410887
 31
0.0
  0
LINE
  5
2DB
330
1F
100
AcDbEntity
  8
0
  6
Continuous
 62
     7
370
    15
100
AcDbLine
 10
191.2979311123
 20
-224.8202410887
 30
0.0
 11
191.167933382
 21
-224.9502425443
 31
0.0
  0
LINE
  5
2DC
330
1F
100
AcDbEntity
  8
0
  6
Continuous
 62
     7
370
    15
100
AcDbLine
 10
-480.2520522103
 20
-226.3202441285
 30
0.0
 11
-480.7520494983
 21
-225.8202431153
 31
0.0
  0
LINE
  5
2DD
330
1F
100
AcDbEntity
  8
0
  6
Continuous
 62
     7
370
    15
100
AcDbLine
 10
-517.7520499752
 20
-225.8202431153
 30
0.0
 11
-518.2520509884
 21
-226.3202441285
 31
0.0
  0
LINE
  5
2DE
330
1F
100
AcDbEntity
  8
0
  6
Continuous
 62
     7
370
    15
100
AcDbLine
 10
-480.2520522103
 20
-245.4202396224
 30
0.0
 11
-480.2520522103
 21
-226.3202441285
 31
0.0
  0
LINE
  5
2DF
330
1F
100
AcDbEntity
  8
0
  6
Continuous
 62
     7
370
    15
100
AcDbLine
 10
-480.2520522103
 20
-263.3202446054
 30
0.0
 11
-480.2520522103
 21
-252.1763888548
 31
0.0
  0
LINE
  5
2E0
330
1F
100
AcDbEntity
  8
0
  6
Continuous
 62
     7
370
    15
100
AcDbLine
 10
-518.2520509884
 20
-252.1763888548
 30
0.0
 11
-518.2520509884
 21
-263.3202446054
 31
0.0
  0
LINE
  5
2E1
330
1F
100
AcDbEntity
  8
0
  6
Continuous
 62
     7
370
    15
100
AcDbLine
 10
-518.2520509884
 20
-226.3202441285
 30
0.0
 11
-518.2520509884
 21
-245.4202396224
 31
0.0
  0
LINE
  5
2E2
330
1F
100
AcDbEntity
  8
0
  6
Continuous
 62
     7
370
    15
100
AcDbLine
 10
-518.2520509884
 20
-263.3202446054
 30
0.0
 11
-516.2520506606
 21
-265.3202412079
 31
0.0
  0
LINE
  5
2E3
330
1F
100
AcDbEntity
  8
0
  6
Continuous
 62
     7
370
    15
100
AcDbLine
 10
-482.2520525382
 20
-265.3202412079
 30
0.0
 11
-480.2520522103
 21
-263.3202446054
 31
0.0
  0
LINE
  5
2E4
330
1F
100
AcDbEntity
  8
0
  6
Continuous
 62
     7
370
    15
100
AcDbLine
 10
-509.0020508692
 20
-225.4502435575
 30
0.0
 11
-509.0020508692
 21
-225.8202431153
 31
0.0
  0
LINE
  5
2E5
330
1F
100
AcDbEntity
  8
0
  6
Continuous
 62
     7
370
    15
100
AcDbLine
 10
-489.5020523295
 20
-225.8202431153
 30
0.0
 11
-489.5020523295
 21
-225.4502435575
 31
0.0
  0
LINE
  5
2E6
330
1F
100
AcDbEntity
  8
0
  6
Continuous
 62
     7
370
    15
100
AcDbLine
 10
-489.672052227
 20
-224.9502425443
 30
0.0
 11
-489.8020499573
 21
-224.8202410887
 31
0.0
  0
LINE
  5
2E7
330
1F
100
AcDbEntity
  8
0
  6
Continuous
 62
     7
370
    15
100
AcDbLine
 10
-508.7020513788
 20
-224.8202410887
 30
0.0
 11
-508.8320509717
 21
-224.9502425443
 31
0.0
  0
LINE
  5
2E8
330
1F
100
AcDbEntity
  8
0
  6
Continuous
 62
     7
370
    15
100
AcDbLine
 10
-484.2520491407
 20
-184.3202423665
 30
0.0
 11
-486.2520494685
 21
-182.3202423879
 31
0.0
  0
LINE
  5
2E9
330
1F
100
AcDbEntity
  8
0
  6
Continuous
 62
     7
370
    15
100
AcDbLine
 10
-514.2520503328
 20
-184.6413428324
 30
0.0
 11
-514.2520503328
 21
-186.3202422286
 31
0.0
  0
LINE
  5
2EA
330
1F
100
AcDbEntity
  8
0
  6
Continuous
 62
     7
370
    15
100
AcDbLine
 10
-484.2520491407
 20
-186.3202422286
 30
0.0
 11
-484.2520491407
 21
-184.3202423665
 31
0.0
  0
LINE
  5
2EB
330
1F
100
AcDbEntity
  8
0
  6
Continuous
 62
     7
370
    15
100
AcDbLine
 10
215.7479352131
 20
-184.3202423665
 30
0.0
 11
213.7479609623
 21
-182.3202423879
 31
0.0
  0
LINE
  5
2EC
330
1F
100
AcDbEntity
  8
0
  6
Continuous
 62
     7
370
    15
100
AcDbLine
 10
187.7479380741
 20
-182.3202423879
 30
0.0
 11
185.7479638233
 21
-184.3202423665
 31
0.0
  0
LINE
  5
2ED
330
1F
100
AcDbEntity
  8
0
  6
Continuous
 62
     7
370
    15
100
AcDbLine
 10
185.7479638233
 20
-184.3202423665
 30
0.0
 11
185.7479638233
 21
-186.3202422286
 31
0.0
  0
LINE
  5
2EE
330
1F
100
AcDbEntity
  8
0
  6
Continuous
 62
     7
370
    15
100
AcDbLine
 10
215.7479352131
 20
-186.3202422286
 30
0.0
 11
215.7479352131
 21
-184.3202423665
 31
0.0
  0
LINE
  5
2EF
330
1F
100
AcDbEntity
  8
0
  6
Continuous
 62
     7
370
    15
100
AcDbLine
 10
-470.2520542965
 20
-207.8406715195
 30
0.0
 11
-470.2520542965
 21
-206.8202418636
 31
0.0
  0
LINE
  5
2F0
330
1F
100
AcDbEntity
  8
0
  6
Continuous
 62
     7
370
    15
100
AcDbLine
 10
-528.2520507649
 20
-206.8202418636
 30
0.0
 11
-528.2520507649
 21
-207.8406715195
 31
0.0
  0
ARC
  5
2F1
330
1F
100
AcDbEntity
  8
0
  6
Continuous
 62
     7
370
    15
100
AcDbCircle
 10
-460.6520507079
 20
-215.8462937637
 30
0.0
 40
12.49999999999998
100
AcDbArc
 50
140.1746287392
 51
219.8253712608
  0
ARC
  5
2F2
330
1F
100
AcDbEntity
  8
0
  6
Continuous
 62
     7
370
    15
100
AcDbCircle
 10
-537.8520507079
 20
-215.8462937637
 30
0.0
 40
12.50000000000002
100
AcDbArc
 50
320.1746287392
 51
39.8253712608
  0
LINE
  5
2F3
330
1F
100
AcDbEntity
  8
0
  6
Continuous
 62
     7
370
    15
100
AcDbLine
 10
-470.2520542965
 20
-224.8202410887
 30
0.0
 11
-470.2520542965
 21
-223.8519152056
 31
0.0
  0
LINE
  5
2F4
330
1F
100
AcDbEntity
  8
0
  6
Continuous
 62
     7
370
    15
100
AcDbLine
 10
-528.2520507649
 20
-223.8519152056
 30
0.0
 11
-528.2520507649
 21
-224.8202410887
 31
0.0
  0
LINE
  5
2F5
330
1F
100
AcDbEntity
  8
0
  6
Continuous
 62
     7
370
    15
100
AcDbLine
 10
229.7479337826
 20
-207.8406715195
 30
0.0
 11
229.7479337826
 21
-206.8202418636
 31
0.0
  0
LINE
  5
2F6
330
1F
100
AcDbEntity
  8
0
  6
Continuous
 62
     7
370
    15
100
AcDbLine
 10
171.7479652538
 20
-206.8202418636
 30
0.0
 11
171.7479652538
 21
-207.8406715195
 31
0.0
  0
ARC
  5
2F7
330
1F
100
AcDbEntity
  8
0
  6
Continuous
 62
     7
370
    15
100
AcDbCircle
 10
239.3479492921
 20
-215.8462937637
 30
0.0
 40
12.49999999999995
100
AcDbArc
 50
140.1746287392
 51
219.8253712608
  0
ARC
  5
2F8
330
1F
100
AcDbEntity
  8
0
  6
Continuous
 62
     7
370
    15
100
AcDbCircle
 10
162.1479492921
 20
-215.8462937637
 30
0.0
 40
12.49999999999995
100
AcDbArc
 50
320.1746287392
 51
39.8253712608
  0
LINE
  5
2F9
330
1F
100
AcDbEntity
  8
0
  6
Continuous
 62
     7
370
    15
100
AcDbLine
 10
229.7479337826
 20
-224.8202410887
 30
0.0
 11
229.7479337826
 21
-223.8519152056
 31
0.0
  0
LINE
  5
2FA
330
1F
100
AcDbEntity
  8
0
  6
Continuous
 62
     7
370
    15
100
AcDbLine
 10
171.7479652538
 20
-223.8519152056
 30
0.0
 11
171.7479652538
 21
-224.8202410887
 31
0.0
  0
LINE
  5
2FB
330
1F
100
AcDbEntity
  8
0
  6
Continuous
 62
     7
370
    15
100
AcDbLine
 10
1498.2063001766
 20
-228.3202407311
 30
0.0
 11
1499.2062276974
 21
-229.3202427576
 31
0.0
  0
LINE
  5
2FC
330
1F
100
AcDbEntity
  8
0
  6
Continuous
 62
     7
370
    15
100
AcDbLine
 10
1512.1061033382
 20
-229.3202427576
 30
0.0
 11
1513.1062692776
 21
-228.3202407311
 31
0.0
  0
LINE
  5
2FD
330
1F
100
AcDbEntity
  8
0
  6
Continuous
 62
     7
370
    15
100
AcDbLine
 10
-541.7937962525
 20
-228.3202407311
 30
0.0
 11
-540.7937965543
 21
-229.3202427576
 31
0.0
  0
LINE
  5
2FE
330
1F
100
AcDbEntity
  8
0
  6
Continuous
 62
     7
370
    15
100
AcDbLine
 10
-527.8937961162
 20
-229.3202427576
 30
0.0
 11
-526.8937964179
 21
-228.3202407311
 31
0.0
  0
LINE
  5
2FF
330
1F
100
AcDbEntity
  8
0
  6
Continuous
 62
     7
370
    15
100
AcDbLine
 10
818.2062334194
 20
-228.3202407311
 30
0.0
 11
819.2061609402
 21
-229.3202427576
 31
0.0
  0
LINE
  5
300
330
1F
100
AcDbEntity
  8
0
  6
Continuous
 62
     7
370
    15
100
AcDbLine
 10
832.1061557903
 20
-229.3202427576
 30
0.0
 11
833.1062025204
 21
-228.3202407311
 31
0.0
  0
LINE
  5
301
330
1F
100
AcDbEntity
  8
0
  6
Continuous
 62
     7
370
    15
100
AcDbLine
 10
138.2062262669
 20
-228.3202407311
 30
0.0
 11
139.2062133923
 21
-229.3202427576
 31
0.0
  0
LINE
  5
302
330
1F
100
AcDbEntity
  8
0
  6
Continuous
 62
     7
370
    15
100
AcDbLine
 10
152.1062082424
 20
-229.3202427576
 30
0.0
 11
153.1061953678
 21
-228.3202407311
 31
0.0
  0
LINE
  5
303
330
1F
100
AcDbEntity
  8
0
  6
Continuous
 62
     7
370
    15
100
AcDbLine
 10
818.1561655178
 20
-185.3202425304
 30
0.0
 11
818.1561655178
 21
-203.3202422212
 31
0.0
  0
LINE
  5
304
330
1F
100
AcDbEntity
  8
0
  6
Continuous
 62
     7
370
    15
100
AcDbLine
 10
833.1561512127
 20
-203.3202422212
 30
0.0
 11
833.1561512127
 21
-185.3202425304
 31
0.0
  0
LINE
  5
305
330
1F
100
AcDbEntity
  8
0
  6
Continuous
 62
     7
370
    15
100
AcDbLine
 10
138.1562179699
 20
-185.3202425304
 30
0.0
 11
138.1562179699
 21
-203.3202422212
 31
0.0
  0
LINE
  5
306
330
1F
100
AcDbEntity
  8
0
  6
Continuous
 62
     7
370
    15
100
AcDbLine
 10
153.1562036648
 20
-203.3202422212
 30
0.0
 11
153.1562036648
 21
-185.3202425304
 31
0.0
  0
LINE
  5
307
330
1F
100
AcDbEntity
  8
0
  6
Continuous
 62
     7
370
    15
100
AcDbLine
 10
1498.156232275
 20
-185.3202425304
 30
0.0
 11
1498.156232275
 21
-203.3202422212
 31
0.0
  0
LINE
  5
308
330
1F
100
AcDbEntity
  8
0
  6
Continuous
 62
     7
370
    15
100
AcDbLine
 10
1513.1560987606
 20
-203.3202422212
 30
0.0
 11
1513.1560987606
 21
-185.3202425304
 31
0.0
  0
LINE
  5
309
330
1F
100
AcDbEntity
  8
0
  6
Continuous
 62
     7
370
    15
100
AcDbLine
 10
-541.8437961676
 20
-185.3202425304
 30
0.0
 11
-541.8437961676
 21
-203.3202422212
 31
0.0
  0
LINE
  5
30A
330
1F
100
AcDbEntity
  8
0
  6
Continuous
 62
     7
370
    15
100
AcDbLine
 10
-526.8437965029
 20
-203.3202422212
 30
0.0
 11
-526.8437965029
 21
-185.3202425304
 31
0.0
  0
LINE
  5
30B
330
1F
100
AcDbEntity
  8
0
  6
Continuous
 62
     7
370
    15
100
AcDbLine
 10
1475.656194128
 20
-181.3202423404
 30
0.0
 11
1475.656194128
 21
-183.3202424354
 31
0.0
  0
LINE
  5
30C
330
1F
100
AcDbEntity
  8
0
  6
Continuous
 62
     7
370
    15
100
AcDbLine
 10
1535.6561369076
 20
-183.3202424354
 30
0.0
 11
1535.6561369076
 21
-181.3202423404
 31
0.0
  0
LINE
  5
30D
330
1F
100
AcDbEntity
  8
0
  6
Continuous
 62
     7
370
    15
100
AcDbLine
 10
1475.656194128
 20
-183.3202424354
 30
0.0
 11
1490.6562990322
 21
-185.3202425304
 31
0.0
  0
LINE
  5
30E
330
1F
100
AcDbEntity
  8
0
  6
Continuous
 62
     7
370
    15
100
AcDbLine
 10
1520.656270422
 20
-185.3202425304
 30
0.0
 11
1535.6561369076
 21
-183.3202424354
 31
0.0
  0
LINE
  5
30F
330
1F
100
AcDbEntity
  8
0
  6
Continuous
 62
     7
370
    15
100
AcDbLine
 10
115.6561798229
 20
-181.3202423404
 30
0.0
 11
115.6561798229
 21
-183.3202424354
 31
0.0
  0
LINE
  5
310
330
1F
100
AcDbEntity
  8
0
  6
Continuous
 62
     7
370
    15
100
AcDbLine
 10
175.6561822071
 20
-183.3202424354
 30
0.0
 11
175.6561822071
 21
-181.3202423404
 31
0.0
  0
LINE
  5
311
330
1F
100
AcDbEntity
  8
0
  6
Continuous
 62
     7
370
    15
100
AcDbLine
 10
115.6561798229
 20
-183.3202424354
 30
0.0
 11
130.6562251225
 21
-185.3202425304
 31
0.0
  0
LINE
  5
312
330
1F
100
AcDbEntity
  8
0
  6
Continuous
 62
     7
370
    15
100
AcDbLine
 10
160.6561965122
 20
-185.3202425304
 30
0.0
 11
175.6561822071
 21
-183.3202424354
 31
0.0
  0
LINE
  5
313
330
1F
100
AcDbEntity
  8
0
  6
Continuous
 62
     7
370
    15
100
AcDbLine
 10
795.6562465801
 20
-181.3202423404
 30
0.0
 11
795.6562465801
 21
-183.3202424354
 31
0.0
  0
LINE
  5
314
330
1F
100
AcDbEntity
  8
0
  6
Continuous
 62
     7
370
    15
100
AcDbLine
 10
855.6561893597
 20
-183.3202424354
 30
0.0
 11
855.6561893597
 21
-181.3202423404
 31
0.0
  0
LINE
  5
315
330
1F
100
AcDbEntity
  8
0
  6
Continuous
 62
     7
370
    15
100
AcDbLine
 10
795.6562465801
 20
-183.3202424354
 30
0.0
 11
810.656232275
 21
-185.3202425304
 31
0.0
  0
LINE
  5
316
330
1F
100
AcDbEntity
  8
0
  6
Continuous
 62
     7
370
    15
100
AcDbLine
 10
840.6562036648
 20
-185.3202425304
 30
0.0
 11
855.6561893597
 21
-183.3202424354
 31
0.0
  0
LINE
  5
317
330
1F
100
AcDbEntity
  8
0
  6
Continuous
 62
     7
370
    15
100
AcDbLine
 10
-564.3437956647
 20
-181.3202423404
 30
0.0
 11
-564.3437956647
 21
-183.3202424354
 31
0.0
  0
LINE
  5
318
330
1F
100
AcDbEntity
  8
0
  6
Continuous
 62
     7
370
    15
100
AcDbLine
 10
-504.3437970058
 20
-183.3202424354
 30
0.0
 11
-504.3437970058
 21
-181.3202423404
 31
0.0
  0
LINE
  5
319
330
1F
100
AcDbEntity
  8
0
  6
Continuous
 62
     7
370
    15
100
AcDbLine
 10
-564.3437956647
 20
-183.3202424354
 30
0.0
 11
-549.3437959999
 21
-185.3202425304
 31
0.0
  0
LINE
  5
31A
330
1F
100
AcDbEntity
  8
0
  6
Continuous
 62
     7
370
    15
100
AcDbLine
 10
-519.3437966705
 20
-185.3202425304
 30
0.0
 11
-504.3437970058
 21
-183.3202424354
 31
0.0
  0
LWPOLYLINE
  5
31B
330
1F
100
AcDbEntity
  8
0
  6
Continuous
 62
     7
370
    15
100
AcDbPolyline
 90
       13
 70
   128
 43
0.0
 10
818.1381649151
 20
-228.3011374424
 10
818.3755106106
 20
-228.1594683777
 10
819.232029356
 20
-227.6742269646
 10
820.7352584972
 20
-226.9316611241
 10
822.9992813244
 20
-226.1307684134
 10
825.0788873806
 20
-225.799258555
 10
827.2337144985
 20
-225.9066735755
 10
829.1162675991
 20
-226.366318519
 10
830.9404081478
 20
-227.0972353767
 10
832.4768966808
 20
-227.893747146
 10
833.1757015362
 20
-228.3018675993
 10
833.2062191143
 20
-228.3202407311
 10
833.2062191143
 20
-228.3202407311
  0
LWPOLYLINE
  5
31C
330
1F
100
AcDbEntity
  8
0
  6
Continuous
 62
     7
370
    15
100
AcDbPolyline
 90
       13
 70
   128
 43
0.0
 10
138.1381577625
 20
-228.3011374424
 10
138.3754438534
 20
-228.1594683777
 10
139.2320818081
 20
-227.6742269646
 10
140.73519174
 20
-226.9316611241
 10
142.9992145672
 20
-226.1307684134
 10
145.078880228
 20
-225.799258555
 10
147.233707346
 20
-225.9066735755
 10
149.1162604466
 20
-226.366318519
 10
150.9404605999
 20
-227.0972353767
 10
152.4768895283
 20
-227.893747146
 10
153.1757539883
 20
-228.3018675993
 10
153.2062119618
 20
-228.3202407311
 10
153.2062119618
 20
-228.3202407311
  0
LWPOLYLINE
  5
31D
330
1F
100
AcDbEntity
  8
0
  6
Continuous
 62
     7
370
    15
100
AcDbPolyline
 90
       13
 70
   128
 43
0.0
 10
1498.138112463
 20
-228.3011374424
 10
1498.3755773678
 20
-228.1594683777
 10
1499.2319769039
 20
-227.6742269646
 10
1500.7352060452
 20
-226.9316611241
 10
1502.9992288723
 20
-226.1307684134
 10
1505.0789541378
 20
-225.799258555
 10
1507.2337812557
 20
-225.9066735755
 10
1509.1163343563
 20
-226.366318519
 10
1510.940474905
 20
-227.0972353767
 10
1512.4768442287
 20
-227.893747146
 10
1513.1756490841
 20
-228.3018675993
 10
1513.2061666622
 20
-228.3202407311
 10
1513.2061666622
 20
-228.3202407311
  0
LWPOLYLINE
  5
31E
330
1F
100
AcDbEntity
  8
0
  6
Continuous
 62
     7
370
    15
100
AcDbPolyline
 90
       13
 70
   128
 43
0.0
 10
-541.8618377485
 20
-228.3011374424
 10
-541.6245269776
 20
-228.1594683777
 10
-540.7679244131
 20
-227.6742269646
 10
-539.2647823506
 20
-226.9316611241
 10
-537.0007609204
 20
-226.1307684134
 10
-534.9211059698
 20
-225.799258555
 10
-532.7662663954
 20
-225.9066735755
 10
-530.8837113157
 20
-226.366318519
 10
-529.0595642478
 20
-227.0972353767
 10
-527.5230892189
 20
-227.893747146
 10
-526.8242559583
 20
-228.3018675993
 10
-526.7937961221
 20
-228.3202407311
 10
-526.7937961221
 20
-228.3202407311
  0
LINE
  5
31F
330
1F
100
AcDbEntity
  8
0
  6
Continuous
 62
     7
370
    15
100
AcDbLine
 10
-663.3437895403
 20
-203.3202422212
 30
0.0
 11
-663.3437895403
 21
-228.3202407311
 31
0.0
  0
LINE
  5
320
330
1F
100
AcDbEntity
  8
0
  6
Continuous
 62
     7
370
    15
100
AcDbLine
 10
1634.6561140194
 20
-228.3202407311
 30
0.0
 11
1634.6561140194
 21
-203.3202422212
 31
0.0
  0
LINE
  5
321
330
1F
100
AcDbEntity
  8
0
  6
Continuous
 62
     7
370
    15
100
AcDbLine
 10
1635.6562799587
 20
-204.3202423851
 30
0.0
 11
1635.6562799587
 21
-227.3202424298
 31
0.0
  0
LINE
  5
322
330
1F
100
AcDbEntity
  8
0
  6
Continuous
 62
     7
370
    15
100
AcDbLine
 10
-664.3437915668
 20
-227.3202424298
 30
0.0
 11
-664.3437915668
 21
-204.3202423851
 31
0.0
  0
LINE
  5
323
330
1F
100
AcDbEntity
  8
0
  6
Continuous
 62
     7
370
    15
100
AcDbLine
 10
1561.9560903683
 20
-200.8202427427
 30
0.0
 11
1609.3560880795
 21
-200.8202427427
 31
0.0
  0
LINE
  5
324
330
1F
100
AcDbEntity
  8
0
  6
Continuous
 62
     7
370
    15
100
AcDbLine
 10
1609.6562570705
 20
-201.1202422331
 30
0.0
 11
1561.6561597958
 21
-201.1202422331
 31
0.0
  0
LINE
  5
325
330
1F
100
AcDbEntity
  8
0
  6
Continuous
 62
     7
370
    15
100
AcDbLine
 10
1607.9048341885
 20
-203.2202423911
 30
0.0
 11
1608.39621488
 21
-203.3202422212
 31
0.0
  0
LWPOLYLINE
  5
326
330
1F
100
AcDbEntity
  8
0
  6
Continuous
 62
     7
370
    15
100
AcDbPolyline
 90
       19
 70
   128
 43
0.0
 10
1607.8519052639
 20
-228.340938444
 10
1607.6199239864
 20
-228.4021822165
 10
1605.7185358181
 20
-227.7094868372
 10
1604.1003889217
 20
-226.6996016155
 10
1602.3024744167
 20
-225.3100608836
 10
1600.4625982418
 20
-223.6291800986
 10
1598.6267751827
 20
-221.605788673
 10
1597.1020883694
 20
-219.352137054
 10
1596.2511724606
 20
-217.1009105991
 10
1596.1488908901
 20
-215.2010572503
 10
1596.6004556789
 20
-213.3694027911
 10
1598.1380170956
 20
-210.6689677934
 10
1599.9020761623
 20
-208.5835856746
 10
1601.799888052
 20
-206.7627345572
 10
1603.7205881252
 20
-205.2134179871
 10
1605.5595106258
 20
-204.0176053892
 10
1606.8143076077
 20
-203.4373038809
 10
1607.9048341885
 20
-203.2202423911
 10
1607.9048341885
 20
-203.2202423911
  0
SPLINE
  5
327
330
1F
100
AcDbEntity
  8
0
  6
Continuous
 62
     7
370
    15
100
AcDbSpline
210
0.0
220
0.0
230
1.0
 70
     8
 71
     3
 72
    27
 73
    23
 74
     0
 42
0.000000001
 43
0.00000001
 40
0.0
 40
0.0
 40
0.0
 40
0.0
 40
0.0101269821554777
 40
0.0899668455520513
 40
0.1448279509636073
 40
0.2012684463791999
 40
0.2573073020388896
 40
0.3144359067154965
 40
0.3999243048023634
 40
0.4514048662223334
 40
0.4914911849439678
 40
0.531689552770388
 40
0.5876394723796002
 40
0.639291486293297
 40
0.6922215861240859
 40
0.7493306830772385
 40
0.8075980444874139
 40
0.8593330450892409
 40
0.9123850729398889
 40
0.9549983540015453
 40
0.9987747625714832
 40
1.0
 40
1.0
 40
1.0
 40
1.0
 10
1563.074511922841
 20
-203.3202422211984
 30
0.0
 10
1563.118596919003
 20
-203.2878399262335
 30
0.0
 10
1563.510242522796
 20
-202.9999819817945
 30
0.0
 10
1564.664212558652
 20
-203.4542090215985
 30
0.0
 10
1566.289791523742
 20
-204.2851854257114
 30
0.0
 10
1567.899560014896
 20
-205.4095209613511
 30
0.0
 10
1569.612636386244
 20
-206.8118824091675
 30
0.0
 10
1571.648602932864
 20
-208.7554084393887
 30
0.0
 10
1573.578674836328
 20
-211.0226117018594
 30
0.0
 10
1574.89937894868
 20
-213.5570428514823
 30
0.0
 10
1575.307450034983
 20
-215.7144881536238
 30
0.0
 10
1574.959816231679
 20
-217.9628214756437
 30
0.0
 10
1573.863151664175
 20
-220.0967407897638
 30
0.0
 10
1572.36011939937
 20
-222.0634171312998
 30
0.0
 10
1570.724054463382
 20
-223.7968759710776
 30
0.0
 10
1568.997626961429
 20
-225.3578720945141
 30
0.0
 10
1567.332538789515
 20
-226.6495326055215
 30
0.0
 10
1565.818138027208
 20
-227.6231195620419
 30
0.0
 10
1564.581338640402
 20
-228.2223659270382
 30
0.0
 10
1563.603742346281
 20
-228.436431730813
 30
0.0
 10
1563.045188591861
 20
-228.4660994389017
 30
0.0
 10
1562.850455160019
 20
-228.3241066968331
 30
0.0
 10
1562.845153249745
 20
-228.3202407310823
 30
0.0
  0
LINE
  5
328
330
1F
100
AcDbEntity
  8
0
  6
Continuous
 62
     7
370
    15
100
AcDbLine
 10
1561.6561597958
 20
-237.0202427159
 30
0.0
 11
1609.6562570705
 21
-237.0202427159
 31
0.0
  0
LINE
  5
329
330
1F
100
AcDbEntity
  8
0
  6
Continuous
 62
     7
370
    15
100
AcDbLine
 10
1560.656232275
 20
-230.0152440916
 30
0.0
 11
1560.656232275
 21
-228.3202407311
 31
0.0
  0
LINE
  5
32A
330
1F
100
AcDbEntity
  8
0
  6
Continuous
 62
     7
370
    15
100
AcDbLine
 10
-579.3437981234
 20
-228.3202407311
 30
0.0
 11
-579.3437981234
 21
-230.0152440916
 31
0.0
  0
LINE
  5
32B
330
1F
100
AcDbEntity
  8
0
  6
Continuous
 62
     7
370
    15
100
AcDbLine
 10
1531.1562246456
 20
-228.4702432702
 30
0.0
 11
1531.1562246456
 21
-228.3202407311
 31
0.0
  0
LINE
  5
32C
330
1F
100
AcDbEntity
  8
0
  6
Continuous
 62
     7
370
    15
100
AcDbLine
 10
-549.8437960819
 20
-228.3202407311
 30
0.0
 11
-549.8437960819
 21
-228.4702432702
 31
0.0
  0
LINE
  5
32D
330
1F
100
AcDbEntity
  8
0
  6
Continuous
 62
     7
370
    15
100
AcDbLine
 10
1593.5377306118
 20
-237.5202437292
 30
0.0
 11
1561.6561597958
 21
-237.5202437292
 31
0.0
  0
LINE
  5
32E
330
1F
100
AcDbEntity
  8
0
  6
Continuous
 62
     7
370
    15
100
AcDbLine
 10
1609.6562570705
 20
-237.5202437292
 30
0.0
 11
1593.5377306118
 21
-237.5202437292
 31
0.0
  0
LINE
  5
32F
330
1F
100
AcDbEntity
  8
0
  6
Continuous
 62
     7
370
    15
100
AcDbLine
 10
1593.4721655026
 20
-237.3202440689
 30
0.0
 11
1609.4562238827
 21
-237.3202440689
 31
0.0
  0
LINE
  5
330
330
1F
100
AcDbEntity
  8
0
  6
Continuous
 62
     7
370
    15
100
AcDbLine
 10
1561.8561929836
 20
-237.3202440689
 30
0.0
 11
1593.4721655026
 21
-237.3202440689
 31
0.0
  0
LINE
  5
331
330
1F
100
AcDbEntity
  8
0
  6
Continuous
 62
     7
370
    15
100
AcDbLine
 10
1593.5377306118
 20
-240.8202437113
 30
0.0
 11
1609.6562570705
 21
-240.8202437113
 31
0.0
  0
LINE
  5
332
330
1F
100
AcDbEntity
  8
0
  6
Continuous
 62
     7
370
    15
100
AcDbLine
 10
1561.6561597958
 20
-240.8202437113
 30
0.0
 11
1593.5377306118
 21
-240.8202437113
 31
0.0
  0
LINE
  5
333
330
1F
100
AcDbEntity
  8
0
  6
Continuous
 62
     7
370
    15
100
AcDbLine
 10
1592.881125845
 20
-242.8202440391
 30
0.0
 11
1563.6562532558
 21
-242.8202440391
 31
0.0
  0
LINE
  5
334
330
1F
100
AcDbEntity
  8
0
  6
Continuous
 62
     7
370
    15
100
AcDbLine
 10
1607.6561636105
 20
-242.8202440391
 30
0.0
 11
1592.881125845
 21
-242.8202440391
 31
0.0
  0
LINE
  5
335
330
1F
100
AcDbEntity
  8
0
  6
Continuous
 62
     7
370
    15
100
AcDbLine
 10
-580.3437964246
 20
-237.5202437292
 30
0.0
 11
-628.3437931166
 21
-237.5202437292
 31
0.0
  0
LINE
  5
336
330
1F
100
AcDbEntity
  8
0
  6
Continuous
 62
     7
370
    15
100
AcDbLine
 10
-628.1437971816
 20
-237.3202440689
 30
0.0
 11
-580.5437960849
 21
-237.3202440689
 31
0.0
  0
LINE
  5
337
330
1F
100
AcDbEntity
  8
0
  6
Continuous
 62
     7
370
    15
100
AcDbLine
 10
-628.3437931166
 20
-240.8202437113
 30
0.0
 11
-580.3437964246
 21
-240.8202437113
 31
0.0
  0
LINE
  5
338
330
1F
100
AcDbEntity
  8
0
  6
Continuous
 62
     7
370
    15
100
AcDbLine
 10
-582.3437967524
 20
-242.8202440391
 30
0.0
 11
-626.343796514
 21
-242.8202440391
 31
0.0
  0
LINE
  5
339
330
1F
100
AcDbEntity
  8
0
  6
Continuous
 62
     7
370
    15
100
AcDbLine
 10
1561.0562986507
 20
-203.1202425609
 30
0.0
 11
1561.0562986507
 21
-203.3202422212
 31
0.0
  0
LINE
  5
33A
330
1F
100
AcDbEntity
  8
0
  6
Continuous
 62
     7
370
    15
100
AcDbLine
 10
-579.7437974439
 20
-203.3202422212
 30
0.0
 11
-579.7437974439
 21
-203.1202425609
 31
0.0
  0
LINE
  5
33B
330
1F
100
AcDbEntity
  8
0
  6
Continuous
 62
     7
370
    15
100
AcDbLine
 10
-577.3437977955
 20
-203.3202422212
 30
0.0
 11
-577.3437977955
 21
-203.0202427308
 31
0.0
  0
LINE
  5
33C
330
1F
100
AcDbEntity
  8
0
  6
Continuous
 62
     7
370
    15
100
AcDbLine
 10
-573.8437981532
 20
-203.3202422212
 30
0.0
 11
-573.8437981532
 21
-203.0202427308
 31
0.0
  0
LINE
  5
33D
330
1F
100
AcDbEntity
  8
0
  6
Continuous
 62
     7
370
    15
100
AcDbLine
 10
-628.0437954888
 20
-200.8202427427
 30
0.0
 11
-580.6437977776
 21
-200.8202427427
 31
0.0
  0
LINE
  5
33E
330
1F
100
AcDbEntity
  8
0
  6
Continuous
 62
     7
370
    15
100
AcDbLine
 10
-580.3437964246
 20
-201.1202422331
 30
0.0
 11
-628.3437931166
 21
-201.1202422331
 31
0.0
  0
LINE
  5
33F
330
1F
100
AcDbEntity
  8
0
  6
Continuous
 62
     7
370
    15
100
AcDbLine
 10
-582.0952006803
 20
-203.2202423911
 30
0.0
 11
-581.60370823
 21
-203.3202422212
 31
0.0
  0
LWPOLYLINE
  5
340
330
1F
100
AcDbEntity
  8
0
  6
Continuous
 62
     7
370
    15
100
AcDbPolyline
 90
       19
 70
   128
 43
0.0
 10
-582.1479768679
 20
-228.340938444
 10
-582.3800512776
 20
-228.4021822165
 10
-584.2814543471
 20
-227.7094868372
 10
-585.8995192871
 20
-226.6996016155
 10
-587.697497122
 20
-225.3100608836
 10
-589.5374366269
 20
-223.6291800986
 10
-591.3732485101
 20
-221.605788673
 10
-592.8979763017
 20
-219.352137054
 10
-593.7487655506
 20
-217.1009105991
 10
-593.8510657475
 20
-215.2010572503
 10
-593.3994637058
 20
-213.3694027911
 10
-591.8619805202
 20
-210.6689677934
 10
-590.0978655741
 20
-208.5835856746
 10
-588.2002250478
 20
-206.7627345572
 10
-586.2793424354
 20
-205.2134179871
 10
-584.4404683635
 20
-204.0176053892
 10
-583.1858054922
 20
-203.4373038809
 10
-582.0952006803
 20
-203.2202423911
 10
-582.0952006803
 20
-203.2202423911
  0
SPLINE
  5
341
330
1F
100
AcDbEntity
  8
0
  6
Continuous
 62
     7
370
    15
100
AcDbSpline
210
0.0
220
0.0
230
1.0
 70
     8
 71
     3
 72
    27
 73
    23
 74
     0
 42
0.000000001
 43
0.00000001
 40
0.0
 40
0.0
 40
0.0
 40
0.0
 40
0.0101268250549808
 40
0.0899661753638014
 40
0.1448262139659851
 40
0.2012685165632656
 40
0.2573065855526377
 40
0.3144344871249827
 40
0.3999243625335807
 40
0.4514050972752351
 40
0.4914908830975054
 40
0.5316893070527936
 40
0.5876377645266698
 40
0.6392893993948855
 40
0.6922213035374885
 40
0.7493305443242996
 40
0.8075974992863922
 40
0.859332715813489
 40
0.9123850195937961
 40
0.954998140598944
 40
0.9987741571255577
 40
1.0
 40
1.0
 40
1.0
 40
1.0
 10
-626.9253813848449
 20
-203.3202422211984
 30
0.0
 10
-626.8813068541235
 20
-203.2878399861664
 30
0.0
 10
-626.4897510665555
 20
-202.9999802529088
 30
0.0
 10
-625.33571989645
 20
-203.4541943044368
 30
0.0
 10
-623.7103430822852
 20
-204.2852196879438
 30
0.0
 10
-622.1003560357303
 20
-205.4094827480954
 30
0.0
 10
-620.3873876885948
 20
-206.8118847511942
 30
0.0
 10
-618.3514674411241
 20
-208.7554494996839
 30
0.0
 10
-616.4213141977215
 20
-211.0225925416224
 30
0.0
 10
-615.1004912218385
 20
-213.5570186491331
 30
0.0
 10
-614.6926979016908
 20
-215.7145107553043
 30
0.0
 10
-615.0403048642447
 20
-217.9627780785541
 30
0.0
 10
-616.1367604976092
 20
-220.0967667700453
 30
0.0
 10
-617.639768102422
 20
-222.0634613270778
 30
0.0
 10
-619.27599302833
 20
-223.7968391405504
 30
0.0
 10
-621.0024152764356
 20
-225.3578690724441
 30
0.0
 10
-622.6674486796526
 20
-226.6495389695579
 30
0.0
 10
-624.1819328462371
 20
-227.6231222228998
 30
0.0
 10
-625.4185234791696
 20
-228.2223536701962
 30
0.0
 10
-626.396827225548
 20
-228.4364620559907
 30
0.0
 10
-626.9535539940384
 20
-228.4660302948978
 30
0.0
 10
-627.1495791796881
 20
-228.3241067051449
 30
0.0
 10
-627.1549188718749
 20
-228.3202407310823
 30
0.0
  0
LINE
  5
342
330
1F
100
AcDbEntity
  8
0
  6
Continuous
 62
     7
370
    15
100
AcDbLine
 10
-628.3437931166
 20
-237.0202427159
 30
0.0
 11
-580.3437964246
 21
-237.0202427159
 31
0.0
  0
LINE
  5
343
330
1F
100
AcDbEntity
  8
0
  6
Continuous
 62
     7
370
    15
100
AcDbLine
 10
300.7479733601
 20
-231.3202430855
 30
0.0
 11
219.7479433193
 21
-231.3202430855
 31
0.0
  0
LINE
  5
344
330
1F
100
AcDbEntity
  8
0
  6
Continuous
 62
     7
370
    15
100
AcDbLine
 10
181.7479557171
 20
-231.3202430855
 30
0.0
 11
-480.2520522103
 21
-231.3202430855
 31
0.0
  0
LINE
  5
345
330
1F
100
AcDbEntity
  8
0
  6
Continuous
 62
     7
370
    15
100
AcDbLine
 10
-518.2520509884
 20
-231.3202430855
 30
0.0
 11
-580.3437964246
 21
-231.3202430855
 31
0.0
  0
LINE
  5
346
330
1F
100
AcDbEntity
  8
0
  6
Continuous
 62
     7
370
    15
100
AcDbLine
 10
-599.2520475016
 20
-200.8202427427
 30
0.0
 11
-599.2520475016
 21
-186.3202422286
 31
0.0
  0
LINE
  5
347
330
1F
100
AcDbEntity
  8
0
  6
Continuous
 62
     7
370
    15
100
AcDbLine
 10
300.7479733601
 20
-186.3202422286
 30
0.0
 11
153.1562036648
 21
-186.3202422286
 31
0.0
  0
LINE
  5
348
330
1F
100
AcDbEntity
  8
0
  6
Continuous
 62
     7
370
    15
100
AcDbLine
 10
138.1562179699
 20
-186.3202422286
 30
0.0
 11
-526.8437965029
 21
-186.3202422286
 31
0.0
  0
LINE
  5
349
330
1F
100
AcDbEntity
  8
0
  6
Continuous
 62
     7
370
    15
100
AcDbLine
 10
-541.8437961676
 20
-186.3202422286
 30
0.0
 11
-599.2520475016
 21
-186.3202422286
 31
0.0
  0
LINE
  5
34A
330
1F
100
AcDbEntity
  8
0
  6
Continuous
 62
     7
370
    15
100
AcDbLine
 10
300.7479733601
 20
-231.3202430855
 30
0.0
 11
300.7479733601
 21
-228.3202407311
 31
0.0
  0
LINE
  5
34B
330
1F
100
AcDbEntity
  8
0
  6
Continuous
 62
     7
370
    15
100
AcDbLine
 10
300.7479733601
 20
-203.3202422212
 30
0.0
 11
300.7479733601
 21
-186.3202422286
 31
0.0
  0
LINE
  5
34C
330
1F
100
AcDbEntity
  8
0
  6
Continuous
 62
     7
370
    15
100
AcDbLine
 10
200.7479495182
 20
-201.5202415536
 30
0.0
 11
208.7479657307
 21
-201.5202415536
 31
0.0
  0
LINE
  5
34D
330
1F
100
AcDbEntity
  8
0
  6
Continuous
 62
     7
370
    15
100
AcDbLine
 10
192.7479333057
 20
-201.5202415536
 30
0.0
 11
200.7479495182
 21
-201.5202415536
 31
0.0
  0
LINE
  5
34E
330
1F
100
AcDbEntity
  8
0
  6
Continuous
 62
     7
370
    15
100
AcDbLine
 10
-499.2520497367
 20
-201.5202415536
 30
0.0
 11
-491.2520521507
 21
-201.5202415536
 31
0.0
  0
LINE
  5
34F
330
1F
100
AcDbEntity
  8
0
  6
Continuous
 62
     7
370
    15
100
AcDbLine
 10
-507.252051048
 20
-201.5202415536
 30
0.0
 11
-499.2520497367
 21
-201.5202415536
 31
0.0
  0
LINE
  5
350
330
1F
100
AcDbEntity
  8
0
  6
Continuous
 62
     7
370
    15
100
AcDbLine
 10
-494.8844076321
 20
-202.8202430706
 30
0.0
 11
-486.2520494685
 21
-202.8202430706
 31
0.0
  0
LINE
  5
351
330
1F
100
AcDbEntity
  8
0
  6
Continuous
 62
     7
370
    15
100
AcDbLine
 10
-512.252050005
 20
-202.8202430706
 30
0.0
 11
-494.8844076321
 21
-202.8202430706
 31
0.0
  0
LINE
  5
352
330
1F
100
AcDbEntity
  8
0
  6
Continuous
 62
     7
370
    15
100
AcDbLine
 10
-494.2124621198
 20
-204.8202415357
 30
0.0
 11
-514.2520503328
 21
-204.8202415357
 31
0.0
  0
LINE
  5
353
330
1F
100
AcDbEntity
  8
0
  6
Continuous
 62
     7
370
    15
100
AcDbLine
 10
-484.2520491407
 20
-204.8202415357
 30
0.0
 11
-494.2124621198
 21
-204.8202415357
 31
0.0
  0
LINE
  5
354
330
1F
100
AcDbEntity
  8
0
  6
Continuous
 62
     7
370
    15
100
AcDbLine
 10
-514.2520503328
 20
-205.8202416997
 30
0.0
 11
-484.2520491407
 21
-205.8202416997
 31
0.0
  0
LINE
  5
355
330
1F
100
AcDbEntity
  8
0
  6
Continuous
 62
     7
370
    15
100
AcDbLine
 10
205.1155990734
 20
-202.8202430706
 30
0.0
 11
213.7479609623
 21
-202.8202430706
 31
0.0
  0
LINE
  5
356
330
1F
100
AcDbEntity
  8
0
  6
Continuous
 62
     7
370
    15
100
AcDbLine
 10
187.7479380741
 20
-202.8202430706
 30
0.0
 11
205.1155990734
 21
-202.8202430706
 31
0.0
  0
LINE
  5
357
330
1F
100
AcDbEntity
  8
0
  6
Continuous
 62
     7
370
    15
100
AcDbLine
 10
205.787522234
 20
-204.8202415357
 30
0.0
 11
185.7479638233
 21
-204.8202415357
 31
0.0
  0
LINE
  5
358
330
1F
100
AcDbEntity
  8
0
  6
Continuous
 62
     7
370
    15
100
AcDbLine
 10
205.787522234
 20
-204.8202415357
 30
0.0
 11
215.7479352131
 21
-204.8202415357
 31
0.0
  0
LINE
  5
359
330
1F
100
AcDbEntity
  8
0
  6
Continuous
 62
     7
370
    15
100
AcDbLine
 10
185.7479638233
 20
-205.8202416997
 30
0.0
 11
215.7479352131
 21
-205.8202416997
 31
0.0
  0
LINE
  5
35A
330
1F
100
AcDbEntity
  8
0
  6
Continuous
 62
     7
370
    15
100
AcDbLine
 10
-526.0358904675
 20
-224.9502425443
 30
0.0
 11
-470.3020476923
 21
-224.9502425443
 31
0.0
  0
LINE
  5
35B
330
1F
100
AcDbEntity
  8
0
  6
Continuous
 62
     7
370
    15
100
AcDbLine
 10
-528.2020508499
 20
-224.9502425443
 30
0.0
 11
-526.0358904675
 21
-224.9502425443
 31
0.0
  0
LINE
  5
35C
330
1F
100
AcDbEntity
  8
0
  6
Continuous
 62
     7
370
    15
100
AcDbLine
 10
-526.0358904675
 20
-225.4502435575
 30
0.0
 11
-470.3020476923
 21
-225.4502435575
 31
0.0
  0
LINE
  5
35D
330
1F
100
AcDbEntity
  8
0
  6
Continuous
 62
     7
370
    15
100
AcDbLine
 10
-528.2020508499
 20
-225.4502435575
 30
0.0
 11
-526.0358904675
 21
-225.4502435575
 31
0.0
  0
LINE
  5
35E
330
1F
100
AcDbEntity
  8
0
  6
Continuous
 62
     7
370
    15
100
AcDbLine
 10
173.9641255512
 20
-225.4502435575
 30
0.0
 11
229.6979254856
 21
-225.4502435575
 31
0.0
  0
LINE
  5
35F
330
1F
100
AcDbEntity
  8
0
  6
Continuous
 62
     7
370
    15
100
AcDbLine
 10
171.7979735508
 20
-225.4502435575
 30
0.0
 11
173.9641255512
 21
-225.4502435575
 31
0.0
  0
LINE
  5
360
330
1F
100
AcDbEntity
  8
0
  6
Continuous
 62
     7
370
    15
100
AcDbLine
 10
173.9641255512
 20
-224.9502425443
 30
0.0
 11
229.6979254856
 21
-224.9502425443
 31
0.0
  0
LINE
  5
361
330
1F
100
AcDbEntity
  8
0
  6
Continuous
 62
     7
370
    15
100
AcDbLine
 10
171.7979735508
 20
-224.9502425443
 30
0.0
 11
173.9641255512
 21
-224.9502425443
 31
0.0
  0
LINE
  5
362
330
1F
100
AcDbEntity
  8
0
  6
Continuous
 62
     7
370
    15
100
AcDbLine
 10
173.7200445309
 20
-206.19024312
 30
0.0
 11
171.7979735508
 21
-206.19024312
 31
0.0
  0
LINE
  5
363
330
1F
100
AcDbEntity
  8
0
  6
Continuous
 62
     7
370
    15
100
AcDbLine
 10
229.6979254856
 20
-206.19024312
 30
0.0
 11
173.7200445309
 21
-206.19024312
 31
0.0
  0
LINE
  5
364
330
1F
100
AcDbEntity
  8
0
  6
Continuous
 62
     7
370
    15
100
AcDbLine
 10
173.7200445309
 20
-206.6902422707
 30
0.0
 11
171.7979735508
 21
-206.6902422707
 31
0.0
  0
LINE
  5
365
330
1F
100
AcDbEntity
  8
0
  6
Continuous
 62
     7
370
    15
100
AcDbLine
 10
229.6979254856
 20
-206.6902422707
 30
0.0
 11
173.7200445309
 21
-206.6902422707
 31
0.0
  0
LINE
  5
366
330
1F
100
AcDbEntity
  8
0
  6
Continuous
 62
     7
370
    15
100
AcDbLine
 10
-526.2799426169
 20
-206.19024312
 30
0.0
 11
-528.2020508499
 21
-206.19024312
 31
0.0
  0
LINE
  5
367
330
1F
100
AcDbEntity
  8
0
  6
Continuous
 62
     7
370
    15
100
AcDbLine
 10
-470.3020476923
 20
-206.19024312
 30
0.0
 11
-526.2799426169
 21
-206.19024312
 31
0.0
  0
LINE
  5
368
330
1F
100
AcDbEntity
  8
0
  6
Continuous
 62
     7
370
    15
100
AcDbLine
 10
-526.2799426169
 20
-206.6902422707
 30
0.0
 11
-528.2020508499
 21
-206.6902422707
 31
0.0
  0
LINE
  5
369
330
1F
100
AcDbEntity
  8
0
  6
Continuous
 62
     7
370
    15
100
AcDbLine
 10
-470.3020476923
 20
-206.6902422707
 30
0.0
 11
-526.2799426169
 21
-206.6902422707
 31
0.0
  0
LINE
  5
36A
330
1F
100
AcDbEntity
  8
0
  6
Continuous
 62
     7
370
    15
100
AcDbLine
 10
182.2479790821
 20
-225.8202431153
 30
0.0
 11
219.2479199543
 21
-225.8202431153
 31
0.0
  0
LINE
  5
36B
330
1F
100
AcDbEntity
  8
0
  6
Continuous
 62
     7
370
    15
100
AcDbLine
 10
219.7479433193
 20
-226.3202441285
 30
0.0
 11
181.7479557171
 21
-226.3202441285
 31
0.0
  0
LINE
  5
36C
330
1F
100
AcDbEntity
  8
0
  6
Continuous
 62
     7
370
    15
100
AcDbLine
 10
181.7479557171
 20
-263.3202446054
 30
0.0
 11
219.7479433193
 21
-263.3202446054
 31
0.0
  0
SPLINE
  5
36D
330
1F
100
AcDbEntity
  8
0
  6
Continuous
 62
     7
370
    15
100
AcDbSpline
210
0.0
220
0.0
230
1.0
 70
     8
 71
     3
 72
    17
 73
    13
 74
     0
 42
0.000000001
 43
0.00000001
 40
0.0
 40
0.0
 40
0.0
 40
0.0
 40
0.1062139097350589
 40
0.2123878399016001
 40
0.3195993169407754
 40
0.4275642928833358
 40
0.5343781734256033
 40
0.6399274964415832
 40
0.7460703498848913
 40
0.8537291841744
 40
0.9614856151907437
 40
1.0
 40
1.0
 40
1.0
 40
1.0
 10
181.7479557170915
 20
-245.4202396224359
 30
0.0
 10
181.7547622274571
 20
-245.4572218374176
 30
0.0
 10
181.7683726861764
 20
-245.5311723470481
 30
0.0
 10
181.8632406425315
 20
-246.1069294102268
 30
0.0
 10
181.9705955900563
 20
-246.9595302585794
 30
0.0
 10
182.0497616717647
 20
-248.0333605644809
 30
0.0
 10
182.0626571686689
 20
-249.1912081244592
 30
0.0
 10
182.0059839092904
 20
-250.2977994622115
 30
0.0
 10
181.9033094974214
 20
-251.2480347821041
 30
0.0
 10
181.8033513068115
 20
-251.9098140052299
 30
0.0
 10
181.7458248236499
 20
-252.2323723341474
 30
0.0
 10
181.7536451583929
 20
-252.1880573718813
 30
0.0
 10
181.7557043209123
 20
-252.1763888548235
 30
0.0
  0
ARC
  5
36E
330
1F
100
AcDbEntity
  8
0
  6
Continuous
 62
     7
370
    15
100
AcDbCircle
 10
238.583474254
 20
-248.8199210863
 30
0.0
 40
19.13988139062454
100
AcDbArc
 50
169.76866835
 51
190.0999070512
  0
LINE
  5
36F
330
1F
100
AcDbEntity
  8
0
  6
Continuous
 62
     7
370
    15
100
AcDbLine
 10
217.7479690685
 20
-265.3202412079
 30
0.0
 11
183.7479299679
 21
-265.3202412079
 31
0.0
  0
LINE
  5
370
330
1F
100
AcDbEntity
  8
0
  6
Continuous
 62
     7
370
    15
100
AcDbLine
 10
-517.7520499752
 20
-225.8202431153
 30
0.0
 11
-480.7520494983
 21
-225.8202431153
 31
0.0
  0
LINE
  5
371
330
1F
100
AcDbEntity
  8
0
  6
Continuous
 62
     7
370
    15
100
AcDbLine
 10
-480.2520522103
 20
-226.3202441285
 30
0.0
 11
-518.2520509884
 21
-226.3202441285
 31
0.0
  0
LINE
  5
372
330
1F
100
AcDbEntity
  8
0
  6
Continuous
 62
     7
370
    15
100
AcDbLine
 10
-518.2520509884
 20
-263.3202446054
 30
0.0
 11
-480.2520522103
 21
-263.3202446054
 31
0.0
  0
SPLINE
  5
373
330
1F
100
AcDbEntity
  8
0
  6
Continuous
 62
     7
370
    15
100
AcDbSpline
210
0.0
220
0.0
230
1.0
 70
     8
 71
     3
 72
    17
 73
    13
 74
     0
 42
0.000000001
 43
0.00000001
 40
0.0
 40
0.0
 40
0.0
 40
0.0
 40
0.1062138411056606
 40
0.212387857363903
 40
0.3195994241817035
 40
0.4275642705021199
 40
0.5343781757830998
 40
0.6399275624864252
 40
0.7460703397096452
 40
0.8537291410614674
 40
0.9614856045908274
 40
1.0
 40
1.0
 40
1.0
 40
1.0
 10
-518.252050988431
 20
-245.4202396224359
 30
0.0
 10
-518.24525338228
 20
-245.4572218997502
 30
0.0
 10
-518.2316607187382
 20
-245.531172587885
 30
0.0
 10
-518.1367707541348
 20
-246.106929617
 30
0.0
 10
-518.0293873881036
 20
-246.9595289194249
 30
0.0
 10
-517.9502797227585
 20
-248.0333616343642
 30
0.0
 10
-517.9372912326738
 20
-249.1912083352509
 30
0.0
 10
-517.9940210789407
 20
-250.2977986129299
 30
0.0
 10
-518.0966726389362
 20
-251.2480350852863
 30
0.0
 10
-518.1966207620696
 20
-251.9098141473626
 30
0.0
 10
-518.2541885720248
 20
-252.2323723295004
 30
0.0
 10
-518.2463349275699
 20
-252.1880573707324
 30
0.0
 10
-518.2442669943524
 20
-252.1763888548235
 30
0.0
  0
ARC
  5
374
330
1F
100
AcDbEntity
  8
0
  6
Continuous
 62
     7
370
    15
100
AcDbCircle
 10
-461.4130492332
 20
-248.8200185961
 30
0.0
 40
19.14331554986018
100
AcDbArc
 50
169.7702269654
 51
190.0977797721
  0
LINE
  5
375
330
1F
100
AcDbEntity
  8
0
  6
Continuous
 62
     7
370
    15
100
AcDbLine
 10
-482.2520525382
 20
-265.3202412079
 30
0.0
 11
-516.2520506606
 21
-265.3202412079
 31
0.0
  0
LINE
  5
376
330
1F
100
AcDbEntity
  8
0
  6
Continuous
 62
     7
370
    15
100
AcDbLine
 10
-484.2520491407
 20
-184.3202423665
 30
0.0
 11
-511.8437954411
 21
-184.3202423665
 31
0.0
  0
LINE
  5
377
330
1F
100
AcDbEntity
  8
0
  6
Continuous
 62
     7
370
    15
100
AcDbLine
 10
-486.332221441
 20
-182.3202423879
 30
0.0
 11
-486.2520494685
 21
-182.3202423879
 31
0.0
  0
LINE
  5
378
330
1F
100
AcDbEntity
  8
0
  6
Continuous
 62
     7
370
    15
100
AcDbLine
 10
-504.3437970058
 20
-182.3202423879
 30
0.0
 11
-486.332221441
 21
-182.3202423879
 31
0.0
  0
LINE
  5
379
330
1F
100
AcDbEntity
  8
0
  6
Continuous
 62
     7
370
    15
100
AcDbLine
 10
215.7479352131
 20
-184.3202423665
 30
0.0
 11
185.7479638233
 21
-184.3202423665
 31
0.0
  0
LINE
  5
37A
330
1F
100
AcDbEntity
  8
0
  6
Continuous
 62
     7
370
    15
100
AcDbLine
 10
213.6677927151
 20
-182.3202423879
 30
0.0
 11
213.7479609623
 21
-182.3202423879
 31
0.0
  0
LINE
  5
37B
330
1F
100
AcDbEntity
  8
0
  6
Continuous
 62
     7
370
    15
100
AcDbLine
 10
187.7479380741
 20
-182.3202423879
 30
0.0
 11
213.6677927151
 21
-182.3202423879
 31
0.0
  0
CIRCLE
  5
37C
330
1F
100
AcDbEntity
  8
0
  6
Continuous
 62
     7
370
    15
100
AcDbCircle
 10
-499.2520507079
 20
-248.8202423404
 30
0.0
 40
11.0
  0
CIRCLE
  5
37D
330
1F
100
AcDbEntity
  8
0
  6
Continuous
 62
     7
370
    15
100
AcDbCircle
 10
-499.2520507079
 20
-248.8202423404
 30
0.0
 40
9.000000000000028
  0
CIRCLE
  5
37E
330
1F
100
AcDbEntity
  8
0
  6
Continuous
 62
     7
370
    15
100
AcDbCircle
 10
200.7479492921
 20
-248.8202423404
 30
0.0
 40
11.0
  0
CIRCLE
  5
37F
330
1F
100
AcDbEntity
  8
0
  6
Continuous
 62
     7
370
    15
100
AcDbCircle
 10
200.7479492921
 20
-248.8202423404
 30
0.0
 40
9.000000000000028
  0
LINE
  5
380
330
1F
100
AcDbEntity
  8
0
  6
Continuous
 62
     7
370
    15
100
AcDbLine
 10
-525.254347846
 20
-206.8202418636
 30
0.0
 11
-470.2520542965
 21
-206.8202418636
 31
0.0
  0
LINE
  5
381
330
1F
100
AcDbEntity
  8
0
  6
Continuous
 62
     7
370
    15
100
AcDbLine
 10
-528.2520507649
 20
-206.8202418636
 30
0.0
 11
-525.254347846
 21
-206.8202418636
 31
0.0
  0
LINE
  5
382
330
1F
100
AcDbEntity
  8
0
  6
Continuous
 62
     7
370
    15
100
AcDbLine
 10
-528.2520507649
 20
-207.8406715195
 30
0.0
 11
-470.2520542965
 21
-207.8406715195
 31
0.0
  0
LINE
  5
383
330
1F
100
AcDbEntity
  8
0
  6
Continuous
 62
     7
370
    15
100
AcDbLine
 10
-525.254347846
 20
-223.8519152056
 30
0.0
 11
-528.2520507649
 21
-223.8519152056
 31
0.0
  0
LINE
  5
384
330
1F
100
AcDbEntity
  8
0
  6
Continuous
 62
     7
370
    15
100
AcDbLine
 10
-470.2520542965
 20
-223.8519152056
 30
0.0
 11
-525.254347846
 21
-223.8519152056
 31
0.0
  0
LINE
  5
385
330
1F
100
AcDbEntity
  8
0
  6
Continuous
 62
     7
370
    15
100
AcDbLine
 10
-525.254347846
 20
-224.8202410887
 30
0.0
 11
-470.2520542965
 21
-224.8202410887
 31
0.0
  0
LINE
  5
386
330
1F
100
AcDbEntity
  8
0
  6
Continuous
 62
     7
370
    15
100
AcDbLine
 10
-528.2520507649
 20
-224.8202410887
 30
0.0
 11
-525.254347846
 21
-224.8202410887
 31
0.0
  0
LINE
  5
387
330
1F
100
AcDbEntity
  8
0
  6
Continuous
 62
     7
370
    15
100
AcDbLine
 10
171.7479652538
 20
-207.8406715195
 30
0.0
 11
229.7479337826
 21
-207.8406715195
 31
0.0
  0
LINE
  5
388
330
1F
100
AcDbEntity
  8
0
  6
Continuous
 62
     7
370
    15
100
AcDbLine
 10
174.7456616535
 20
-206.8202418636
 30
0.0
 11
229.7479337826
 21
-206.8202418636
 31
0.0
  0
LINE
  5
389
330
1F
100
AcDbEntity
  8
0
  6
Continuous
 62
     7
370
    15
100
AcDbLine
 10
171.7479652538
 20
-206.8202418636
 30
0.0
 11
174.7456616535
 21
-206.8202418636
 31
0.0
  0
LINE
  5
38A
330
1F
100
AcDbEntity
  8
0
  6
Continuous
 62
     7
370
    15
100
AcDbLine
 10
174.7456616535
 20
-223.8519152056
 30
0.0
 11
171.7479652538
 21
-223.8519152056
 31
0.0
  0
LINE
  5
38B
330
1F
100
AcDbEntity
  8
0
  6
Continuous
 62
     7
370
    15
100
AcDbLine
 10
229.7479337826
 20
-223.8519152056
 30
0.0
 11
174.7456616535
 21
-223.8519152056
 31
0.0
  0
LINE
  5
38C
330
1F
100
AcDbEntity
  8
0
  6
Continuous
 62
     7
370
    15
100
AcDbLine
 10
174.7456616535
 20
-224.8202410887
 30
0.0
 11
229.7479337826
 21
-224.8202410887
 31
0.0
  0
LINE
  5
38D
330
1F
100
AcDbEntity
  8
0
  6
Continuous
 62
     7
370
    15
100
AcDbLine
 10
171.7479652538
 20
-224.8202410887
 30
0.0
 11
174.7456616535
 21
-224.8202410887
 31
0.0
  0
LINE
  5
38E
330
1F
100
AcDbEntity
  8
0
  6
Continuous
 62
     7
370
    15
100
AcDbLine
 10
181.7479557171
 20
-251.8202436517
 30
0.0
 11
181.7479557171
 21
-245.8202389429
 31
0.0
  0
LINE
  5
38F
330
1F
100
AcDbEntity
  8
0
  6
Continuous
 62
     7
370
    15
100
AcDbLine
 10
-518.2520509884
 20
-251.8202436517
 30
0.0
 11
-518.2520509884
 21
-245.8202389429
 31
0.0
  0
LINE
  5
390
330
1F
100
AcDbEntity
  8
0
  6
Continuous
 62
     7
370
    15
100
AcDbLine
 10
219.7479433193
 20
-245.8202389429
 30
0.0
 11
219.7479433193
 21
-251.8202436517
 31
0.0
  0
LINE
  5
391
330
1F
100
AcDbEntity
  8
0
  6
Continuous
 62
     7
370
    15
100
AcDbLine
 10
-480.2520522103
 20
-245.8202389429
 30
0.0
 11
-480.2520522103
 21
-251.8202436517
 31
0.0
  0
LINE
  5
392
330
1F
100
AcDbEntity
  8
0
  6
Continuous
 62
     7
370
    15
100
AcDbLine
 10
1501.2835687771
 20
-228.3202407311
 30
0.0
 11
1513.1062692776
 21
-228.3202407311
 31
0.0
  0
LINE
  5
393
330
1F
100
AcDbEntity
  8
0
  6
Continuous
 62
     7
370
    15
100
AcDbLine
 10
1498.2063001766
 20
-228.3202407311
 30
0.0
 11
1501.2835687771
 21
-228.3202407311
 31
0.0
  0
LINE
  5
394
330
1F
100
AcDbEntity
  8
0
  6
Continuous
 62
     7
370
    15
100
AcDbLine
 10
1501.8705553188
 20
-229.3202427576
 30
0.0
 11
1499.2062276974
 21
-229.3202427576
 31
0.0
  0
LINE
  5
395
330
1F
100
AcDbEntity
  8
0
  6
Continuous
 62
     7
370
    15
100
AcDbLine
 10
1512.1061033382
 20
-229.3202427576
 30
0.0
 11
1501.8705553188
 21
-229.3202427576
 31
0.0
  0
LINE
  5
396
330
1F
100
AcDbEntity
  8
0
  6
Continuous
 62
     7
370
    15
100
AcDbLine
 10
-538.7164824829
 20
-228.3202407311
 30
0.0
 11
-526.8937964179
 21
-228.3202407311
 31
0.0
  0
LINE
  5
397
330
1F
100
AcDbEntity
  8
0
  6
Continuous
 62
     7
370
    15
100
AcDbLine
 10
-541.7937962525
 20
-228.3202407311
 30
0.0
 11
-538.7164824829
 21
-228.3202407311
 31
0.0
  0
LINE
  5
398
330
1F
100
AcDbEntity
  8
0
  6
Continuous
 62
     7
370
    15
100
AcDbLine
 10
-538.1295448356
 20
-229.3202427576
 30
0.0
 11
-540.7937965543
 21
-229.3202427576
 31
0.0
  0
LINE
  5
399
330
1F
100
AcDbEntity
  8
0
  6
Continuous
 62
     7
370
    15
100
AcDbLine
 10
-527.8937961162
 20
-229.3202427576
 30
0.0
 11
-538.1295448356
 21
-229.3202427576
 31
0.0
  0
LINE
  5
39A
330
1F
100
AcDbEntity
  8
0
  6
Continuous
 62
     7
370
    15
100
AcDbLine
 10
821.2835020199
 20
-228.3202407311
 30
0.0
 11
833.1062025204
 21
-228.3202407311
 31
0.0
  0
LINE
  5
39B
330
1F
100
AcDbEntity
  8
0
  6
Continuous
 62
     7
370
    15
100
AcDbLine
 10
818.2062334194
 20
-228.3202407311
 30
0.0
 11
821.2835020199
 21
-228.3202407311
 31
0.0
  0
LINE
  5
39C
330
1F
100
AcDbEntity
  8
0
  6
Continuous
 62
     7
370
    15
100
AcDbLine
 10
821.8704885616
 20
-229.3202427576
 30
0.0
 11
819.2061609402
 21
-229.3202427576
 31
0.0
  0
LINE
  5
39D
330
1F
100
AcDbEntity
  8
0
  6
Continuous
 62
     7
370
    15
100
AcDbLine
 10
832.1061557903
 20
-229.3202427576
 30
0.0
 11
821.8704885616
 21
-229.3202427576
 31
0.0
  0
LINE
  5
39E
330
1F
100
AcDbEntity
  8
0
  6
Continuous
 62
     7
370
    15
100
AcDbLine
 10
141.2834948673
 20
-228.3202407311
 30
0.0
 11
153.1061953678
 21
-228.3202407311
 31
0.0
  0
LINE
  5
39F
330
1F
100
AcDbEntity
  8
0
  6
Continuous
 62
     7
370
    15
100
AcDbLine
 10
138.2062262669
 20
-228.3202407311
 30
0.0
 11
141.2834948673
 21
-228.3202407311
 31
0.0
  0
LINE
  5
3A0
330
1F
100
AcDbEntity
  8
0
  6
Continuous
 62
     7
370
    15
100
AcDbLine
 10
141.8704814091
 20
-229.3202427576
 30
0.0
 11
139.2062133923
 21
-229.3202427576
 31
0.0
  0
LINE
  5
3A1
330
1F
100
AcDbEntity
  8
0
  6
Continuous
 62
     7
370
    15
100
AcDbLine
 10
152.1062082424
 20
-229.3202427576
 30
0.0
 11
141.8704814091
 21
-229.3202427576
 31
0.0
  0
SPLINE
  5
3A2
330
1F
100
AcDbEntity
  8
0
  6
Continuous
 62
     7
370
    15
100
AcDbSpline
210
0.0
220
0.0
230
1.0
 70
     8
 71
     3
 72
    18
 73
    14
 74
     0
 42
0.000000001
 43
0.00000001
 40
0.0
 40
0.0
 40
0.0
 40
0.0
 40
0.0952725457489315
 40
0.1902600966916103
 40
0.2925886207385761
 40
0.4072962580539919
 40
0.4942288075107535
 40
0.5813028238014414
 40
0.6673899930250359
 40
0.7685791508368035
 40
0.8837355264020591
 40
0.9914582939852058
 40
1.0
 40
1.0
 40
1.0
 40
1.0
 10
833.156151212697
 20
-203.3202422211984
 30
0.0
 10
833.0865334612326
 20
-203.3626718686854
 30
0.0
 10
832.9475062102972
 20
-203.4474042411649
 30
0.0
 10
831.8790348870738
 20
-204.059372777532
 30
0.0
 10
830.2322867597568
 20
-204.8702754353259
 30
0.0
 10
828.1136485961264
 20
-205.6075309772218
 30
0.0
 10
825.7999186954737
 20
-205.8968815568585
 30
0.0
 10
823.6927347934432
 20
-205.6934810115669
 30
0.0
 10
821.7105343734366
 20
-205.118091899693
 30
0.0
 10
819.892125373911
 20
-204.3069539838606
 30
0.0
 10
818.6090774275386
 20
-203.5947723708843
 30
0.0
 10
818.0515241438261
 20
-203.2582247533264
 30
0.0
 10
818.1749897346361
 20
-203.3314025651181
 30
0.0
 10
818.1840604915666
 20
-203.3367787848333
 30
0.0
  0
SPLINE
  5
3A3
330
1F
100
AcDbEntity
  8
0
  6
Continuous
 62
     7
370
    15
100
AcDbSpline
210
0.0
220
0.0
230
1.0
 70
     8
 71
     3
 72
    18
 73
    14
 74
     0
 42
0.000000001
 43
0.00000001
 40
0.0
 40
0.0
 40
0.0
 40
0.0
 40
0.0952735085440995
 40
0.1902612706504243
 40
0.2925884004657638
 40
0.4072984098094416
 40
0.4942311525230448
 40
0.5813004686800962
 40
0.6673900433159867
 40
0.7685794260779848
 40
0.8837360576435255
 40
0.9914585756991382
 40
1.0
 40
1.0
 40
1.0
 40
1.0
 10
153.1562036647843
 20
-203.3202422211984
 30
0.0
 10
153.0865372529288
 20
-203.3626718590675
 30
0.0
 10
152.9474133742785
 20
-203.4474038788866
 30
0.0
 10
151.8789717668164
 20
-204.059364022153
 30
0.0
 10
150.2322736291205
 20
-204.8702951310071
 30
0.0
 10
148.113592277061
 20
-205.6075204621914
 30
0.0
 10
145.7998900142196
 20
-205.8968857805997
 30
0.0
 10
143.6927401675472
 20
-205.6934615524202
 30
0.0
 10
141.7105293149659
 20
-205.1181036067537
 30
0.0
 10
139.8921533480616
 20
-204.3069516834614
 30
0.0
 10
138.6089311315474
 20
-203.5947756982885
 30
0.0
 10
138.0518175831486
 20
-203.2582229348286
 30
0.0
 10
138.1750033940528
 20
-203.3314025829585
 30
0.0
 10
138.1840533390093
 20
-203.3367787848333
 30
0.0
  0
SPLINE
  5
3A4
330
1F
100
AcDbEntity
  8
0
  6
Continuous
 62
     7
370
    15
100
AcDbSpline
210
0.0
220
0.0
230
1.0
 70
     8
 71
     3
 72
    18
 73
    14
 74
     0
 42
0.000000001
 43
0.00000001
 40
0.0
 40
0.0
 40
0.0
 40
0.0
 40
0.0952720243296225
 40
0.1902619159160427
 40
0.2925906862748857
 40
0.4072943656906002
 40
0.4942271244000569
 40
0.581306243996059
 40
0.6673891924096066
 40
0.7685785937907176
 40
0.8837352465453816
 40
0.9914582734247251
 40
1.0
 40
1.0
 40
1.0
 40
1.0
 10
1513.156098760609
 20
-203.3202422211984
 30
0.0
 10
1513.086540857274
 20
-203.3626737783944
 30
0.0
 10
1512.947631035123
 20
-203.4474112385691
 30
0.0
 10
1511.878947228901
 20
-204.0593654137382
 30
0.0
 10
1510.232263470961
 20
-204.8702560205668
 30
0.0
 10
1508.113686982399
 20
-205.6075473132078
 30
0.0
 10
1505.799948377428
 20
-205.8968751111367
 30
0.0
 10
1503.692744141114
 20
-205.6935079349903
 30
0.0
 10
1501.71058286878
 20
-205.1180691977482
 30
0.0
 10
1499.892189356086
 20
-204.3069575765012
 30
0.0
 10
1498.60914495514
 20
-203.5947713735013
 30
0.0
 10
1498.051590890454
 20
-203.258224767015
 30
0.0
 10
1498.175056491114
 20
-203.331402566055
 30
0.0
 10
1498.184127248769
 20
-203.3367787848333
 30
0.0
  0
SPLINE
  5
3A5
330
1F
100
AcDbEntity
  8
0
  6
Continuous
 62
     7
370
    15
100
AcDbSpline
210
0.0
220
0.0
230
1.0
 70
     8
 71
     3
 72
    18
 73
    14
 74
     0
 42
0.000000001
 43
0.00000001
 40
0.0
 40
0.0
 40
0.0
 40
0.0
 40
0.0952733050524233
 40
0.1902610765331649
 40
0.2925893362938125
 40
0.4072973669743448
 40
0.4942304354442889
 40
0.5813014888387521
 40
0.6673906402670401
 40
0.7685793579120582
 40
0.8837357548043406
 40
0.9914584493202396
 40
1.0
 40
1.0
 40
1.0
 40
1.0
 10
-526.8437965028537
 20
-203.3202422211984
 30
0.0
 10
-526.9134536024822
 20
-203.3626716671257
 30
0.0
 10
-527.052559039794
 20
-203.4474033981638
 30
0.0
 10
-528.1210072417869
 20
-204.0593702851832
 30
0.0
 10
-529.7677465594683
 20
-204.870279275388
 30
0.0
 10
-531.8863897839765
 20
-205.6075292993883
 30
0.0
 10
-534.2001021859235
 20
-205.8968836870451
 30
0.0
 10
-536.3072678549985
 20
-205.693467206232
 30
0.0
 10
-538.2894807812872
 20
-205.1181040300499
 30
0.0
 10
-540.1078555254273
 20
-204.3069496927414
 30
0.0
 10
-541.3909917115781
 20
-203.5947741596858
 30
0.0
 10
-541.9483030235858
 20
-203.2582237126661
 30
0.0
 10
-541.8249947080554
 20
-203.331402575136
 30
0.0
 10
-541.815935652758
 20
-203.3367787848333
 30
0.0
  0
LINE
  5
3A6
330
1F
100
AcDbEntity
  8
0
  6
Continuous
 62
     7
370
    15
100
AcDbLine
 10
1535.6561369076
 20
-181.3202423404
 30
0.0
 11
1475.656194128
 21
-181.3202423404
 31
0.0
  0
LINE
  5
3A7
330
1F
100
AcDbEntity
  8
0
  6
Continuous
 62
     7
370
    15
100
AcDbLine
 10
1475.656194128
 20
-183.3202424354
 30
0.0
 11
1535.6561369076
 21
-183.3202424354
 31
0.0
  0
LINE
  5
3A8
330
1F
100
AcDbEntity
  8
0
  6
Continuous
 62
     7
370
    15
100
AcDbLine
 10
1520.656270422
 20
-185.3202425304
 30
0.0
 11
1490.6562990322
 21
-185.3202425304
 31
0.0
  0
LINE
  5
3A9
330
1F
100
AcDbEntity
  8
0
  6
Continuous
 62
     7
370
    15
100
AcDbLine
 10
175.6561822071
 20
-181.3202423404
 30
0.0
 11
115.6561798229
 21
-181.3202423404
 31
0.0
  0
LINE
  5
3AA
330
1F
100
AcDbEntity
  8
0
  6
Continuous
 62
     7
370
    15
100
AcDbLine
 10
115.6561798229
 20
-183.3202424354
 30
0.0
 11
175.6561822071
 21
-183.3202424354
 31
0.0
  0
LINE
  5
3AB
330
1F
100
AcDbEntity
  8
0
  6
Continuous
 62
     7
370
    15
100
AcDbLine
 10
160.6561965122
 20
-185.3202425304
 30
0.0
 11
130.6562251225
 21
-185.3202425304
 31
0.0
  0
LINE
  5
3AC
330
1F
100
AcDbEntity
  8
0
  6
Continuous
 62
     7
370
    15
100
AcDbLine
 10
795.6562465801
 20
-183.3202424354
 30
0.0
 11
855.6561893597
 21
-183.3202424354
 31
0.0
  0
LINE
  5
3AD
330
1F
100
AcDbEntity
  8
0
  6
Continuous
 62
     7
370
    15
100
AcDbLine
 10
855.6561893597
 20
-181.3202423404
 30
0.0
 11
795.6562465801
 21
-181.3202423404
 31
0.0
  0
LINE
  5
3AE
330
1F
100
AcDbEntity
  8
0
  6
Continuous
 62
     7
370
    15
100
AcDbLine
 10
840.6562036648
 20
-185.3202425304
 30
0.0
 11
810.656232275
 21
-185.3202425304
 31
0.0
  0
LINE
  5
3AF
330
1F
100
AcDbEntity
  8
0
  6
Continuous
 62
     7
370
    15
100
AcDbLine
 10
-564.3437956647
 20
-183.3202424354
 30
0.0
 11
-504.3437970058
 21
-183.3202424354
 31
0.0
  0
LINE
  5
3B0
330
1F
100
AcDbEntity
  8
0
  6
Continuous
 62
     7
370
    15
100
AcDbLine
 10
-504.3437970058
 20
-181.3202423404
 30
0.0
 11
-564.3437956647
 21
-181.3202423404
 31
0.0
  0
LINE
  5
3B1
330
1F
100
AcDbEntity
  8
0
  6
Continuous
 62
     7
370
    15
100
AcDbLine
 10
-519.3437966705
 20
-185.3202425304
 30
0.0
 11
-549.3437959999
 21
-185.3202425304
 31
0.0
  0
LINE
  5
3B2
330
1F
100
AcDbEntity
  8
0
  6
Continuous
 62
     8
370
    15
100
AcDbLine
 10
1560.9561628475
 20
-228.3202407311
 30
0.0
 11
1560.9561628475
 21
-230.3152417193
 31
0.0
  0
LINE
  5
3B3
330
1F
100
AcDbEntity
  8
0
  6
Continuous
 62
     8
370
    15
100
AcDbLine
 10
-579.6437957511
 20
-230.3152417193
 30
0.0
 11
-579.6437957511
 21
-228.3202407311
 31
0.0
  0
LINE
  5
3B4
330
1F
100
AcDbEntity
  8
0
  6
Continuous
 62
     8
370
    15
100
AcDbLine
 10
1531.4561552181
 20
-228.3202407311
 30
0.0
 11
1531.4561552181
 21
-228.770240898
 31
0.0
  0
LINE
  5
3B5
330
1F
100
AcDbEntity
  8
0
  6
Continuous
 62
     8
370
    15
100
AcDbLine
 10
-550.1437955723
 20
-228.770240898
 30
0.0
 11
-550.1437955723
 21
-228.3202407311
 31
0.0
  0
LINE
  5
3B6
330
1F
100
AcDbEntity
  8
0
  6
Continuous
 62
     8
370
    15
100
AcDbLine
 10
1560.9561628475
 20
-203.3202422212
 30
0.0
 11
1560.9561628475
 21
-203.0202427308
 31
0.0
  0
LINE
  5
3B7
330
1F
100
AcDbEntity
  8
0
  6
Continuous
 62
     8
370
    15
100
AcDbLine
 10
1547.0644659176
 20
-203.0202427308
 30
0.0
 11
1547.0644659176
 21
-203.3202422212
 31
0.0
  0
LINE
  5
3B8
330
1F
100
AcDbEntity
  8
0
  6
Continuous
 62
     8
370
    15
100
AcDbLine
 10
1531.1717218533
 20
-203.3202422212
 30
0.0
 11
1531.1717218533
 21
-203.2065836142
 31
0.0
  0
LINE
  5
3B9
330
1F
100
AcDbEntity
  8
0
  6
Continuous
 62
     8
370
    15
100
AcDbLine
 10
-579.6437957511
 20
-203.0202427308
 30
0.0
 11
-579.6437957511
 21
-203.3202422212
 31
0.0
  0
LINE
  5
3BA
330
1F
100
AcDbEntity
  8
0
  6
Continuous
 62
     8
370
    15
100
AcDbLine
 10
-565.7521248982
 20
-203.3202422212
 30
0.0
 11
-565.7521248982
 21
-203.0202427308
 31
0.0
  0
LINE
  5
3BB
330
1F
100
AcDbEntity
  8
0
  6
Continuous
 62
     8
370
    15
100
AcDbLine
 10
-549.8592476547
 20
-203.2065836142
 30
0.0
 11
-549.8592476547
 21
-203.3202422212
 31
0.0
  0
LINE
  5
3BC
330
1F
100
AcDbEntity
  8
0
  6
Continuous
 62
     7
370
    15
100
AcDbLine
 10
-952.2112706959
 20
2165.1611810967
 30
0.0
 11
-988.1112711787
 21
2165.1611810967
 31
0.0
  0
LINE
  5
3BD
330
1F
100
AcDbEntity
  8
0
  6
Continuous
 62
     7
370
    15
100
AcDbLine
 10
-988.1112711787
 20
2117.1611816108
 30
0.0
 11
-977.9112698794
 21
2117.1611816108
 31
0.0
  0
LINE
  5
3BE
330
1F
100
AcDbEntity
  8
0
  6
Continuous
 62
     7
370
    15
100
AcDbLine
 10
-988.1112711787
 20
2165.1611810967
 30
0.0
 11
-988.4112725318
 21
2164.8611816063
 31
0.0
  0
LINE
  5
3BF
330
1F
100
AcDbEntity
  8
0
  6
Continuous
 62
     7
370
    15
100
AcDbLine
 10
-988.4112725318
 20
2117.4611829638
 30
0.0
 11
-988.1112711787
 21
2117.1611816108
 31
0.0
  0
LINE
  5
3C0
330
1F
100
AcDbEntity
  8
0
  6
Continuous
 62
     7
370
    15
100
AcDbLine
 10
-951.9112712056
 20
2164.8611816063
 30
0.0
 11
-952.2112706959
 21
2165.1611810967
 31
0.0
  0
LINE
  5
3C1
330
1F
100
AcDbEntity
  8
0
  6
Continuous
 62
     7
370
    15
100
AcDbLine
 10
-988.611272192
 20
2117.1611816108
 30
0.0
 11
-988.4112725318
 21
2117.361181271
 31
0.0
  0
LINE
  5
3C2
330
1F
100
AcDbEntity
  8
0
  6
Continuous
 62
     7
370
    15
100
AcDbLine
 10
-988.4112725318
 20
2164.9611814364
 30
0.0
 11
-988.611272192
 21
2165.1611810967
 31
0.0
  0
LINE
  5
3C3
330
1F
100
AcDbEntity
  8
0
  6
Continuous
 62
     7
370
    15
100
AcDbLine
 10
-988.611272192
 20
2165.1611810967
 30
0.0
 11
-991.9112721741
 21
2165.1611810967
 31
0.0
  0
LINE
  5
3C4
330
1F
100
AcDbEntity
  8
0
  6
Continuous
 62
     7
370
    15
100
AcDbLine
 10
-991.9112721741
 20
2117.1611816108
 30
0.0
 11
-988.611272192
 21
2117.1611816108
 31
0.0
  0
LINE
  5
3C5
330
1F
100
AcDbEntity
  8
0
  6
Continuous
 62
     7
370
    15
100
AcDbLine
 10
-991.9112721741
 20
2165.1611810967
 30
0.0
 11
-993.911272502
 21
2163.1611817002
 31
0.0
  0
LINE
  5
3C6
330
1F
100
AcDbEntity
  8
0
  6
Continuous
 62
     7
370
    15
100
AcDbLine
 10
-993.911272502
 20
2119.1611819386
 30
0.0
 11
-991.9112721741
 21
2117.1611816108
 31
0.0
  0
LINE
  5
3C7
330
1F
100
AcDbEntity
  8
0
  6
Continuous
 62
     7
370
    15
100
AcDbLine
 10
-955.9112699986
 20
2203.6611818194
 30
0.0
 11
-956.9112701625
 21
2203.6611818194
 31
0.0
  0
LINE
  5
3C8
330
1F
100
AcDbEntity
  8
0
  6
Continuous
 62
     7
370
    15
100
AcDbLine
 10
-956.9112701625
 20
2173.6611806273
 30
0.0
 11
-955.9112699986
 21
2173.6611806273
 31
0.0
  0
LINE
  5
3C9
330
1F
100
AcDbEntity
  8
0
  6
Continuous
 62
     7
370
    15
100
AcDbLine
 10
-955.9112699986
 20
2173.6611806273
 30
0.0
 11
-953.9112715334
 21
2175.6611809551
 31
0.0
  0
LINE
  5
3CA
330
1F
100
AcDbEntity
  8
0
  6
Continuous
 62
     7
370
    15
100
AcDbLine
 10
-953.9112715334
 20
2201.6611814916
 30
0.0
 11
-955.9112699986
 21
2203.6611818194
 31
0.0
  0
LINE
  5
3CB
330
1F
100
AcDbEntity
  8
0
  6
Continuous
 62
     7
370
    15
100
AcDbLine
 10
-956.9112701625
 20
2198.4111823558
 30
0.0
 11
-957.2812715829
 21
2198.4111823558
 31
0.0
  0
LINE
  5
3CC
330
1F
100
AcDbEntity
  8
0
  6
Continuous
 62
     7
370
    15
100
AcDbLine
 10
-957.2812715829
 20
2178.9111819535
 30
0.0
 11
-956.9112701625
 21
2178.9111819535
 31
0.0
  0
LINE
  5
3CD
330
1F
100
AcDbEntity
  8
0
  6
Continuous
 62
     7
370
    15
100
AcDbLine
 10
-957.7812707335
 20
2198.2411824583
 30
0.0
 11
-957.9112703264
 21
2198.1111810028
 31
0.0
  0
LINE
  5
3CE
330
1F
100
AcDbEntity
  8
0
  6
Continuous
 62
     7
370
    15
100
AcDbLine
 10
-957.9112703264
 20
2179.2111814439
 30
0.0
 11
-957.7812707335
 21
2179.081181851
 31
0.0
  0
LINE
  5
3CF
330
1F
100
AcDbEntity
  8
0
  6
Continuous
 62
     7
370
    15
100
AcDbLine
 10
-976.0412710071
 20
2217.6111832678
 30
0.0
 11
-976.5412720204
 21
2217.6111832678
 31
0.0
  0
LINE
  5
3D0
330
1F
100
AcDbEntity
  8
0
  6
Continuous
 62
     7
370
    15
100
AcDbLine
 10
-957.2812715829
 20
2217.6111832678
 30
0.0
 11
-957.7812707335
 21
2217.6111832678
 31
0.0
  0
LINE
  5
3D1
330
1F
100
AcDbEntity
  8
0
  6
Continuous
 62
     7
370
    15
100
AcDbLine
 10
-988.9112698197
 20
2169.6611818343
 30
0.0
 11
-977.4112725914
 21
2169.6611818343
 31
0.0
  0
LINE
  5
3D2
330
1F
100
AcDbEntity
  8
0
  6
Continuous
 62
     7
370
    15
100
AcDbLine
 10
-1014.4112730682
 20
2169.6611818343
 30
0.0
 11
-1010.9112734258
 21
2169.6611818343
 31
0.0
  0
LINE
  5
3D3
330
1F
100
AcDbEntity
  8
0
  6
Continuous
 62
     7
370
    15
100
AcDbLine
 10
-1010.9112734258
 20
2207.661182475
 30
0.0
 11
-1014.4112730682
 21
2207.661182475
 31
0.0
  0
LINE
  5
3D4
330
1F
100
AcDbEntity
  8
0
  6
Continuous
 62
     7
370
    15
100
AcDbLine
 10
-977.4112725914
 20
2207.661182475
 30
0.0
 11
-988.9112698197
 21
2207.661182475
 31
0.0
  0
LINE
  5
3D5
330
1F
100
AcDbEntity
  8
0
  6
Continuous
 62
     7
370
    15
100
AcDbLine
 10
-977.4112725914
 20
2169.6611818343
 30
0.0
 11
-976.9112715781
 21
2170.1611809849
 31
0.0
  0
LINE
  5
3D6
330
1F
100
AcDbEntity
  8
0
  6
Continuous
 62
     7
370
    15
100
AcDbLine
 10
-976.9112715781
 20
2207.1611814618
 30
0.0
 11
-977.4112725914
 21
2207.661182475
 31
0.0
  0
LINE
  5
3D7
330
1F
100
AcDbEntity
  8
0
  6
Continuous
 62
     7
370
    15
100
AcDbLine
 10
-1014.4112730682
 20
2207.661182475
 30
0.0
 11
-1016.4112696707
 21
2205.6611821472
 31
0.0
  0
LINE
  5
3D8
330
1F
100
AcDbEntity
  8
0
  6
Continuous
 62
     7
370
    15
100
AcDbLine
 10
-1016.4112696707
 20
2171.6611821621
 30
0.0
 11
-1014.4112730682
 21
2169.6611818343
 31
0.0
  0
LINE
  5
3D9
330
1F
100
AcDbEntity
  8
0
  6
Continuous
 62
     7
370
    15
100
AcDbLine
 10
-976.5412720204
 20
2198.4111823558
 30
0.0
 11
-976.9112715781
 21
2198.4111823558
 31
0.0
  0
LINE
  5
3DA
330
1F
100
AcDbEntity
  8
0
  6
Continuous
 62
     7
370
    15
100
AcDbLine
 10
-976.9112715781
 20
2178.9111819535
 30
0.0
 11
-976.5412720204
 21
2178.9111819535
 31
0.0
  0
LINE
  5
3DB
330
1F
100
AcDbEntity
  8
0
  6
Continuous
 62
     7
370
    15
100
AcDbLine
 10
-976.0412710071
 20
2179.081181851
 30
0.0
 11
-975.9112695515
 21
2179.2111814439
 31
0.0
  0
LINE
  5
3DC
330
1F
100
AcDbEntity
  8
0
  6
Continuous
 62
     7
370
    15
100
AcDbLine
 10
-975.9112695515
 20
2198.1111810028
 30
0.0
 11
-976.0412710071
 21
2198.2411824583
 31
0.0
  0
ARC
  5
3DD
330
1F
100
AcDbEntity
  8
0
  6
Continuous
 62
     7
370
    15
100
AcDbCircle
 10
-955.8490556341
 20
62.161181432
 30
0.0
 40
1.500000000000057
100
AcDbArc
 50
181.0
 51
270.0
  0
ARC
  5
3DE
330
1F
100
AcDbEntity
  8
0
  6
Continuous
 62
     7
370
    15
100
AcDbCircle
 10
-963.9734859724
 20
62.161181432
 30
0.0
 40
1.500000000000057
100
AcDbArc
 50
270.0
 51
359.0
  0
LINE
  5
3DF
330
1F
100
AcDbEntity
  8
0
  6
Continuous
 62
     7
370
    15
100
AcDbLine
 10
-962.2458840072
 20
75.1873597919
 30
0.0
 11
-962.4737153113
 21
62.1348962604
 31
0.0
  0
LINE
  5
3E0
330
1F
100
AcDbEntity
  8
0
  6
Continuous
 62
     7
370
    15
100
AcDbLine
 10
-957.3488278598
 20
62.1348962604
 30
0.0
 11
-957.5766573012
 21
75.1873597919
 31
0.0
  0
ARC
  5
3E1
330
1F
100
AcDbEntity
  8
0
  6
Continuous
 62
     7
370
    15
100
AcDbCircle
 10
-959.0764284623
 20
75.161181432
 30
0.0
 40
1.500000000000057
100
AcDbArc
 50
1.0
 51
90.0
  0
ARC
  5
3E2
330
1F
100
AcDbEntity
  8
0
  6
Continuous
 62
     7
370
    15
100
AcDbCircle
 10
-960.7461131442
 20
75.161181432
 30
0.0
 40
1.500000000000057
100
AcDbArc
 50
90.0
 51
179.0
  0
LINE
  5
3E3
330
1F
100
AcDbEntity
  8
0
  6
Continuous
 62
     7
370
    15
100
AcDbLine
 10
-935.4112708293
 20
1989.6611765444
 30
0.0
 11
-933.4112708507
 21
1991.6611805975
 31
0.0
  0
LINE
  5
3E4
330
1F
100
AcDbEntity
  8
0
  6
Continuous
 62
     7
370
    15
100
AcDbLine
 10
-933.4112708507
 20
2017.6611885845
 30
0.0
 11
-935.4112708293
 21
2019.6611777365
 31
0.0
  0
LINE
  5
3E5
330
1F
100
AcDbEntity
  8
0
  6
Continuous
 62
     7
370
    15
100
AcDbLine
 10
-935.4112708293
 20
2019.6611777365
 30
0.0
 11
-937.4112706915
 21
2019.6611777365
 31
0.0
  0
LINE
  5
3E6
330
1F
100
AcDbEntity
  8
0
  6
Continuous
 62
     7
370
    15
100
AcDbLine
 10
-937.4112706915
 20
1989.6611765444
 30
0.0
 11
-935.4112708293
 21
1989.6611765444
 31
0.0
  0
LINE
  5
3E7
330
1F
100
AcDbEntity
  8
0
  6
Continuous
 62
     7
370
    15
100
AcDbLine
 10
-935.4112708293
 20
2044.6611836969
 30
0.0
 11
-933.4112708507
 21
2046.6611802995
 31
0.0
  0
LINE
  5
3E8
330
1F
100
AcDbEntity
  8
0
  6
Continuous
 62
     7
370
    15
100
AcDbLine
 10
-933.4112708507
 20
2072.6611808359
 30
0.0
 11
-935.4112708293
 21
2074.661184889
 31
0.0
  0
LINE
  5
3E9
330
1F
100
AcDbEntity
  8
0
  6
Continuous
 62
     7
370
    15
100
AcDbLine
 10
-935.4112708293
 20
2074.661184889
 30
0.0
 11
-937.4112706915
 21
2074.661184889
 31
0.0
  0
LINE
  5
3EA
330
1F
100
AcDbEntity
  8
0
  6
Continuous
 62
     7
370
    15
100
AcDbLine
 10
-937.4112706915
 20
2044.6611836969
 30
0.0
 11
-935.4112708293
 21
2044.6611836969
 31
0.0
  0
LINE
  5
3EB
330
1F
100
AcDbEntity
  8
0
  6
Continuous
 62
     7
370
    15
100
AcDbLine
 10
-983.4112698496
 20
2019.6611777365
 30
0.0
 11
-984.8125862241
 21
2018.2598725378
 31
0.0
  0
LINE
  5
3EC
330
1F
100
AcDbEntity
  8
0
  6
Continuous
 62
     7
370
    15
100
AcDbLine
 10
-984.8125862241
 20
1991.0624966442
 30
0.0
 11
-983.4112698496
 21
1989.6611765444
 31
0.0
  0
LINE
  5
3ED
330
1F
100
AcDbEntity
  8
0
  6
Continuous
 62
     7
370
    15
100
AcDbLine
 10
-983.4112698496
 20
1989.6611765444
 30
0.0
 11
-982.4112715483
 21
1989.6611765444
 31
0.0
  0
LINE
  5
3EE
330
1F
100
AcDbEntity
  8
0
  6
Continuous
 62
     7
370
    15
100
AcDbLine
 10
-982.4112715483
 20
2019.6611777365
 30
0.0
 11
-983.4112698496
 21
2019.6611777365
 31
0.0
  0
LINE
  5
3EF
330
1F
100
AcDbEntity
  8
0
  6
Continuous
 62
     7
370
    15
100
AcDbLine
 10
-988.9837714195
 20
1996.7611775219
 30
0.0
 11
-984.8125862241
 21
1996.7611775219
 31
0.0
  0
LINE
  5
3F0
330
1F
100
AcDbEntity
  8
0
  6
Continuous
 62
     7
370
    15
100
AcDbLine
 10
-984.8125862241
 20
2012.5611767589
 30
0.0
 11
-988.9832498789
 21
2012.5611767589
 31
0.0
  0
LINE
  5
3F1
330
1F
100
AcDbEntity
  8
0
  6
Continuous
 62
     7
370
    15
100
AcDbLine
 10
-983.4112698496
 20
2044.6611836969
 30
0.0
 11
-982.4112715483
 21
2044.6611836969
 31
0.0
  0
LINE
  5
3F2
330
1F
100
AcDbEntity
  8
0
  6
Continuous
 62
     7
370
    15
100
AcDbLine
 10
-982.4112715483
 20
2074.661184889
 30
0.0
 11
-983.4112698496
 21
2074.661184889
 31
0.0
  0
LINE
  5
3F3
330
1F
100
AcDbEntity
  8
0
  6
Continuous
 62
     7
370
    15
100
AcDbLine
 10
-983.4112698496
 20
2074.661184889
 30
0.0
 11
-984.8125862241
 21
2073.2598647892
 31
0.0
  0
LINE
  5
3F4
330
1F
100
AcDbEntity
  8
0
  6
Continuous
 62
     7
370
    15
100
AcDbLine
 10
-984.8125862241
 20
2046.0624963462
 30
0.0
 11
-983.4112698496
 21
2044.6611836969
 31
0.0
  0
LINE
  5
3F5
330
1F
100
AcDbEntity
  8
0
  6
Continuous
 62
     7
370
    15
100
AcDbLine
 10
-988.9837714195
 20
2051.7611846744
 30
0.0
 11
-984.8125862241
 21
2051.7611846744
 31
0.0
  0
LINE
  5
3F6
330
1F
100
AcDbEntity
  8
0
  6
Continuous
 62
     7
370
    15
100
AcDbLine
 10
-984.8125862241
 20
2067.5611839115
 30
0.0
 11
-988.9832498789
 21
2067.5611839115
 31
0.0
  0
LINE
  5
3F7
330
1F
100
AcDbEntity
  8
0
  6
Continuous
 62
     7
370
    15
100
AcDbLine
 10
-988.9112698197
 20
2210.6611811041
 30
0.0
 11
-990.9112701476
 21
2212.661181432
 31
0.0
  0
LINE
  5
3F8
330
1F
100
AcDbEntity
  8
0
  6
Continuous
 62
     7
370
    15
100
AcDbLine
 10
-1008.9112693727
 20
2212.661181432
 30
0.0
 11
-1010.9112734258
 21
2210.6611811041
 31
0.0
  0
LINE
  5
3F9
330
1F
100
AcDbEntity
  8
0
  6
Continuous
 62
     7
370
    15
100
AcDbLine
 10
-1010.9112734258
 20
1976.6611800014
 30
0.0
 11
-1008.9112693727
 21
1974.6611759483
 31
0.0
  0
LINE
  5
3FA
330
1F
100
AcDbEntity
  8
0
  6
Continuous
 62
     7
370
    15
100
AcDbLine
 10
-990.9112701476
 20
1974.6611759483
 30
0.0
 11
-988.9112698197
 21
1976.6611800014
 31
0.0
  0
LINE
  5
3FB
330
1F
100
AcDbEntity
  8
0
  6
Continuous
 62
     7
370
    15
100
AcDbLine
 10
-1010.9112734258
 20
2210.6611811041
 30
0.0
 11
-1010.9112734258
 21
2207.661182475
 31
0.0
  0
LINE
  5
3FC
330
1F
100
AcDbEntity
  8
0
  6
Continuous
 62
     7
370
    15
100
AcDbLine
 10
-1010.9112734258
 20
2169.6611818343
 30
0.0
 11
-1010.9112734258
 21
1976.6611800014
 31
0.0
  0
LINE
  5
3FD
330
1F
100
AcDbEntity
  8
0
  6
Continuous
 62
     7
370
    15
100
AcDbLine
 10
-988.9112698197
 20
2165.1611810967
 30
0.0
 11
-988.9112698197
 21
2169.6611818343
 31
0.0
  0
LINE
  5
3FE
330
1F
100
AcDbEntity
  8
0
  6
Continuous
 62
     7
370
    15
100
AcDbLine
 10
-988.9112698197
 20
2207.661182475
 30
0.0
 11
-988.9112698197
 21
2210.6611811041
 31
0.0
  0
LINE
  5
3FF
330
1F
100
AcDbEntity
  8
0
  6
Continuous
 62
     7
370
    15
100
AcDbLine
 10
-988.9112698197
 20
2067.6611781537
 30
0.0
 11
-988.9112698197
 21
2117.1611816108
 31
0.0
  0
LINE
  5
400
330
1F
100
AcDbEntity
  8
0
  6
Continuous
 62
     7
370
    15
100
AcDbLine
 10
-988.9112698197
 20
2012.6611784517
 30
0.0
 11
-988.9112698197
 21
2051.7430648624
 31
0.0
  0
LINE
  5
401
330
1F
100
AcDbEntity
  8
0
  6
Continuous
 62
     7
370
    15
100
AcDbLine
 10
-988.9112698197
 20
1976.6611800014
 30
0.0
 11
-988.9112698197
 21
1996.7430577099
 31
0.0
  0
ARC
  5
402
330
1F
100
AcDbEntity
  8
0
  6
Continuous
 62
     7
370
    15
100
AcDbCircle
 10
-966.9373222265
 20
2227.261181432
 30
0.0
 40
12.50000000000034
100
AcDbArc
 50
230.1746287392
 51
309.8253712608
  0
LINE
  5
403
330
1F
100
AcDbEntity
  8
0
  6
Continuous
 62
     7
370
    15
100
AcDbLine
 10
-958.7872332245
 20
2159.6611811265
 30
0.0
 11
-958.7173803061
 21
2159.6611811265
 31
0.0
  0
LINE
  5
404
330
1F
100
AcDbEntity
  8
0
  6
Continuous
 62
     7
370
    15
100
AcDbLine
 10
-957.9112703264
 20
2217.6611841142
 30
0.0
 11
-958.9316999823
 21
2217.6611841142
 31
0.0
  0
LINE
  5
405
330
1F
100
AcDbEntity
  8
0
  6
Continuous
 62
     7
370
    15
100
AcDbLine
 10
-975.127472198
 20
2159.6611811265
 30
0.0
 11
-975.035308516
 21
2159.6611811265
 31
0.0
  0
LINE
  5
406
330
1F
100
AcDbEntity
  8
0
  6
Continuous
 62
     7
370
    15
100
AcDbLine
 10
-974.9429436684
 20
2217.6611841142
 30
0.0
 11
-975.9112695515
 21
2217.6611841142
 31
0.0
  0
LINE
  5
407
330
1F
100
AcDbEntity
  8
0
  6
Continuous
 62
     7
370
    15
100
AcDbLine
 10
-976.9485766351
 20
2157.6111813493
 30
0.0
 11
-977.0055922032
 21
2157.6111813493
 31
0.0
  0
LINE
  5
408
330
1F
100
AcDbEntity
  8
0
  6
Continuous
 62
     7
370
    15
100
AcDbLine
 10
-977.0165967107
 20
2142.7111815147
 30
0.0
 11
-976.9485766351
 21
2142.7111815147
 31
0.0
  0
LINE
  5
409
330
1F
100
AcDbEntity
  8
0
  6
Continuous
 62
     7
370
    15
100
AcDbLine
 10
-936.4112709932
 20
2157.6611812643
 30
0.0
 11
-951.9112712056
 21
2157.6611812643
 31
0.0
  0
LINE
  5
40A
330
1F
100
AcDbEntity
  8
0
  6
Continuous
 62
     7
370
    15
100
AcDbLine
 10
-951.9112712056
 20
2142.6611815996
 30
0.0
 11
-936.4112709932
 21
2142.6611815996
 31
0.0
  0
LINE
  5
40B
330
1F
100
AcDbEntity
  8
0
  6
Continuous
 62
     7
370
    15
100
AcDbLine
 10
-934.4112708982
 20
2180.1611807614
 30
0.0
 11
-936.4112709932
 21
2165.1611810967
 31
0.0
  0
LINE
  5
40C
330
1F
100
AcDbEntity
  8
0
  6
Continuous
 62
     7
370
    15
100
AcDbLine
 10
-936.4112709932
 20
2135.1611817672
 30
0.0
 11
-934.4112708982
 21
2120.1611821025
 31
0.0
  0
LINE
  5
40D
330
1F
100
AcDbEntity
  8
0
  6
Continuous
 62
     7
370
    15
100
AcDbLine
 10
-932.4112708032
 20
2180.1611807614
 30
0.0
 11
-934.4112708982
 21
2180.1611807614
 31
0.0
  0
LINE
  5
40E
330
1F
100
AcDbEntity
  8
0
  6
Continuous
 62
     7
370
    15
100
AcDbLine
 10
-934.4112708982
 20
2120.1611821025
 30
0.0
 11
-932.4112708032
 21
2120.1611821025
 31
0.0
  0
CIRCLE
  5
40F
330
1F
100
AcDbEntity
  8
0
  6
Continuous
 62
     7
370
    15
100
AcDbCircle
 10
-966.9112708032
 20
2150.161181432
 30
0.0
 40
11.49999999999932
  0
CIRCLE
  5
410
330
1F
100
AcDbEntity
  8
0
  6
Continuous
 62
     7
370
    15
100
AcDbCircle
 10
-966.9112708032
 20
2150.161181432
 30
0.0
 40
12.49999999999989
  0
LINE
  5
411
330
1F
100
AcDbEntity
  8
0
  6
Continuous
 62
     7
370
    15
100
AcDbLine
 10
-988.1112711787
 20
2141.1611818194
 30
0.0
 11
-988.1112711787
 21
2117.1611816108
 31
0.0
  0
LINE
  5
412
330
1F
100
AcDbEntity
  8
0
  6
Continuous
 62
     7
370
    15
100
AcDbLine
 10
-988.1112711787
 20
2165.1611810967
 30
0.0
 11
-988.1112711787
 21
2141.1611818194
 31
0.0
  0
LINE
  5
413
330
1F
100
AcDbEntity
  8
0
  6
Continuous
 62
     7
370
    15
100
AcDbLine
 10
-952.2112706959
 20
2119.1611819386
 30
0.0
 11
-952.2112706959
 21
2165.1611810967
 31
0.0
  0
LINE
  5
414
330
1F
100
AcDbEntity
  8
0
  6
Continuous
 62
     7
370
    15
100
AcDbLine
 10
-977.9112698794
 20
2119.1611819386
 30
0.0
 11
-952.2112706959
 21
2119.1611819386
 31
0.0
  0
LINE
  5
415
330
1F
100
AcDbEntity
  8
0
  6
Continuous
 62
     7
370
    15
100
AcDbLine
 10
-977.9112698794
 20
2119.1611819386
 30
0.0
 11
-977.9112698794
 21
2117.1611816108
 31
0.0
  0
LINE
  5
416
330
1F
100
AcDbEntity
  8
0
  6
Continuous
 62
     7
370
    15
100
AcDbLine
 10
-951.9112712056
 20
2164.8611816063
 30
0.0
 11
-951.9112712056
 21
2119.1611819386
 31
0.0
  0
LINE
  5
417
330
1F
100
AcDbEntity
  8
0
  6
Continuous
 62
     7
370
    15
100
AcDbLine
 10
-951.9112712056
 20
2119.1611819386
 30
0.0
 11
-952.2112706959
 21
2119.1611819386
 31
0.0
  0
LINE
  5
418
330
1F
100
AcDbEntity
  8
0
  6
Continuous
 62
     7
370
    15
100
AcDbLine
 10
-988.611272192
 20
2163.8300985515
 30
0.0
 11
-988.611272192
 21
2165.1611810967
 31
0.0
  0
LINE
  5
419
330
1F
100
AcDbEntity
  8
0
  6
Continuous
 62
     7
370
    15
100
AcDbLine
 10
-988.611272192
 20
2117.1611816108
 30
0.0
 11
-988.611272192
 21
2163.8300985515
 31
0.0
  0
LINE
  5
41A
330
1F
100
AcDbEntity
  8
0
  6
Continuous
 62
     7
370
    15
100
AcDbLine
 10
-988.4112725318
 20
2163.6411909431
 30
0.0
 11
-988.4112725318
 21
2117.361181271
 31
0.0
  0
LINE
  5
41B
330
1F
100
AcDbEntity
  8
0
  6
Continuous
 62
     7
370
    15
100
AcDbLine
 10
-988.4112725318
 20
2164.9611814364
 30
0.0
 11
-988.4112725318
 21
2163.6411909431
 31
0.0
  0
LINE
  5
41C
330
1F
100
AcDbEntity
  8
0
  6
Continuous
 62
     7
370
    15
100
AcDbLine
 10
-991.9112721741
 20
2163.8300985515
 30
0.0
 11
-991.9112721741
 21
2117.1611816108
 31
0.0
  0
LINE
  5
41D
330
1F
100
AcDbEntity
  8
0
  6
Continuous
 62
     7
370
    15
100
AcDbLine
 10
-991.9112721741
 20
2165.1611810967
 30
0.0
 11
-991.9112721741
 21
2163.8300985515
 31
0.0
  0
LINE
  5
41E
330
1F
100
AcDbEntity
  8
0
  6
Continuous
 62
     7
370
    15
100
AcDbLine
 10
-993.911272502
 20
2161.9410215362
 30
0.0
 11
-993.911272502
 21
2163.1611817002
 31
0.0
  0
LINE
  5
41F
330
1F
100
AcDbEntity
  8
0
  6
Continuous
 62
     7
370
    15
100
AcDbLine
 10
-993.911272502
 20
2119.1611819386
 30
0.0
 11
-993.911272502
 21
2161.9410215362
 31
0.0
  0
LINE
  5
420
330
1F
100
AcDbEntity
  8
0
  6
Continuous
 62
     7
370
    15
100
AcDbLine
 10
-982.4112715483
 20
64.6611795246
 30
0.0
 11
-982.4112715483
 21
2114.6611802697
 31
0.0
  0
LINE
  5
421
330
1F
100
AcDbEntity
  8
0
  6
Continuous
 62
     7
370
    15
100
AcDbLine
 10
-982.4112715483
 20
2114.6611802697
 30
0.0
 11
-937.4112706915
 21
2114.6611802697
 31
0.0
  0
LINE
  5
422
330
1F
100
AcDbEntity
  8
0
  6
Continuous
 62
     7
370
    15
100
AcDbLine
 10
-937.4112706915
 20
64.6611795246
 30
0.0
 11
-937.4112706915
 21
2114.6611802697
 31
0.0
  0
LINE
  5
423
330
1F
100
AcDbEntity
  8
0
  6
Continuous
 62
     7
370
    15
100
AcDbLine
 10
-956.4112710118
 20
64.6611795246
 30
0.0
 11
-937.4112706915
 21
64.6611795246
 31
0.0
  0
LINE
  5
424
330
1F
100
AcDbEntity
  8
0
  6
Continuous
 62
     7
370
    15
100
AcDbLine
 10
-956.4112710118
 20
84.6611604511
 30
0.0
 11
-956.4112710118
 21
64.6611795246
 31
0.0
  0
LINE
  5
425
330
1F
100
AcDbEntity
  8
0
  6
Continuous
 62
     7
370
    15
100
AcDbLine
 10
-956.4112710118
 20
84.6611604511
 30
0.0
 11
-963.4112702966
 21
84.6611604511
 31
0.0
  0
LINE
  5
426
330
1F
100
AcDbEntity
  8
0
  6
Continuous
 62
     7
370
    15
100
AcDbLine
 10
-963.4112702966
 20
84.6611604511
 30
0.0
 11
-963.4112702966
 21
64.6611795246
 31
0.0
  0
LINE
  5
427
330
1F
100
AcDbEntity
  8
0
  6
Continuous
 62
     7
370
    15
100
AcDbLine
 10
-982.4112715483
 20
64.6611795246
 30
0.0
 11
-963.4112702966
 21
64.6611795246
 31
0.0
  0
LINE
  5
428
330
1F
100
AcDbEntity
  8
0
  6
Continuous
 62
     7
370
    15
100
AcDbLine
 10
-956.9112701625
 20
2203.6611818194
 30
0.0
 11
-956.9112701625
 21
2173.6611806273
 31
0.0
  0
LINE
  5
429
330
1F
100
AcDbEntity
  8
0
  6
Continuous
 62
     7
370
    15
100
AcDbLine
 10
-955.9112699986
 20
2202.7892589986
 30
0.0
 11
-955.9112699986
 21
2203.6611818194
 31
0.0
  0
LINE
  5
42A
330
1F
100
AcDbEntity
  8
0
  6
Continuous
 62
     7
370
    15
100
AcDbLine
 10
-955.9112699986
 20
2173.6611806273
 30
0.0
 11
-955.9112699986
 21
2202.7892589986
 31
0.0
  0
LINE
  5
42B
330
1F
100
AcDbEntity
  8
0
  6
Continuous
 62
     7
370
    15
100
AcDbLine
 10
-953.9112715334
 20
2200.9055138051
 30
0.0
 11
-953.9112715334
 21
2175.6611809551
 31
0.0
  0
LINE
  5
42C
330
1F
100
AcDbEntity
  8
0
  6
Continuous
 62
     7
370
    15
100
AcDbLine
 10
-953.9112715334
 20
2201.6611814916
 30
0.0
 11
-953.9112715334
 21
2200.9055138051
 31
0.0
  0
LINE
  5
42D
330
1F
100
AcDbEntity
  8
0
  6
Continuous
 62
     7
370
    15
100
AcDbLine
 10
-976.0412710071
 20
2217.6111832678
 30
0.0
 11
-976.0412710071
 21
2165.1611810967
 31
0.0
  0
LINE
  5
42E
330
1F
100
AcDbEntity
  8
0
  6
Continuous
 62
     7
370
    15
100
AcDbLine
 10
-976.5412720204
 20
2217.6111832678
 30
0.0
 11
-976.5412720204
 21
2165.1611810967
 31
0.0
  0
LINE
  5
42F
330
1F
100
AcDbEntity
  8
0
  6
Continuous
 62
     7
370
    15
100
AcDbLine
 10
-957.2812715829
 20
2165.1611810967
 30
0.0
 11
-957.2812715829
 21
2217.6111832678
 31
0.0
  0
LINE
  5
430
330
1F
100
AcDbEntity
  8
0
  6
Continuous
 62
     7
370
    15
100
AcDbLine
 10
-957.7812707335
 20
2165.1611810967
 30
0.0
 11
-957.7812707335
 21
2217.6111832678
 31
0.0
  0
LINE
  5
431
330
1F
100
AcDbEntity
  8
0
  6
Continuous
 62
     7
370
    15
100
AcDbLine
 10
-977.4112725914
 20
2169.6611818343
 30
0.0
 11
-977.4112725914
 21
2207.661182475
 31
0.0
  0
LINE
  5
432
330
1F
100
AcDbEntity
  8
0
  6
Continuous
 62
     7
370
    15
100
AcDbLine
 10
-1014.4112730682
 20
2207.661182475
 30
0.0
 11
-1014.4112730682
 21
2169.6611818343
 31
0.0
  0
SPLINE
  5
433
330
1F
100
AcDbEntity
  8
0
  6
Continuous
 62
     7
370
    15
100
AcDbSpline
210
0.0
220
0.0
230
1.0
 70
     8
 71
     3
 72
    21
 73
    17
 74
     0
 42
0.000000001
 43
0.00000001
 40
0.0
 40
0.0
 40
0.0
 40
0.0
 40
0.0959143518560323
 40
0.1915543244024596
 40
0.2942815854836614
 40
0.350648364820646
 40
0.4088485065204763
 40
0.4970294601166861
 40
0.5853202265079481
 40
0.6732149488557568
 40
0.7755766852250385
 40
0.8321468496656795
 40
0.8905841312559385
 40
0.9431456947862678
 40
0.9976950280470491
 40
1.0
 40
1.0
 40
1.0
 40
1.0
 10
-1010.91127342583
 20
2169.661181834284
 30
0.0
 10
-1010.807853451096
 20
2169.721993463646
 30
0.0
 10
-1010.601309352046
 20
2169.843442760368
 30
0.0
 10
-1009.015659770991
 20
2170.71794790184
 30
0.0
 10
-1007.021285616249
 20
2171.655703647005
 30
0.0
 10
-1004.937915104793
 20
2172.402007816103
 30
0.0
 10
-1002.777618592405
 20
2172.967879581757
 30
0.0
 10
-1000.009164847842
 20
2173.279789763519
 30
0.0
 10
-996.8793755468594
 20
2172.966982343098
 30
0.0
 10
-993.941272572139
 20
2172.126348285226
 30
0.0
 10
-991.8078913153036
 20
2171.199244169302
 30
0.0
 10
-990.3790388958181
 20
2170.478292259869
 30
0.0
 10
-989.5363209723995
 20
2170.018480051825
 30
0.0
 10
-989.0768626590981
 20
2169.757063347775
 30
0.0
 10
-988.8212983227183
 20
2169.609829117861
 30
0.0
 10
-988.9191205578261
 20
2169.665662875194
 30
0.0
 10
-988.923086440576
 20
2169.667926472369
 30
0.0
  0
SPLINE
  5
434
330
1F
100
AcDbEntity
  8
0
  6
Continuous
 62
     7
370
    15
100
AcDbSpline
210
0.0
220
0.0
230
1.0
 70
     8
 71
     3
 72
    21
 73
    17
 74
     0
 42
0.000000001
 43
0.00000001
 40
0.0
 40
0.0
 40
0.0
 40
0.0
 40
0.0959143529561119
 40
0.1915542645314313
 40
0.294281537590011
 40
0.3506484711732892
 40
0.408848432335113
 40
0.4970293881200513
 40
0.5853201608978879
 40
0.6732148800459969
 40
0.7755767658461744
 40
0.8321467958005373
 40
0.8905841309767104
 40
0.9431456925936004
 40
0.9976950238685803
 40
1.0
 40
1.0
 40
1.0
 40
1.0
 10
-988.9112698197492
 20
2207.661182475034
 30
0.0
 10
-989.0146900222038
 20
2207.600369795578
 30
0.0
 10
-989.2212345091165
 20
2207.478918441029
 30
0.0
 10
-990.8068799155344
 20
2206.604418343
 30
0.0
 10
-992.8012528752995
 20
2205.666655029083
 30
0.0
 10
-994.8846300600577
 20
2204.920359744688
 30
0.0
 10
-997.0449215932097
 20
2204.354480726497
 30
0.0
 10
-999.8133750950502
 20
2204.042569548788
 30
0.0
 10
-1002.943164238224
 20
2204.355383188489
 30
0.0
 10
-1005.881266255489
 20
2205.196016363495
 30
0.0
 10
-1008.014658129525
 20
2206.123119799106
 30
0.0
 10
-1009.443498851317
 20
2206.844069618771
 30
0.0
 10
-1010.286223439453
 20
2207.303886481905
 30
0.0
 10
-1010.745680283311
 20
2207.565294641538
 30
0.0
 10
-1011.001244759596
 20
2207.712549541962
 30
0.0
 10
-1010.903422688154
 20
2207.656700207038
 30
0.0
 10
-1010.899456805003
 20
2207.654435974303
 30
0.0
  0
SPLINE
  5
435
330
1F
100
AcDbEntity
  8
0
  6
Continuous
 62
     7
370
    15
100
AcDbSpline
210
0.0
220
0.0
230
1.0
 70
    11
 71
     3
 72
    26
 73
    22
 74
     0
 42
0.000000001
 43
0.00000001
 40
0.0
 40
0.0
 40
0.0
 40
0.0
 40
0.053108588547886
 40
0.1061975119041741
 40
0.1598050733999926
 40
0.2137893971596636
 40
0.2671981536464744
 40
0.3199746571925872
 40
0.3730477893602889
 40
0.4268790370879376
 40
0.4807590848384951
 40
0.5339113763927041
 40
0.5866960400142891
 40
0.6400159868103075
 40
0.6939721092656185
 40
0.7476724526117909
 40
0.8006000170493024
 40
0.8534533160820336
 40
0.9070336265822877
 40
0.9610208569635368
 40
1.0
 40
1.0
 40
1.0
 40
1.0
 10
-996.5112680852541
 20
2188.661181223336
 30
0.0
 10
-996.5482502156177
 20
2188.282228583829
 30
0.0
 10
-996.6222007825017
 20
2187.524463624422
 30
0.0
 10
-997.1979623392738
 20
2186.513697955691
 30
0.0
 10
-998.050536974025
 20
2185.737209439664
 30
0.0
 10
-999.1244709067041
 20
2185.28639023192
 30
0.0
 10
-1000.28193643758
 20
2185.217103135415
 30
0.0
 10
-1001.389937598704
 20
2185.529557709584
 30
0.0
 10
-1002.334862912486
 20
2186.185975794718
 30
0.0
 10
-1003.016775763984
 20
2187.123256431754
 30
0.0
 10
-1003.350351704005
 20
2188.237990531733
 30
0.0
 10
-1003.296448412904
 20
2189.393908593752
 30
0.0
 10
-1002.869800419849
 20
2190.46171122064
 30
0.0
 10
-1002.115821173522
 20
2191.333952204026
 30
0.0
 10
-1001.109046159588
 20
2191.913152591544
 30
0.0
 10
-999.9659938212538
 20
2192.125301330428
 30
0.0
 10
-998.8257324829489
 20
2191.949827624985
 30
0.0
 10
-997.8077921557338
 20
2191.413669250787
 30
0.0
 10
-997.0231746162515
 20
2190.570108901589
 30
0.0
 10
-996.5793284288176
 20
2189.600264322646
 30
0.0
 10
-996.5313743680454
 20
2188.938603718885
 30
0.0
 10
-996.5112680852541
 20
2188.661181223336
 30
0.0
  0
LINE
  5
436
330
1F
100
AcDbEntity
  8
0
  6
Continuous
 62
     7
370
    15
100
AcDbLine
 10
-976.9112715781
 20
2207.1611814618
 30
0.0
 11
-976.9112715781
 21
2170.1611809849
 31
0.0
  0
LINE
  5
437
330
1F
100
AcDbEntity
  8
0
  6
Continuous
 62
     7
370
    15
100
AcDbLine
 10
-1016.4112696707
 20
2171.6611821621
 30
0.0
 11
-1016.4112696707
 21
2205.6611821472
 31
0.0
  0
LINE
  5
438
330
1F
100
AcDbEntity
  8
0
  6
Continuous
 62
     7
370
    15
100
AcDbLine
 10
-945.9112711534
 20
60.661231023
 30
0.0
 11
-945.9112711534
 21
56.6612825214
 31
0.0
  0
LINE
  5
439
330
1F
100
AcDbEntity
  8
0
  6
Continuous
 62
     7
370
    15
100
AcDbLine
 10
-945.9112711534
 20
56.6612825214
 30
0.0
 11
-948.4112715632
 21
56.6612825214
 31
0.0
  0
LINE
  5
43A
330
1F
100
AcDbEntity
  8
0
  6
Continuous
 62
     7
370
    15
100
AcDbLine
 10
-948.4112715632
 20
56.6612825214
 30
0.0
 11
-948.4112715632
 21
60.661231023
 31
0.0
  0
LINE
  5
43B
330
1F
100
AcDbEntity
  8
0
  6
Continuous
 62
     7
370
    15
100
AcDbLine
 10
-948.4112715632
 20
60.661231023
 30
0.0
 11
-945.9112711534
 21
60.661231023
 31
0.0
  0
LINE
  5
43C
330
1F
100
AcDbEntity
  8
0
  6
Continuous
 62
     7
370
    15
100
AcDbLine
 10
-971.4112716079
 20
60.661231023
 30
0.0
 11
-971.4112716079
 21
56.6612825214
 31
0.0
  0
LINE
  5
43D
330
1F
100
AcDbEntity
  8
0
  6
Continuous
 62
     7
370
    15
100
AcDbLine
 10
-973.9112692237
 20
56.6612825214
 30
0.0
 11
-973.9112692237
 21
60.661231023
 31
0.0
  0
LINE
  5
43E
330
1F
100
AcDbEntity
  8
0
  6
Continuous
 62
     7
370
    15
100
AcDbLine
 10
-971.4112716079
 20
56.6612825214
 30
0.0
 11
-973.9112692237
 21
56.6612825214
 31
0.0
  0
LINE
  5
43F
330
1F
100
AcDbEntity
  8
0
  6
Continuous
 62
     7
370
    15
100
AcDbLine
 10
-973.9112692237
 20
60.661231023
 30
0.0
 11
-971.4112716079
 21
60.661231023
 31
0.0
  0
LINE
  5
440
330
1F
100
AcDbEntity
  8
0
  6
Continuous
 62
     7
370
    15
100
AcDbLine
 10
-971.4112716079
 20
56.6612825214
 30
0.0
 11
-948.4112715632
 21
56.6612825214
 31
0.0
  0
LINE
  5
441
330
1F
100
AcDbEntity
  8
0
  6
Continuous
 62
     7
370
    15
100
AcDbLine
 10
-971.4112716079
 20
60.661231023
 30
0.0
 11
-948.4112715632
 21
60.661231023
 31
0.0
  0
LINE
  5
442
330
1F
100
AcDbEntity
  8
0
  6
Continuous
 62
     7
370
    15
100
AcDbLine
 10
-960.856890893
 20
62.1348962604
 30
0.0
 11
-958.9656504154
 21
62.1348962604
 31
0.0
  0
ARC
  5
443
330
1F
100
AcDbEntity
  8
0
  6
Continuous
 62
     7
370
    15
100
AcDbCircle
 10
-957.4882334316
 20
62.138492215
 30
0.0
 40
1.477421360036145
100
AcDbArc
 50
180.1394546125
 51
269.1563208707
  0
ARC
  5
444
330
1F
100
AcDbEntity
  8
0
  6
Continuous
 62
     7
370
    15
100
AcDbCircle
 10
-962.3343078769
 20
62.138492215
 30
0.0
 40
1.477421360036041
100
AcDbArc
 50
270.8436791293
 51
359.8605453875
  0
LINE
  5
445
330
1F
100
AcDbEntity
  8
0
  6
Continuous
 62
     7
370
    15
100
AcDbLine
 10
-960.6357613862
 20
75.1873597919
 30
0.0
 11
-960.856890893
 21
62.1348962604
 31
0.0
  0
SPLINE
  5
446
330
1F
100
AcDbEntity
  8
0
  6
Continuous
 62
     7
370
    15
100
AcDbSpline
210
0.0
220
0.0
230
1.0
 70
     8
 71
     3
 72
    15
 73
    11
 74
     0
 42
0.000000001
 43
0.00000001
 40
0.0
 40
0.0
 40
0.0
 40
0.0
 40
0.1416494495298136
 40
0.272183735083346
 40
0.3916187006460293
 40
0.5000023219355014
 40
0.6083766032001805
 40
0.7278098664760286
 40
0.8583481829632152
 40
1.0
 40
1.0
 40
1.0
 40
1.0
 10
-959.1867799222597
 20
75.18735979193791
 30
0.0
 10
-959.2193126978599
 20
75.19358565744105
 30
0.0
 10
-959.281825417852
 20
75.2055488477834
 30
0.0
 10
-959.4741478910478
 20
75.21853172036974
 30
0.0
 10
-959.689166182441
 20
75.22629073961507
 30
0.0
 10
-959.9112645109597
 20
75.22935594577373
 30
0.0
 10
-960.1333615472533
 20
75.226290608996
 30
0.0
 10
-960.3483727097539
 20
75.21853141974222
 30
0.0
 10
-960.5407043863938
 20
75.20554901223852
 30
0.0
 10
-960.6032248182304
 20
75.19358568591205
 30
0.0
 10
-960.6357613861688
 20
75.18735979193791
 30
0.0
  0
LINE
  5
447
330
1F
100
AcDbEntity
  8
0
  6
Continuous
 62
     7
370
    15
100
AcDbLine
 10
-959.1867799223
 20
75.1873597919
 30
0.0
 11
-958.9656504154
 21
62.1348962604
 31
0.0
  0
SPLINE
  5
448
330
1F
100
AcDbEntity
  8
0
  6
Continuous
 62
     7
370
    15
100
AcDbSpline
210
0.0
220
0.0
230
1.0
 70
     8
 71
     3
 72
    12
 73
     8
 74
     0
 42
0.000000001
 43
0.00000001
 40
0.0
 40
0.0
 40
0.0
 40
0.0
 40
0.0631743877978436
 40
0.1343747562000019
 40
0.2519205294599466
 40
0.4992502286006112
 40
1.0
 40
1.0
 40
1.0
 40
1.0
 10
-959.1867799222597
 20
75.18735979193791
 30
0.0
 10
-959.1909573150499
 20
75.28069379105129
 30
0.0
 10
-959.1998428168698
 20
75.4792193931706
 30
0.0
 10
-959.2524095492643
 20
75.78990309501398
 30
0.0
 10
-959.3679661763182
 20
76.17858887846229
 30
0.0
 10
-959.6173311382182
 20
76.59414659397723
 30
0.0
 10
-959.7934081470778
 20
76.63435124237394
 30
0.0
 10
-959.9112706542143
 20
76.66126344794377
 30
0.0
  0
SPLINE
  5
449
330
1F
100
AcDbEntity
  8
0
  6
Continuous
 62
     7
370
    15
100
AcDbSpline
210
0.0
220
0.0
230
1.0
 70
     8
 71
     3
 72
    13
 73
     9
 74
     0
 42
0.000000001
 43
0.00000001
 40
0.0
 40
0.0
 40
0.0
 40
0.0
 40
0.5005330734278778
 40
0.7471241829160234
 40
0.8580606154227427
 40
0.921825682138467
 40
0.9618894893861164
 40
1.0
 40
1.0
 40
1.0
 40
1.0
 10
-959.9112706542143
 20
76.66126344794377
 30
0.0
 10
-960.029260601093
 20
76.63448733605205
 30
0.0
 10
-960.2053791181982
 20
76.59451978589283
 30
0.0
 10
-960.451873874474
 20
76.18191293147292
 30
0.0
 10
-960.5647838879345
 20
75.81109764271265
 30
0.0
 10
-960.6097956695231
 20
75.55446575921043
 30
0.0
 10
-960.6301285618355
 20
75.3589622768025
 30
0.0
 10
-960.6339153172158
 20
75.24359978821704
 30
0.0
 10
-960.6357613861688
 20
75.18735979193791
 30
0.0
  0
LINE
  5
44A
330
1F
100
AcDbEntity
  8
0
  6
Continuous
 62
     7
370
    15
100
AcDbLine
 10
-959.9112706542
 20
76.6612634479
 30
0.0
 11
-959.076429373
 21
76.6612634479
 31
0.0
  0
LINE
  5
44B
330
1F
100
AcDbEntity
  8
0
  6
Continuous
 62
     7
370
    15
100
AcDbLine
 10
-960.746113798
 20
76.6612634479
 30
0.0
 11
-959.9112706542
 21
76.6612634479
 31
0.0
  0
LINE
  5
44C
330
1F
100
AcDbEntity
  8
0
  6
Continuous
 62
     7
370
    15
100
AcDbLine
 10
-935.4112708293
 20
1996.1700037538
 30
0.0
 11
-935.4112708293
 21
2019.6611777365
 31
0.0
  0
LINE
  5
44D
330
1F
100
AcDbEntity
  8
0
  6
Continuous
 62
     7
370
    15
100
AcDbLine
 10
-935.4112708293
 20
1989.6611765444
 30
0.0
 11
-935.4112708293
 21
1996.1700037538
 31
0.0
  0
LINE
  5
44E
330
1F
100
AcDbEntity
  8
0
  6
Continuous
 62
     7
370
    15
100
AcDbLine
 10
-933.4112708507
 20
1997.302164179
 30
0.0
 11
-933.4112708507
 21
1991.6611805975
 31
0.0
  0
LINE
  5
44F
330
1F
100
AcDbEntity
  8
0
  6
Continuous
 62
     7
370
    15
100
AcDbLine
 10
-933.4112708507
 20
2017.6611885845
 30
0.0
 11
-933.4112708507
 21
1997.302164179
 31
0.0
  0
LINE
  5
450
330
1F
100
AcDbEntity
  8
0
  6
Continuous
 62
     7
370
    15
100
AcDbLine
 10
-935.4112708293
 20
2061.3244966089
 30
0.0
 11
-935.4112708293
 21
2074.661184889
 31
0.0
  0
LINE
  5
451
330
1F
100
AcDbEntity
  8
0
  6
Continuous
 62
     7
370
    15
100
AcDbLine
 10
-935.4112708293
 20
2044.6611836969
 30
0.0
 11
-935.4112708293
 21
2061.3244966089
 31
0.0
  0
LINE
  5
452
330
1F
100
AcDbEntity
  8
0
  6
Continuous
 62
     7
370
    15
100
AcDbLine
 10
-933.4112708507
 20
2061.1027226269
 30
0.0
 11
-933.4112708507
 21
2046.6611802995
 31
0.0
  0
LINE
  5
453
330
1F
100
AcDbEntity
  8
0
  6
Continuous
 62
     7
370
    15
100
AcDbLine
 10
-933.4112708507
 20
2072.6611808359
 30
0.0
 11
-933.4112708507
 21
2061.1027226269
 31
0.0
  0
LINE
  5
454
330
1F
100
AcDbEntity
  8
0
  6
Continuous
 62
     7
370
    15
100
AcDbLine
 10
-984.8125862241
 20
1993.8338891088
 30
0.0
 11
-984.8125862241
 21
2018.2598725378
 31
0.0
  0
LINE
  5
455
330
1F
100
AcDbEntity
  8
0
  6
Continuous
 62
     7
370
    15
100
AcDbLine
 10
-984.8125862241
 20
1991.0624966442
 30
0.0
 11
-984.8125862241
 21
1993.8338891088
 31
0.0
  0
LINE
  5
456
330
1F
100
AcDbEntity
  8
0
  6
Continuous
 62
     7
370
    15
100
AcDbLine
 10
-983.4112698496
 20
2019.6611777365
 30
0.0
 11
-983.4112698496
 21
1989.6611765444
 31
0.0
  0
LINE
  5
457
330
1F
100
AcDbEntity
  8
0
  6
Continuous
 62
     7
370
    15
100
AcDbLine
 10
-983.4112698496
 20
2074.661184889
 30
0.0
 11
-983.4112698496
 21
2044.6611836969
 31
0.0
  0
LINE
  5
458
330
1F
100
AcDbEntity
  8
0
  6
Continuous
 62
     7
370
    15
100
AcDbLine
 10
-984.8125862241
 20
2046.0624963462
 30
0.0
 11
-984.8125862241
 21
2073.2598647892
 31
0.0
  0
LINE
  5
459
330
1F
100
AcDbEntity
  8
0
  6
Continuous
 62
     7
370
    15
100
AcDbLine
 10
-988.9112698197
 20
2210.6611811041
 30
0.0
 11
-1010.9112734258
 21
2210.6611811041
 31
0.0
  0
LINE
  5
45A
330
1F
100
AcDbEntity
  8
0
  6
Continuous
 62
     7
370
    15
100
AcDbLine
 10
-1008.9112693727
 20
2212.661181432
 30
0.0
 11
-990.9112701476
 21
2212.661181432
 31
0.0
  0
LINE
  5
45B
330
1F
100
AcDbEntity
  8
0
  6
Continuous
 62
     7
370
    15
100
AcDbLine
 10
-990.9112701476
 20
1974.6611759483
 30
0.0
 11
-1008.9112693727
 21
1974.6611759483
 31
0.0
  0
LINE
  5
45C
330
1F
100
AcDbEntity
  8
0
  6
Continuous
 62
     7
370
    15
100
AcDbLine
 10
-1010.9112734258
 20
1976.6611800014
 30
0.0
 11
-988.9112698197
 21
1976.6611800014
 31
0.0
  0
LWPOLYLINE
  5
45D
330
1F
100
AcDbEntity
  8
0
  6
Continuous
 62
     7
370
    15
100
AcDbPolyline
 90
       15
 70
   128
 43
0.0
 10
-988.970662123
 20
2051.7430648624
 10
-988.9930660188
 20
2051.7740294754
 10
-989.4435765505
 20
2052.4104804217
 10
-990.245352155
 20
2053.6254615008
 10
-991.3436794937
 20
2055.6110486805
 10
-992.1297380984
 20
2057.7764332711
 10
-992.3614176273
 20
2059.6786410033
 10
-992.1209762156
 20
2061.5817800581
 10
-991.305711335
 20
2063.7910336673
 10
-990.2838195026
 20
2065.6351119697
 10
-989.7241505146
 20
2066.500586313
 10
-989.2613837779
 20
2067.1725169241
 10
-988.9258841336
 20
2067.6410764872
 10
-988.9112698197
 20
2067.6611781537
 10
-988.9112698197
 20
2067.6611781537
  0
LWPOLYLINE
  5
45E
330
1F
100
AcDbEntity
  8
0
  6
Continuous
 62
     7
370
    15
100
AcDbPolyline
 90
       15
 70
   128
 43
0.0
 10
-988.970662123
 20
1996.7430577099
 10
-988.9930660188
 20
1996.7740223228
 10
-989.4435765505
 20
1997.4104807197
 10
-990.245352155
 20
1998.6254617989
 10
-991.3436794937
 20
2000.6110415279
 10
-992.1297380984
 20
2002.7764335691
 10
-992.3614176273
 20
2004.6786413013
 10
-992.1209762156
 20
2006.5817729055
 10
-991.305711335
 20
2008.7910339653
 10
-990.2838195026
 20
2010.6351122677
 10
-989.7241505146
 20
2011.500586611
 10
-989.2613837779
 20
2012.1725097715
 10
-988.9258841336
 20
2012.6410767853
 10
-988.9112698197
 20
2012.6611784517
 10
-988.9112698197
 20
2012.6611784517
  0
SPLINE
  5
45F
330
1F
100
AcDbEntity
  8
0
  6
Continuous
 62
     7
370
    15
100
AcDbSpline
210
0.0
220
0.0
230
1.0
 70
    11
 71
     3
 72
    26
 73
    22
 74
     0
 42
0.000000001
 43
0.00000001
 40
0.0
 40
0.0
 40
0.0
 40
0.0
 40
0.0530290704022445
 40
0.1060360911818162
 40
0.1596301265882327
 40
0.2136566272930956
 40
0.2670304277342642
 40
0.3196807706423717
 40
0.3726653341439217
 40
0.4265135494143589
 40
0.480423734272717
 40
0.533508150012458
 40
0.5861694845814436
 40
0.6394310433362695
 40
0.6934208317348575
 40
0.7471327235979519
 40
0.7999617030091193
 40
0.8526931146007048
 40
0.9062477322727627
 40
0.9602786542555249
 40
0.9999999999999999
 40
0.9999999999999999
 40
0.9999999999999999
 40
0.9999999999999999
 10
-999.9112734854349
 20
2126.561180543843
 30
0.0
 10
-1000.145048040722
 20
2126.583972297948
 30
0.0
 10
-1000.612499947241
 20
2126.629546329286
 30
0.0
 10
-1001.236207374737
 20
2126.9842916839
 30
0.0
 10
-1001.716028427671
 20
2127.5099824243
 30
0.0
 10
-1001.995208182289
 20
2128.172969368512
 30
0.0
 10
-1002.038671023418
 20
2128.887557553324
 30
0.0
 10
-1001.846892177289
 20
2129.571156768246
 30
0.0
 10
-1001.44328804809
 20
2130.154696563551
 30
0.0
 10
-1000.865731734976
 20
2130.577047359067
 30
0.0
 10
-1000.177677321393
 20
2130.784694390293
 30
0.0
 10
-999.4641334641283
 20
2130.753072253476
 30
0.0
 10
-998.8049205088548
 20
2130.49180768017
 30
0.0
 10
-998.2652871193418
 20
2130.028598409629
 30
0.0
 10
-997.9053643884225
 20
2129.408262597787
 30
0.0
 10
-997.7718326132128
 20
2128.702771815022
 30
0.0
 10
-997.8775479193237
 20
2127.998835318775
 30
0.0
 10
-998.2054416589025
 20
2127.36977454622
 30
0.0
 10
-998.7235336071734
 20
2126.883161417089
 30
0.0
 10
-999.3242971689116
 20
2126.604519766032
 30
0.0
 10
-999.7365910998607
 20
2126.574078165958
 30
0.0
 10
-999.9112734854349
 20
2126.561180543843
 30
0.0
  0
LINE
  5
460
330
1F
100
AcDbEntity
  8
0
  6
Continuous
 62
     7
370
    15
100
AcDbLine
 10
-974.9429436684
 20
2165.1611810967
 30
0.0
 11
-974.9429436684
 21
2217.6611841142
 31
0.0
  0
LINE
  5
461
330
1F
100
AcDbEntity
  8
0
  6
Continuous
 62
     7
370
    15
100
AcDbLine
 10
-958.9316999823
 20
2175.8205991655
 30
0.0
 11
-958.9316999823
 21
2165.1611810967
 31
0.0
  0
LINE
  5
462
330
1F
100
AcDbEntity
  8
0
  6
Continuous
 62
     7
370
    15
100
AcDbLine
 10
-958.9316999823
 20
2217.6611841142
 30
0.0
 11
-958.9316999823
 21
2175.8205991655
 31
0.0
  0
LINE
  5
463
330
1F
100
AcDbEntity
  8
0
  6
Continuous
 62
     7
370
    15
100
AcDbLine
 10
-957.9112703264
 20
2217.6611841142
 30
0.0
 11
-957.9112703264
 21
2165.1611810967
 31
0.0
  0
LINE
  5
464
330
1F
100
AcDbEntity
  8
0
  6
Continuous
 62
     7
370
    15
100
AcDbLine
 10
-975.9112695515
 20
2217.6611841142
 30
0.0
 11
-975.9112695515
 21
2165.1611810967
 31
0.0
  0
CIRCLE
  5
465
330
1F
100
AcDbEntity
  8
0
  6
Continuous
 62
     7
370
    15
100
AcDbCircle
 10
-999.9112708032
 20
2188.661181432
 30
0.0
 40
2.999999999999939
  0
LINE
  5
466
330
1F
100
AcDbEntity
  8
0
  6
Continuous
 62
     7
370
    15
100
AcDbLine
 10
-999.2787564457
 20
2190.8822738051
 30
0.0
 11
-1001.5185350835
 21
2190.3195053756
 31
0.0
  0
LINE
  5
467
330
1F
100
AcDbEntity
  8
0
  6
Continuous
 62
     7
370
    15
100
AcDbLine
 10
-1001.5185350835
 20
2190.3195053756
 30
0.0
 11
-1002.1510521233
 21
2188.0984127938
 31
0.0
  0
LINE
  5
468
330
1F
100
AcDbEntity
  8
0
  6
Continuous
 62
     7
370
    15
100
AcDbLine
 10
-1000.5437905252
 20
2186.4400886416
 30
0.0
 11
-998.3040044367
 21
2187.0028570711
 31
0.0
  0
LINE
  5
469
330
1F
100
AcDbEntity
  8
0
  6
Continuous
 62
     7
370
    15
100
AcDbLine
 10
-1002.1510521233
 20
2188.0984127938
 30
0.0
 11
-1000.5437905252
 21
2186.4400886416
 31
0.0
  0
LINE
  5
46A
330
1F
100
AcDbEntity
  8
0
  6
Continuous
 62
     7
370
    15
100
AcDbLine
 10
-997.671487397
 20
2189.2239496529
 30
0.0
 11
-999.2787564457
 21
2190.8822738051
 31
0.0
  0
LINE
  5
46B
330
1F
100
AcDbEntity
  8
0
  6
Continuous
 62
     7
370
    15
100
AcDbLine
 10
-998.3040044367
 20
2187.0028570711
 30
0.0
 11
-997.671487397
 21
2189.2239496529
 31
0.0
  0
LINE
  5
46C
330
1F
100
AcDbEntity
  8
0
  6
Continuous
 62
     7
370
    15
100
AcDbLine
 10
-1001.5647435844
 20
2128.1454068094
 30
0.0
 11
-1001.1846820176
 21
2129.8352450549
 31
0.0
  0
LINE
  5
46D
330
1F
100
AcDbEntity
  8
0
  6
Continuous
 62
     7
370
    15
100
AcDbLine
 10
-1001.5647435844
 20
2128.1454068094
 30
0.0
 11
-1000.2913350523
 21
2126.9713443189
 31
0.0
  0
LINE
  5
46E
330
1F
100
AcDbEntity
  8
0
  6
Continuous
 62
     7
370
    15
100
AcDbLine
 10
-998.6378575027
 20
2127.4871182113
 30
0.0
 11
-1000.2913350523
 21
2126.9713443189
 31
0.0
  0
CIRCLE
  5
46F
330
1F
100
AcDbEntity
  8
0
  6
Continuous
 62
     7
370
    15
100
AcDbCircle
 10
-999.9112708032
 20
2128.661181432
 30
0.0
 40
2.445499999999749
  0
LINE
  5
470
330
1F
100
AcDbEntity
  8
0
  6
Continuous
 62
     7
370
    15
100
AcDbLine
 10
-998.6378575027
 20
2127.4871182113
 30
0.0
 11
-998.2577959359
 21
2129.1769545942
 31
0.0
  0
LINE
  5
471
330
1F
100
AcDbEntity
  8
0
  6
Continuous
 62
     7
370
    15
100
AcDbLine
 10
-998.2577959359
 20
2129.1769545942
 30
0.0
 11
-999.531204468
 21
2130.3510189473
 31
0.0
  0
LINE
  5
472
330
1F
100
AcDbEntity
  8
0
  6
Continuous
 62
     7
370
    15
100
AcDbLine
 10
-1001.1846820176
 20
2129.8352450549
 30
0.0
 11
-999.531204468
 21
2130.3510189473
 31
0.0
  0
ARC
  5
473
330
1F
100
AcDbEntity
  8
0
  6
Continuous
 62
     7
370
    15
100
AcDbCircle
 10
-999.9112708032
 20
2128.661181432
 30
0.0
 40
3.000000000000114
100
AcDbArc
 50
331.4221124016
 51
28.5778875984
  0
ARC
  5
474
330
1F
100
AcDbEntity
  8
0
  6
Continuous
 62
     7
370
    15
100
AcDbCircle
 10
-999.9112708032
 20
2128.661181432
 30
0.0
 40
2.999999999999968
100
AcDbArc
 50
151.4221124015
 51
208.5778875985
  0
LINE
  5
475
330
1F
100
AcDbEntity
  8
0
  6
Continuous
 62
     7
370
    15
100
AcDbLine
 10
-936.4112709932
 20
2135.1611817672
 30
0.0
 11
-936.4112709932
 21
2165.1611810967
 31
0.0
  0
LINE
  5
476
330
1F
100
AcDbEntity
  8
0
  6
Continuous
 62
     7
370
    15
100
AcDbLine
 10
-934.4112708982
 20
2180.1611807614
 30
0.0
 11
-934.4112708982
 21
2120.1611821025
 31
0.0
  0
LINE
  5
477
330
1F
100
AcDbEntity
  8
0
  6
Continuous
 62
     7
370
    15
100
AcDbLine
 10
-932.4112708032
 20
2120.1611821025
 30
0.0
 11
-932.4112708032
 21
2180.1611807614
 31
0.0
  0
LINE
  5
478
330
1F
100
AcDbEntity
  8
0
  6
Continuous
 62
     8
370
    15
100
AcDbLine
 10
-958.9656504154
 20
62.1348962604
 30
0.0
 11
-957.3488278598
 21
62.1348962604
 31
0.0
  0
LINE
  5
479
330
1F
100
AcDbEntity
  8
0
  6
Continuous
 62
     8
370
    15
100
AcDbLine
 10
-962.4737153113
 20
62.1348962604
 30
0.0
 11
-960.856890893
 21
62.1348962604
 31
0.0
  0
LINE
  5
47A
330
1F
100
AcDbEntity
  8
0
  6
Continuous
 62
     8
370
    15
100
AcDbLine
 10
-960.6357613862
 20
75.1873597919
 30
0.0
 11
-962.2458840072
 21
75.1873597919
 31
0.0
  0
LINE
  5
47B
330
1F
100
AcDbEntity
  8
0
  6
Continuous
 62
     8
370
    15
100
AcDbLine
 10
-957.5766573012
 20
75.1873597919
 30
0.0
 11
-959.1867799223
 21
75.1873597919
 31
0.0
  0
ENDSEC
  0
SECTION
  2
OBJECTS
  0
DICTIONARY
  5
C
330
0
100
AcDbDictionary
281
     1
  3
ACAD_GROUP
350
D
  3
ACAD_LAYOUT
350
1A
  3
ACAD_MLINESTYLE
350
17
  3
ACAD_PLOTSETTINGS
350
19
  3
ACAD_PLOTSTYLENAME
350
E
  3
ACAD_SCALELIST
350
47
  0
DICTIONARY
  5
D
102
{ACAD_REACTORS
330
C
102
}
330
C
100
AcDbDictionary
281
     1
  0
DICTIONARY
  5
1A
102
{ACAD_REACTORS
330
C
102
}
330
C
100
AcDbDictionary
281
     1
  3
Layout1
350
1E
  3
Layout2
350
26
  3
Model
350
22
  0
DICTIONARY
  5
17
102
{ACAD_REACTORS
330
C
102
}
330
C
100
AcDbDictionary
281
     1
  3
Standard
350
18
  0
DICTIONARY
  5
19
102
{ACAD_REACTORS
330
C
102
}
330
C
100
AcDbDictionary
281
     1
  0
ACDBDICTIONARYWDFLT
  5
E
102
{ACAD_REACTORS
330
C
102
}
330
C
100
AcDbDictionary
281
     1
  3
Normal
350
F
100
AcDbDictionaryWithDefault
340
F
  0
DICTIONARY
  5
47
102
{ACAD_REACTORS
330
C
102
}
330
C
100
AcDbDictionary
281
     1
  3
A0
350
48
  3
A1
350
49
  3
A2
350
4A
  3
A3
350
4B
  3
A4
350
4C
  3
A5
350
4D
  3
A6
350
4E
  3
A7
350
4F
  3
A8
350
50
  3
A9
350
51
  3
B0
350
52
  3
B1
350
53
  3
B2
350
54
  3
B3
350
55
  3
B4
350
56
  3
B5
350
57
  3
B6
350
58
  3
B7
350
59
  3
B8
350
5A
  3
B9
350
5B
  3
C0
350
5C
  3
C1
350
5D
  3
C2
350
5E
  3
C3
350
5F
  3
C4
350
60
  3
C5
350
61
  3
C6
350
62
  3
C7
350
63
  3
C8
350
64
  3
C9
350
65
  3
D0
350
66
  3
D1
350
67
  3
D2
350
68
  0
LAYOUT
  5
1E
102
{ACAD_REACTORS
330
1A
102
}
330
1A
100
AcDbPlotSettings
  1

  2
none_device
  4

  6

 40
0.0
 41
0.0
 42
0.0
 43
0.0
 44
0.0
 45
0.0
 46
0.0
 47
0.0
 48
0.0
 49
0.0
140
0.0
141
0.0
142
1.0
143
1.0
 70
   688
 72
     1
 73
     0
 74
     5
  7

 75
    16
147
1.0
148
0.0
149
0.0
100
AcDbLayout
  1
Layout1
 70
     1
 71
     1
 10
0.0
 20
0.0
 11
420.0
 21
297.0
 12
0.0
 22
0.0
 32
0.0
 14
1.0000000000E+20
 24
1.0000000000E+20
 34
1.0000000000E+20
 15
-1.0000000000E+20
 25
-1.0000000000E+20
 35
-1.0000000000E+20
146
0.0
 13
0.0
 23
0.0
 33
0.0
 16
1.0
 26
0.0
 36
0.0
 17
0.0
 27
1.0
 37
0.0
 76
     0
330
1B
  0
LAYOUT
  5
26
102
{ACAD_REACTORS
330
1A
102
}
330
1A
100
AcDbPlotSettings
  1

  2
none_device
  4

  6

 40
0.0
 41
0.0
 42
0.0
 43
0.0
 44
0.0
 45
0.0
 46
0.0
 47
0.0
 48
0.0
 49
0.0
140
0.0
141
0.0
142
1.0
143
1.0
 70
   688
 72
     1
 73
     0
 74
     5
  7

 75
    16
147
1.0
148
0.0
149
0.0
100
AcDbLayout
  1
Layout2
 70
     1
 71
     2
 10
0.0
 20
0.0
 11
0.0
 21
0.0
 12
0.0
 22
0.0
 32
0.0
 14
0.0
 24
0.0
 34
0.0
 15
0.0
 25
0.0
 35
0.0
146
0.0
 13
0.0
 23
0.0
 33
0.0
 16
1.0
 26
0.0
 36
0.0
 17
0.0
 27
1.0
 37
0.0
 76
     0
330
23
  0
LAYOUT
  5
22
102
{ACAD_REACTORS
330
1A
102
}
330
1A
100
AcDbPlotSettings
  1

  2
none_device
  4
Letter_(8.50_x_11.00_Inches)
  6

 40
6.35
 41
6.35
 42
6.35000508
 43
6.35000508
 44
215.9
 45
279.4
 46
0.0
 47
0.0
 48
0.0
 49
0.0
140
0.0
141
0.0
142
1.0
143
1.0
 70
  1712
 72
     1
 73
     0
 74
     0
  7

 75
     0
147
1.0
148
0.0
149
0.0
100
AcDbLayout
  1
Model
 70
     1
 71
     0
 10
0.0
 20
0.0
 11
431.8
 21
279.4
 12
0.0
 22
0.0
 32
0.0
 14
0.0
 24
0.0
 34
0.0
 15
431.8
 25
279.4
 35
0.0
146
0.0
 13
0.0
 23
0.0
 33
0.0
 16
1.0
 26
0.0
 36
0.0
 17
0.0
 27
1.0
 37
0.0
 76
     0
330
1F
331
29
  0
MLINESTYLE
  5
18
102
{ACAD_REACTORS
330
17
102
}
330
17
100
AcDbMlineStyle
  2
Standard
 70
     0
  3

 62
   256
 51
90.0
 52
90.0
 71
     2
 49
0.5
 62
   256
  6
BYLAYER
 49
-0.5
 62
   256
  6
BYLAYER
  0
ACDBPLACEHOLDER
  5
F
102
{ACAD_REACTORS
330
E
102
}
330
E
  0
SCALE
  5
48
102
{ACAD_REACTORS
330
47
102
}
330
47
100
AcDbScale
 70
     0
300
1:1
140
1.0
141
1.0
290
     1
  0
SCALE
  5
49
102
{ACAD_REACTORS
330
47
102
}
330
47
100
AcDbScale
 70
     0
300
1:2
140
1.0
141
2.0
290
     0
  0
SCALE
  5
4A
102
{ACAD_REACTORS
330
47
102
}
330
47
100
AcDbScale
 70
     0
300
1:4
140
1.0
141
4.0
290
     0
  0
SCALE
  5
4B
102
{ACAD_REACTORS
330
47
102
}
330
47
100
AcDbScale
 70
     0
300
1:5
140
1.0
141
5.0
290
     0
  0
SCALE
  5
4C
102
{ACAD_REACTORS
330
47
102
}
330
47
100
AcDbScale
 70
     0
300
1:8
140
1.0
141
8.0
290
     0
  0
SCALE
  5
4D
102
{ACAD_REACTORS
330
47
102
}
330
47
100
AcDbScale
 70
     0
300
1:10
140
1.0
141
10.0
290
     0
  0
SCALE
  5
4E
102
{ACAD_REACTORS
330
47
102
}
330
47
100
AcDbScale
 70
     0
300
1:16
140
1.0
141
16.0
290
     0
  0
SCALE
  5
4F
102
{ACAD_REACTORS
330
47
102
}
330
47
100
AcDbScale
 70
     0
300
1:20
140
1.0
141
20.0
290
     0
  0
SCALE
  5
50
102
{ACAD_REACTORS
330
47
102
}
330
47
100
AcDbScale
 70
     0
300
1:30
140
1.0
141
30.0
290
     0
  0
SCALE
  5
51
102
{ACAD_REACTORS
330
47
102
}
330
47
100
AcDbScale
 70
     0
300
1:40
140
1.0
141
40.0
290
     0
  0
SCALE
  5
52
102
{ACAD_REACTORS
330
47
102
}
330
47
100
AcDbScale
 70
     0
300
1:50
140
1.0
141
50.0
290
     0
  0
SCALE
  5
53
102
{ACAD_REACTORS
330
47
102
}
330
47
100
AcDbScale
 70
     0
300
1:100
140
1.0
141
100.0
290
     0
  0
SCALE
  5
54
102
{ACAD_REACTORS
330
47
102
}
330
47
100
AcDbScale
 70
     0
300
2:1
140
2.0
141
1.0
290
     0
  0
SCALE
  5
55
102
{ACAD_REACTORS
330
47
102
}
330
47
100
AcDbScale
 70
     0
300
4:1
140
4.0
141
1.0
290
     0
  0
SCALE
  5
56
102
{ACAD_REACTORS
330
47
102
}
330
47
100
AcDbScale
 70
     0
300
8:1
140
8.0
141
1.0
290
     0
  0
SCALE
  5
57
102
{ACAD_REACTORS
330
47
102
}
330
47
100
AcDbScale
 70
     0
300
10:1
140
10.0
141
1.0
290
     0
  0
SCALE
  5
58
102
{ACAD_REACTORS
330
47
102
}
330
47
100
AcDbScale
 70
     0
300
100:1
140
100.0
141
1.0
290
     0
  0
SCALE
  5
59
102
{ACAD_REACTORS
330
47
102
}
330
47
100
AcDbScale
 70
     0
300
1/128" = 1'-0"
140
0.0078125
141
12.0
290
     0
  0
SCALE
  5
5A
102
{ACAD_REACTORS
330
47
102
}
330
47
100
AcDbScale
 70
     0
300
1/64" = 1'-0"
140
0.015625
141
12.0
290
     0
  0
SCALE
  5
5B
102
{ACAD_REACTORS
330
47
102
}
330
47
100
AcDbScale
 70
     0
300
1/32" = 1'-0"
140
0.03125
141
12.0
290
     0
  0
SCALE
  5
5C
102
{ACAD_REACTORS
330
47
102
}
330
47
100
AcDbScale
 70
     0
300
1/16" = 1'-0"
140
0.0625
141
12.0
290
     0
  0
SCALE
  5
5D
102
{ACAD_REACTORS
330
47
102
}
330
47
100
AcDbScale
 70
     0
300
3/32" = 1'-0"
140
0.09375
141
12.0
290
     0
  0
SCALE
  5
5E
102
{ACAD_REACTORS
330
47
102
}
330
47
100
AcDbScale
 70
     0
300
1/8" = 1'-0"
140
0.125
141
12.0
290
     0
  0
SCALE
  5
5F
102
{ACAD_REACTORS
330
47
102
}
330
47
100
AcDbScale
 70
     0
300
3/16" = 1'-0"
140
0.1875
141
12.0
290
     0
  0
SCALE
  5
60
102
{ACAD_REACTORS
330
47
102
}
330
47
100
AcDbScale
 70
     0
300
1/4" = 1'-0"
140
0.25
141
12.0
290
     0
  0
SCALE
  5
61
102
{ACAD_REACTORS
330
47
102
}
330
47
100
AcDbScale
 70
     0
300
3/8" = 1'-0"
140
0.375
141
12.0
290
     0
  0
SCALE
  5
62
102
{ACAD_REACTORS
330
47
102
}
330
47
100
AcDbScale
 70
     0
300
1/2" = 1'-0"
140
0.5
141
12.0
290
     0
  0
SCALE
  5
63
102
{ACAD_REACTORS
330
47
102
}
330
47
100
AcDbScale
 70
     0
300
3/4" = 1'-0"
140
0.75
141
12.0
290
     0
  0
SCALE
  5
64
102
{ACAD_REACTORS
330
47
102
}
330
47
100
AcDbScale
 70
     0
300
1" = 1'-0"
140
1.0
141
12.0
290
     0
  0
SCALE
  5
65
102
{ACAD_REACTORS
330
47
102
}
330
47
100
AcDbScale
 70
     0
300
1-1/2" = 1'-0"
140
1.5
141
12.0
290
     0
  0
SCALE
  5
66
102
{ACAD_REACTORS
330
47
102
}
330
47
100
AcDbScale
 70
     0
300
3" = 1'-0"
140
3.0
141
12.0
290
     0
  0
SCALE
  5
67
102
{ACAD_REACTORS
330
47
102
}
330
47
100
AcDbScale
 70
     0
300
6" = 1'-0"
140
6.0
141
12.0
290
     0
  0
SCALE
  5
68
102
{ACAD_REACTORS
330
47
102
}
330
47
100
AcDbScale
 70
     0
300
1'-0" = 1'-0"
140
12.0
141
12.0
290
     0
  0
ENDSEC
  0
EOF
