  0
SECTION
  2
HEADER
  9
$ACADVER
  1
AC1015
  9
$ACADMAINTVER
 70
     6
  9
$DWGCODEPAGE
  3
ANSI_1252
  9
$INSBASE
 10
0.0
 20
0.0
 30
0.0
  9
$EXTMIN
 10
0.0
 20
0.0
 30
0.0
  9
$EXTMAX
 10
431.8
 20
279.4
 30
0.0
  9
$LIMMIN
 10
0.0
 20
0.0
  9
$LIMMAX
 10
431.8
 20
279.4
  9
$ORTHOMODE
 70
     0
  9
$REGENMODE
 70
     1
  9
$FILLMODE
 70
     1
  9
$QTEXTMODE
 70
     0
  9
$MIRRTEXT
 70
     1
  9
$LTSCALE
 40
1.0
  9
$ATTMODE
 70
     1
  9
$TEXTSIZE
 40
3.5
  9
$TRACEWID
 40
1.0
  9
$TEXTSTYLE
  7
Standard
  9
$CLAYER
  8
0
  9
$CELTYPE
  6
ByLayer
  9
$CECOLOR
 62
   256
  9
$CELTSCALE
 40
1.0
  9
$DISPSILH
 70
     0
  9
$DIMSCALE
 40
1.0
  9
$DIMASZ
 40
2.5
  9
$DIMEXO
 40
1.0
  9
$DIMDLI
 40
3.75
  9
$DIMRND
 40
0.0
  9
$DIMDLE
 40
0.0
  9
$DIMEXE
 40
1.0
  9
$DIMTP
 40
0.0
  9
$DIMTM
 40
0.0
  9
$DIMTXT
 40
2.5
  9
$DIMCEN
 40
2.5
  9
$DIMTSZ
 40
0.0
  9
$DIMTOL
 70
     0
  9
$DIMLIM
 70
     0
  9
$DIMTIH
 70
     1
  9
$DIMTOH
 70
     1
  9
$DIMSE1
 70
     0
  9
$DIMSE2
 70
     0
  9
$DIMTAD
 70
     1
  9
$DIMZIN
 70
     0
  9
$DIMBLK
  1

  9
$DIMASO
 70
     1
  9
$DIMSHO
 70
     1
  9
$DIMPOST
  1

  9
$DIMAPOST
  1

  9
$DIMALT
 70
     0
  9
$DIMALTD
 70
     3
  9
$DIMALTF
 40
0.0393700787
  9
$DIMLFAC
 40
1.0
  9
$DIMTOFL
 70
     1
  9
$DIMTVP
 40
0.0
  9
$DIMTIX
 70
     0
  9
$DIMSOXD
 70
     0
  9
$DIMSAH
 70
     0
  9
$DIMBLK1
  1

  9
$DIMBLK2
  1

  9
$DIMSTYLE
  2
ISO-25
  9
$DIMCLRD
 70
     0
  9
$DIMCLRE
 70
     0
  9
$DIMCLRT
 70
     0
  9
$DIMTFAC
 40
1.0
  9
$DIMGAP
 40
1.0
  9
$DIMJUST
 70
     0
  9
$DIMSD1
 70
     0
  9
$DIMSD2
 70
     0
  9
$DIMTOLJ
 70
     0
  9
$DIMTZIN
 70
     0
  9
$DIMALTZ
 70
     0
  9
$DIMALTTZ
 70
     0
  9
$DIMUPT
 70
     0
  9
$DIMDEC
 70
     2
  9
$DIMTDEC
 70
     2
  9
$DIMALTU
 70
     2
  9
$DIMALTTD
 70
     3
  9
$DIMTXSTY
  7
Standard
  9
$DIMAUNIT
 70
     0
  9
$DIMADEC
 70
     0
  9
$DIMALTRND
 40
0.0
  9
$DIMAZIN
 70
     0
  9
$DIMDSEP
 70
    44
  9
$DIMATFIT
 70
     3
  9
$DIMFRAC
 70
     0
  9
$DIMLDRBLK
  1

  9
$DIMLUNIT
 70
     2
  9
$DIMLWD
 70
    -2
  9
$DIMLWE
 70
    -2
  9
$DIMTMOVE
 70
     0
  9
$LUNITS
 70
     2
  9
$LUPREC
 70
     2
  9
$SKETCHINC
 40
1.0
  9
$FILLETRAD
 40
10.0
  9
$AUNITS
 70
     0
  9
$AUPREC
 70
     0
  9
$MENU
  1
.
  9
$ELEVATION
 40
0.0
  9
$PELEVATION
 40
0.0
  9
$THICKNESS
 40
0.0
  9
$LIMCHECK
 70
     0
  9
$CHAMFERA
 40
0.0
  9
$CHAMFERB
 40
0.0
  9
$CHAMFERC
 40
0.0
  9
$CHAMFERD
 40
0.0
  9
$SKPOLY
 70
     0
  9
$TDCREATE
 40
2459901.847392674
  9
$TDUCREATE
 40
2459901.805726007
  9
$TDUPDATE
 40
2459901.847395567
  9
$TDUUPDATE
 40
2459901.8057289
  9
$TDINDWG
 40
0.0000000116
  9
$TDUSRTIMER
 40
0.0000000116
  9
$USRTIMER
 70
     1
  9
$ANGBASE
 50
0.0
  9
$ANGDIR
 70
     0
  9
$PDMODE
 70
     0
  9
$PDSIZE
 40
-1.0
  9
$PLINEWID
 40
0.0
  9
$SPLFRAME
 70
     0
  9
$SPLINETYPE
 70
     6
  9
$SPLINESEGS
 70
     8
  9
$HANDSEED
  5
1EE
  9
$SURFTAB1
 70
     6
  9
$SURFTAB2
 70
     6
  9
$SURFTYPE
 70
     6
  9
$SURFU
 70
     6
  9
$SURFV
 70
     6
  9
$UCSBASE
  2

  9
$UCSNAME
  2

  9
$UCSORG
 10
0.0
 20
0.0
 30
0.0
  9
$UCSXDIR
 10
1.0
 20
0.0
 30
0.0
  9
$UCSYDIR
 10
0.0
 20
1.0
 30
0.0
  9
$UCSORTHOREF
  2

  9
$UCSORTHOVIEW
 70
     0
  9
$UCSORGTOP
 10
0.0
 20
0.0
 30
0.0
  9
$UCSORGBOTTOM
 10
0.0
 20
0.0
 30
0.0
  9
$UCSORGLEFT
 10
0.0
 20
0.0
 30
0.0
  9
$UCSORGRIGHT
 10
0.0
 20
0.0
 30
0.0
  9
$UCSORGFRONT
 10
0.0
 20
0.0
 30
0.0
  9
$UCSORGBACK
 10
0.0
 20
0.0
 30
0.0
  9
$PUCSBASE
  2

  9
$PUCSNAME
  2

  9
$PUCSORG
 10
0.0
 20
0.0
 30
0.0
  9
$PUCSXDIR
 10
1.0
 20
0.0
 30
0.0
  9
$PUCSYDIR
 10
0.0
 20
1.0
 30
0.0
  9
$PUCSORTHOREF
  2

  9
$PUCSORTHOVIEW
 70
     0
  9
$PUCSORGTOP
 10
0.0
 20
0.0
 30
0.0
  9
$PUCSORGBOTTOM
 10
0.0
 20
0.0
 30
0.0
  9
$PUCSORGLEFT
 10
0.0
 20
0.0
 30
0.0
  9
$PUCSORGRIGHT
 10
0.0
 20
0.0
 30
0.0
  9
$PUCSORGFRONT
 10
0.0
 20
0.0
 30
0.0
  9
$PUCSORGBACK
 10
0.0
 20
0.0
 30
0.0
  9
$USERI1
 70
     0
  9
$USERI2
 70
     0
  9
$USERI3
 70
     0
  9
$USERI4
 70
     0
  9
$USERI5
 70
     0
  9
$USERR1
 40
0.0
  9
$USERR2
 40
0.0
  9
$USERR3
 40
0.0
  9
$USERR4
 40
0.0
  9
$USERR5
 40
0.0
  9
$WORLDVIEW
 70
     1
  9
$SHADEDGE
 70
     3
  9
$SHADEDIF
 70
    70
  9
$TILEMODE
 70
     1
  9
$MAXACTVP
 70
    64
  9
$PINSBASE
 10
0.0
 20
0.0
 30
0.0
  9
$PLIMCHECK
 70
     0
  9
$PEXTMIN
 10
1.0000000000E+20
 20
1.0000000000E+20
 30
1.0000000000E+20
  9
$PEXTMAX
 10
-1.0000000000E+20
 20
-1.0000000000E+20
 30
-1.0000000000E+20
  9
$PLIMMIN
 10
0.0
 20
0.0
  9
$PLIMMAX
 10
420.0
 20
297.0
  9
$UNITMODE
 70
     0
  9
$VISRETAIN
 70
     1
  9
$PLINEGEN
 70
     0
  9
$PSLTSCALE
 70
     1
  9
$TREEDEPTH
 70
  3020
  9
$CMLSTYLE
  2
Standard
  9
$CMLJUST
 70
     0
  9
$CMLSCALE
 40
20.0
  9
$PROXYGRAPHICS
 70
     1
  9
$MEASUREMENT
 70
     1
  9
$CELWEIGHT
370
    -1
  9
$ENDCAPS
280
     0
  9
$JOINSTYLE
280
     0
  9
$LWDISPLAY
290
     1
  9
$INSUNITS
 70
     4
  9
$HYPERLINKBASE
  1

  9
$STYLESHEET
  1

  9
$XEDIT
290
     1
  9
$CEPSNTYPE
380
     0
  9
$PSTYLEMODE
290
     1
  9
$FINGERPRINTGUID
  2
{9b502349-49ad-42b2-966d-4c69af5cbb36}
  9
$VERSIONGUID
  2
{FAEB1C32-E019-11D5-929B-00C0DF256EC4}
  9
$EXTNAMES
290
     1
  9
$PSVPSCALE
 40
0.0
  9
$OLESTARTUP
290
     0
  0
ENDSEC
  0
SECTION
  2
CLASSES
  0
CLASS
  1
ACDBDICTIONARYWDFLT
  2
AcDbDictionaryWithDefault
  3
ObjectDBX Classes
 90
        0
280
     0
281
     0
  0
CLASS
  1
VISUALSTYLE
  2
AcDbVisualStyle
  3
ObjectDBX Classes
 90
     4095
280
     0
281
     0
  0
CLASS
  1
MATERIAL
  2
AcDbMaterial
  3
ObjectDBX Classes
 90
     1153
280
     0
281
     0
  0
CLASS
  1
SCALE
  2
AcDbScale
  3
ObjectDBX Classes
 90
     1153
280
     0
281
     0
  0
CLASS
  1
TABLESTYLE
  2
AcDbTableStyle
  3
ObjectDBX Classes
 90
     4095
280
     0
281
     0
  0
CLASS
  1
MLEADERSTYLE
  2
AcDbMLeaderStyle
  3
ACDB_MLEADERSTYLE_CLASS
 90
     4095
280
     0
281
     0
  0
CLASS
  1
SUN
  2
AcDbSun
  3
SCENEOE
 90
     1153
280
     0
281
     0
  0
CLASS
  1
ACDBPLACEHOLDER
  2
AcDbPlaceHolder
  3
ObjectDBX Classes
 90
        0
280
     0
281
     0
  0
CLASS
  1
LAYOUT
  2
AcDbLayout
  3
ObjectDBX Classes
 90
        0
280
     0
281
     0
  0
ENDSEC
  0
SECTION
  2
TABLES
  0
TABLE
  2
VPORT
  5
8
330
0
100
AcDbSymbolTable
 70
     1
  0
VPORT
  5
29
330
8
100
AcDbSymbolTableRecord
100
AcDbViewportTableRecord
  2
*Active
 70
     0
 10
0.0
 20
0.0
 11
1.0
 21
1.0
 12
215.9
 22
139.7
 13
0.0
 23
0.0
 14
10.0
 24
10.0
 15
10.0
 25
10.0
 16
0.0
 26
0.0
 36
1.0
 17
0.0
 27
0.0
 37
0.0
 40
279.4
 41
1.5454545455
 42
50.0
 43
0.0
 44
0.0
 50
0.0
 51
0.0
 71
     0
 72
  2000
 73
     1
 74
     3
 75
     0
 76
     0
 77
     0
 78
     0
281
     0
 65
     1
110
0.0
120
0.0
130
0.0
111
1.0
121
0.0
131
0.0
112
0.0
122
1.0
132
0.0
 79
     0
146
0.0
  0
ENDTAB
  0
TABLE
  2
LTYPE
  5
5
330
0
100
AcDbSymbolTable
 70
     6
  0
LTYPE
  5
14
330
5
100
AcDbSymbolTableRecord
100
AcDbLinetypeTableRecord
  2
ByBlock
 70
     0
  3

 72
    65
 73
     0
 40
0.0
  0
LTYPE
  5
15
330
5
100
AcDbSymbolTableRecord
100
AcDbLinetypeTableRecord
  2
ByLayer
 70
     0
  3

 72
    65
 73
     0
 40
0.0
  0
LTYPE
  5
16
330
5
100
AcDbSymbolTableRecord
100
AcDbLinetypeTableRecord
  2
Continuous
 70
     0
  3
Solid line
 72
    65
 73
     0
 40
0.0
  0
LTYPE
  5
6E
330
5
100
AcDbSymbolTableRecord
100
AcDbLinetypeTableRecord
  2
HIDDEN
 70
     0
  3
Hidden __ __ __ __ __ __ __ __ __ __ __ __ __ __
 72
    65
 73
     2
 40
1.905
 49
1.27
 74
     0
 49
-0.635
 74
     0
  0
LTYPE
  5
6F
330
5
100
AcDbSymbolTableRecord
100
AcDbLinetypeTableRecord
  2
PHANTOM
 70
     0
  3
Phantom ______  __  __  ______  __  __  ______
 72
    65
 73
     6
 40
12.7
 49
6.35
 74
     0
 49
-1.27
 74
     0
 49
1.27
 74
     0
 49
-1.27
 74
     0
 49
1.27
 74
     0
 49
-1.27
 74
     0
  0
LTYPE
  5
70
330
5
100
AcDbSymbolTableRecord
100
AcDbLinetypeTableRecord
  2
CENTER
 70
     0
  3
Center ____ _ ____ _ ____ _ ____ _ ____ _ ____
 72
    65
 73
     4
 40
10.16
 49
6.35
 74
     0
 49
-1.27
 74
     0
 49
1.27
 74
     0
 49
-1.27
 74
     0
  0
LTYPE
  5
71
330
5
100
AcDbSymbolTableRecord
100
AcDbLinetypeTableRecord
  2
CENTERX2
 70
     0
  3
Center (2x) ________  __  ________  __  _____
 72
    65
 73
     4
 40
20.32
 49
12.7
 74
     0
 49
-2.54
 74
     0
 49
2.54
 74
     0
 49
-2.54
 74
     0
  0
LTYPE
  5
72
330
5
100
AcDbSymbolTableRecord
100
AcDbLinetypeTableRecord
  2
DOT2
 70
     0
  3
Dot (.5x) ........................................
 72
    65
 73
     2
 40
0.635
 49
0.0
 74
     0
 49
-0.635
 74
     0
  0
ENDTAB
  0
TABLE
  2
LAYER
  5
2
330
0
100
AcDbSymbolTable
 70
     1
  0
LAYER
  5
10
330
2
100
AcDbSymbolTableRecord
100
AcDbLayerTableRecord
  2
0
 70
     0
 62
     7
  6
Continuous
370
    -3
390
F
  0
ENDTAB
  0
TABLE
  2
STYLE
  5
3
330
0
100
AcDbSymbolTable
 70
     3
  0
STYLE
  5
11
330
3
100
AcDbSymbolTableRecord
100
AcDbTextStyleTableRecord
  2
Standard
 70
     0
 40
0.0
 41
1.0
 50
0.0
 71
     0
 42
3.5
  3
txt
  4

  0
STYLE
  5
7E
330
3
100
AcDbSymbolTableRecord
100
AcDbTextStyleTableRecord
  2
SLDTEXTSTYLE0
 70
     0
 40
0.0
 41
0.75
 50
0.0
 71
     0
 42
3.5
  3
TXT
  4

  0
STYLE
  5
95
330
3
100
AcDbSymbolTableRecord
100
AcDbTextStyleTableRecord
  2
SLDTEXTSTYLE1
 70
     0
 40
0.0
 41
0.605
 50
0.0
 71
     0
 42
3.5
  3
TXT
  4

  0
ENDTAB
  0
TABLE
  2
VIEW
  5
6
330
0
100
AcDbSymbolTable
 70
     0
  0
ENDTAB
  0
TABLE
  2
UCS
  5
7
330
0
100
AcDbSymbolTable
 70
     0
  0
ENDTAB
  0
TABLE
  2
APPID
  5
9
330
0
100
AcDbSymbolTable
 70
     1
  0
APPID
  5
12
330
9
100
AcDbSymbolTableRecord
100
AcDbRegAppTableRecord
  2
ACAD
 70
     0
  0
ENDTAB
  0
TABLE
  2
DIMSTYLE
  5
A
330
0
100
AcDbSymbolTable
 70
     1
100
AcDbDimStyleTable
  0
DIMSTYLE
105
27
330
A
100
AcDbSymbolTableRecord
100
AcDbDimStyleTableRecord
  2
ISO-25
 70
     0
 41
2.5
 42
0.625
 43
3.75
 44
1.25
 73
     0
 74
     0
 77
     1
 78
     8
140
2.5
141
2.5
143
0.0393700787
147
0.625
171
     3
172
     1
178
     0
271
     2
272
     2
274
     3
278
    44
283
     0
284
     8
340
11
  0
ENDTAB
  0
TABLE
  2
BLOCK_RECORD
  5
1
330
0
100
AcDbSymbolTable
 70
    36
  0
BLOCK_RECORD
  5
1F
330
1
100
AcDbSymbolTableRecord
100
AcDbBlockTableRecord
  2
*Model_Space
340
22
  0
BLOCK_RECORD
  5
1B
330
1
100
AcDbSymbolTableRecord
100
AcDbBlockTableRecord
  2
*Paper_Space
340
1E
  0
BLOCK_RECORD
  5
23
330
1
100
AcDbSymbolTableRecord
100
AcDbBlockTableRecord
  2
*Paper_Space0
340
26
  0
BLOCK_RECORD
  5
73
330
1
100
AcDbSymbolTableRecord
100
AcDbBlockTableRecord
  2
Block1
340
0
102
{BLKREFS
331
1A7
102
}
  0
BLOCK_RECORD
  5
7B
330
1
100
AcDbSymbolTableRecord
100
AcDbBlockTableRecord
  2
SW_NOTE_0
340
0
102
{BLKREFS
331
80
102
}
  0
BLOCK_RECORD
  5
81
330
1
100
AcDbSymbolTableRecord
100
AcDbBlockTableRecord
  2
sichtseite-e
340
0
  0
BLOCK_RECORD
  5
84
330
1
100
AcDbSymbolTableRecord
100
AcDbBlockTableRecord
  2
Projektion
340
0
  0
BLOCK_RECORD
  5
8F
330
1
100
AcDbSymbolTableRecord
100
AcDbBlockTableRecord
  2
Block3
340
0
  0
BLOCK_RECORD
  5
92
330
1
100
AcDbSymbolTableRecord
100
AcDbBlockTableRecord
  2
SW_NOTE_0_1
340
0
102
{BLKREFS
331
97
102
}
  0
BLOCK_RECORD
  5
98
330
1
100
AcDbSymbolTableRecord
100
AcDbBlockTableRecord
  2
SW_NOTE_0_2
340
0
102
{BLKREFS
331
9C
102
}
  0
BLOCK_RECORD
  5
9D
330
1
100
AcDbSymbolTableRecord
100
AcDbBlockTableRecord
  2
SW_NOTE_0_3
340
0
102
{BLKREFS
331
A1
102
}
  0
BLOCK_RECORD
  5
A2
330
1
100
AcDbSymbolTableRecord
100
AcDbBlockTableRecord
  2
SW_NOTE_0_4
340
0
102
{BLKREFS
331
A6
102
}
  0
BLOCK_RECORD
  5
A7
330
1
100
AcDbSymbolTableRecord
100
AcDbBlockTableRecord
  2
SW_NOTE_0_5
340
0
102
{BLKREFS
331
AB
102
}
  0
BLOCK_RECORD
  5
AC
330
1
100
AcDbSymbolTableRecord
100
AcDbBlockTableRecord
  2
Block5
340
0
102
{BLKREFS
331
1AE
102
}
  0
BLOCK_RECORD
  5
C3
330
1
100
AcDbSymbolTableRecord
100
AcDbBlockTableRecord
  2
SW_BLOCK_DIMENSION_0
340
0
102
{BLKREFS
331
CE
102
}
  0
BLOCK_RECORD
  5
C6
330
1
100
AcDbSymbolTableRecord
100
AcDbBlockTableRecord
  2
_Origin
340
0
102
{BLKREFS
331
CB
331
13A
102
}
  0
BLOCK_RECORD
  5
CF
330
1
100
AcDbSymbolTableRecord
100
AcDbBlockTableRecord
  2
SW_BLOCK_DIMENSION_1
340
0
102
{BLKREFS
331
D6
102
}
  0
BLOCK_RECORD
  5
D7
330
1
100
AcDbSymbolTableRecord
100
AcDbBlockTableRecord
  2
SW_BLOCK_DIMENSION_2
340
0
102
{BLKREFS
331
DE
102
}
  0
BLOCK_RECORD
  5
DF
330
1
100
AcDbSymbolTableRecord
100
AcDbBlockTableRecord
  2
SW_BLOCK_DIMENSION_3
340
0
102
{BLKREFS
331
E6
102
}
  0
BLOCK_RECORD
  5
E7
330
1
100
AcDbSymbolTableRecord
100
AcDbBlockTableRecord
  2
SW_BLOCK_DIMENSION_4
340
0
102
{BLKREFS
331
EE
102
}
  0
BLOCK_RECORD
  5
EF
330
1
100
AcDbSymbolTableRecord
100
AcDbBlockTableRecord
  2
SW_BLOCK_DIMENSION_5
340
0
102
{BLKREFS
331
F6
102
}
  0
BLOCK_RECORD
  5
F7
330
1
100
AcDbSymbolTableRecord
100
AcDbBlockTableRecord
  2
SW_BLOCK_DIMENSION_6
340
0
102
{BLKREFS
331
FE
102
}
  0
BLOCK_RECORD
  5
FF
330
1
100
AcDbSymbolTableRecord
100
AcDbBlockTableRecord
  2
SW_BLOCK_DIMENSION_7
340
0
102
{BLKREFS
331
106
102
}
  0
BLOCK_RECORD
  5
107
330
1
100
AcDbSymbolTableRecord
100
AcDbBlockTableRecord
  2
SW_BLOCK_DIMENSION_8
340
0
102
{BLKREFS
331
10E
102
}
  0
BLOCK_RECORD
  5
10F
330
1
100
AcDbSymbolTableRecord
100
AcDbBlockTableRecord
  2
SW_BLOCK_DIMENSION_9
340
0
102
{BLKREFS
331
116
102
}
  0
BLOCK_RECORD
  5
117
330
1
100
AcDbSymbolTableRecord
100
AcDbBlockTableRecord
  2
SW_BLOCK_DIMENSION_10
340
0
102
{BLKREFS
331
11E
102
}
  0
BLOCK_RECORD
  5
11F
330
1
100
AcDbSymbolTableRecord
100
AcDbBlockTableRecord
  2
SW_BLOCK_DIMENSION_11
340
0
102
{BLKREFS
331
126
102
}
  0
BLOCK_RECORD
  5
127
330
1
100
AcDbSymbolTableRecord
100
AcDbBlockTableRecord
  2
SW_BLOCK_DIMENSION_12
340
0
102
{BLKREFS
331
12E
102
}
  0
BLOCK_RECORD
  5
12F
330
1
100
AcDbSymbolTableRecord
100
AcDbBlockTableRecord
  2
SW_BLOCK_DIMENSION_13
340
0
102
{BLKREFS
331
136
102
}
  0
BLOCK_RECORD
  5
137
330
1
100
AcDbSymbolTableRecord
100
AcDbBlockTableRecord
  2
SW_BLOCK_DIMENSION_14
340
0
102
{BLKREFS
331
146
102
}
  0
BLOCK_RECORD
  5
147
330
1
100
AcDbSymbolTableRecord
100
AcDbBlockTableRecord
  2
SW_BLOCK_DIMENSION_15
340
0
102
{BLKREFS
331
157
102
}
  0
BLOCK_RECORD
  5
158
330
1
100
AcDbSymbolTableRecord
100
AcDbBlockTableRecord
  2
SW_BLOCK_DIMENSION_16
340
0
102
{BLKREFS
331
168
102
}
  0
BLOCK_RECORD
  5
169
330
1
100
AcDbSymbolTableRecord
100
AcDbBlockTableRecord
  2
SW_BLOCK_DIMENSION_17
340
0
102
{BLKREFS
331
179
102
}
  0
BLOCK_RECORD
  5
17A
330
1
100
AcDbSymbolTableRecord
100
AcDbBlockTableRecord
  2
SW_BLOCK_DIMENSION_18
340
0
102
{BLKREFS
331
18A
102
}
  0
BLOCK_RECORD
  5
18B
330
1
100
AcDbSymbolTableRecord
100
AcDbBlockTableRecord
  2
SW_BLOCK_DIMENSION_19
340
0
102
{BLKREFS
331
19B
102
}
  0
BLOCK_RECORD
  5
19C
330
1
100
AcDbSymbolTableRecord
100
AcDbBlockTableRecord
  2
SW_NOTE_0_6
340
0
102
{BLKREFS
331
1A1
102
}
  0
BLOCK_RECORD
  5
1A2
330
1
100
AcDbSymbolTableRecord
100
AcDbBlockTableRecord
  2
SW_NOTE_0_7
340
0
102
{BLKREFS
331
1A6
102
}
  0
BLOCK_RECORD
  5
1B1
330
1
100
AcDbSymbolTableRecord
100
AcDbBlockTableRecord
  2
SW_NOTE_0_8
340
0
102
{BLKREFS
331
1B8
102
}
  0
ENDTAB
  0
ENDSEC
  0
SECTION
  2
BLOCKS
  0
BLOCK
  5
20
330
1F
100
AcDbEntity
  8
0
100
AcDbBlockBegin
  2
*Model_Space
 70
     0
 10
0.0
 20
0.0
 30
0.0
  3
*Model_Space
  1

  0
ENDBLK
  5
21
330
1F
100
AcDbEntity
  8
0
100
AcDbBlockEnd
  0
BLOCK
  5
1C
330
1B
100
AcDbEntity
 67
     1
  8
0
100
AcDbBlockBegin
  2
*Paper_Space
 70
     0
 10
0.0
 20
0.0
 30
0.0
  3
*Paper_Space
  1

  0
ENDBLK
  5
1D
330
1B
100
AcDbEntity
 67
     1
  8
0
100
AcDbBlockEnd
  0
BLOCK
  5
24
330
23
100
AcDbEntity
  8
0
100
AcDbBlockBegin
  2
*Paper_Space0
 70
     0
 10
0.0
 20
0.0
 30
0.0
  3
*Paper_Space0
  1

  0
ENDBLK
  5
25
330
23
100
AcDbEntity
  8
0
100
AcDbBlockEnd
  0
BLOCK
  5
74
330
73
100
AcDbEntity
  8
0
100
AcDbBlockBegin
  2
Block1
 70
     0
 10
0.0
 20
0.0
 30
0.0
  3
Block1
  1

  0
LINE
  5
76
330
73
100
AcDbEntity
  8
0
  6
CENTERX2
 62
     7
370
    18
100
AcDbLine
 10
13.8091502721
 20
4.1288679822
 30
0.0
 11
2.4993857185
 21
4.1288679822
 31
0.0
  0
LINE
  5
77
330
73
100
AcDbEntity
  8
0
  6
Continuous
 62
     7
370
    18
100
AcDbLine
 10
0.0
 20
7.0809735682
 30
0.0
 11
40.9964150501
 21
7.0809735682
 31
0.0
  0
LINE
  5
78
330
73
100
AcDbEntity
  8
0
  6
Continuous
 62
     7
370
    18
100
AcDbLine
 10
0.0
 20
7.0809735682
 30
0.0
 11
0.0
 21
1.8733195095
 31
0.0
  0
LINE
  5
79
330
73
100
AcDbEntity
  8
0
  6
Continuous
 62
     7
370
    18
100
AcDbLine
 10
0.0
 20
1.8733195095
 30
0.0
 11
40.9964150501
 21
1.8733195095
 31
0.0
  0
LINE
  5
7A
330
73
100
AcDbEntity
  8
0
  6
Continuous
 62
     7
370
    18
100
AcDbLine
 10
40.9964150501
 20
7.0809735682
 30
0.0
 11
40.9964150501
 21
1.8733195095
 31
0.0
  0
INSERT
  5
80
330
73
100
AcDbEntity
  8
0
  6
Continuous
 62
     7
370
     0
100
AcDbBlockReference
  2
SW_NOTE_0
 10
15.1936192357
 20
2.4205087873
 30
0.0
  0
ENDBLK
  5
75
330
73
100
AcDbEntity
  8
0
100
AcDbBlockEnd
  0
BLOCK
  5
7C
330
7B
100
AcDbEntity
  8
0
100
AcDbBlockBegin
  2
SW_NOTE_0
 70
     0
 10
0.0
 20
0.0
 30
0.0
  3
SW_NOTE_0
  1

  0
MTEXT
  5
7F
330
7B
100
AcDbEntity
  8
0
  6
Continuous
 62
     0
370
     0
100
AcDbMText
 10
0.0
 20
3.4106583948
 30
0.0
 40
2.6458333333
 41
0.0
 71
     1
 72
     1
  1
visible surfaces
  7
SLDTEXTSTYLE0
 73
     1
 44
1.0
  0
ENDBLK
  5
7D
330
7B
100
AcDbEntity
  8
0
100
AcDbBlockEnd
  0
BLOCK
  5
82
330
81
100
AcDbEntity
  8
0
100
AcDbBlockBegin
  2
sichtseite-e
 70
     0
 10
0.0
 20
0.0
 30
0.0
  3
sichtseite-e
  1

  0
INSERT
  5
1A7
330
81
100
AcDbEntity
  8
0
  6
Continuous
 62
     7
100
AcDbBlockReference
  2
Block1
 10
0.0
 20
0.0
 30
0.0
  0
ENDBLK
  5
83
330
81
100
AcDbEntity
  8
0
100
AcDbBlockEnd
  0
BLOCK
  5
85
330
84
100
AcDbEntity
  8
0
100
AcDbBlockBegin
  2
Projektion
 70
     0
 10
0.0
 20
0.0
 30
0.0
  3
Projektion
  1

  0
CIRCLE
  5
87
330
84
100
AcDbEntity
  8
0
  6
Continuous
 62
     7
370
    18
100
AcDbCircle
 10
174.3600996763
 20
116.0271411334
 30
0.0
 40
3.403359543179178
  0
CIRCLE
  5
88
330
84
100
AcDbEntity
  8
0
  6
Continuous
 62
     7
370
    18
100
AcDbCircle
 10
174.3600996763
 20
116.0271411334
 30
0.0
 40
6.87995547039705
  0
LINE
  5
89
330
84
100
AcDbEntity
  8
0
  6
Continuous
 62
     7
370
    18
100
AcDbLine
 10
135.2082544366
 20
119.4271411334
 30
0.0
 11
135.2082544366
 21
112.6271411334
 31
0.0
  0
LINE
  5
8A
330
84
100
AcDbEntity
  8
0
  6
Continuous
 62
     7
370
    18
100
AcDbLine
 10
135.2082544366
 20
112.6271411334
 30
0.0
 11
157.5294737026
 21
109.1471411334
 31
0.0
  0
LINE
  5
8B
330
84
100
AcDbEntity
  8
0
  6
Continuous
 62
     7
370
    18
100
AcDbLine
 10
157.5294737026
 20
109.1471411334
 30
0.0
 11
157.5294737026
 21
122.9071411334
 31
0.0
  0
LINE
  5
8C
330
84
100
AcDbEntity
  8
0
  6
Continuous
 62
     7
370
    18
100
AcDbLine
 10
157.5294737026
 20
122.9071411334
 30
0.0
 11
135.2082544366
 21
119.4271411334
 31
0.0
  0
LINE
  5
8D
330
84
100
AcDbEntity
  8
0
  6
CENTERX2
 62
     7
370
    18
100
AcDbLine
 10
184.6825839037
 20
116.0271411334
 30
0.0
 11
132.3261221773
 21
116.0271411334
 31
0.0
  0
LINE
  5
8E
330
84
100
AcDbEntity
  8
0
  6
CENTERX2
 62
     7
370
    18
100
AcDbLine
 10
174.3600996763
 20
126.2664215848
 30
0.0
 11
174.3600996763
 21
106.5064066785
 31
0.0
  0
ENDBLK
  5
86
330
84
100
AcDbEntity
  8
0
100
AcDbBlockEnd
  0
BLOCK
  5
90
330
8F
100
AcDbEntity
  8
0
100
AcDbBlockBegin
  2
Block3
 70
     0
 10
0.0
 20
0.0
 30
0.0
  3
Block3
  1

  0
INSERT
  5
97
330
8F
100
AcDbEntity
  8
0
  6
Continuous
 62
     7
370
     0
100
AcDbBlockReference
  2
SW_NOTE_0_1
 10
6.1762890225
 20
-0.180658396
 30
0.0
  0
INSERT
  5
9C
330
8F
100
AcDbEntity
  8
0
  6
Continuous
 62
     7
370
     0
100
AcDbBlockReference
  2
SW_NOTE_0_2
 10
11.2031591855
 20
3.3952192326
 30
0.0
  0
INSERT
  5
A1
330
8F
100
AcDbEntity
  8
0
  6
Continuous
 62
     7
370
     0
100
AcDbBlockReference
  2
SW_NOTE_0_3
 10
0.0861630772
 20
11.6615243391
 30
0.0
  0
INSERT
  5
A6
330
8F
100
AcDbEntity
  8
0
  6
Continuous
 62
     7
370
     0
100
AcDbBlockReference
  2
SW_NOTE_0_4
 10
2.121580372
 20
15.7891345579
 30
0.0
  0
INSERT
  5
AB
330
8F
100
AcDbEntity
  8
0
  6
Continuous
 62
     7
370
     0
100
AcDbBlockReference
  2
SW_NOTE_0_5
 10
5.8441512085
 20
7.5375351809
 30
0.0
  0
ENDBLK
  5
91
330
8F
100
AcDbEntity
  8
0
100
AcDbBlockEnd
  0
BLOCK
  5
93
330
92
100
AcDbEntity
  8
0
100
AcDbBlockBegin
  2
SW_NOTE_0_1
 70
     0
 10
0.0
 20
0.0
 30
0.0
  3
SW_NOTE_0_1
  1

  0
MTEXT
  5
96
330
92
100
AcDbEntity
  8
0
  6
Continuous
 62
     0
370
     0
100
AcDbMText
 10
0.0
 20
2.7285267159
 30
0.0
 40
2.1166666667
 41
0.0
 71
     1
 72
     1
  1
www.abp-beyerle.de
  7
SLDTEXTSTYLE1
 73
     1
 44
1.0
  0
ENDBLK
  5
94
330
92
100
AcDbEntity
  8
0
100
AcDbBlockEnd
  0
BLOCK
  5
99
330
98
100
AcDbEntity
  8
0
100
AcDbBlockBegin
  2
SW_NOTE_0_2
 70
     0
 10
0.0
 20
0.0
 30
0.0
  3
SW_NOTE_0_2
  1

  0
MTEXT
  5
9B
330
98
100
AcDbEntity
  8
0
  6
Continuous
 62
     0
370
     0
100
AcDbMText
 10
0.0
 20
3.7517242343
 30
0.0
 40
2.9104166667
 41
0.0
 71
     1
 72
     1
  1
Germany
  7
SLDTEXTSTYLE1
 73
     1
 44
1.0
  0
ENDBLK
  5
9A
330
98
100
AcDbEntity
  8
0
100
AcDbBlockEnd
  0
BLOCK
  5
9E
330
9D
100
AcDbEntity
  8
0
100
AcDbBlockBegin
  2
SW_NOTE_0_3
 70
     0
 10
0.0
 20
0.0
 30
0.0
  3
SW_NOTE_0_3
  1

  0
MTEXT
  5
A0
330
9D
100
AcDbEntity
  8
0
  6
Continuous
 62
     0
370
     0
100
AcDbMText
 10
0.0
 20
3.7517242343
 30
0.0
 40
2.9104166667
 41
0.0
 71
     1
 72
     1
  1
Im Schollengarten 24b
  7
SLDTEXTSTYLE1
 73
     1
 44
1.0
  0
ENDBLK
  5
9F
330
9D
100
AcDbEntity
  8
0
100
AcDbBlockEnd
  0
BLOCK
  5
A3
330
A2
100
AcDbEntity
  8
0
100
AcDbBlockBegin
  2
SW_NOTE_0_4
 70
     0
 10
0.0
 20
0.0
 30
0.0
  3
SW_NOTE_0_4
  1

  0
MTEXT
  5
A5
330
A2
100
AcDbEntity
  8
0
  6
Continuous
 62
     0
370
     0
100
AcDbMText
 10
0.0
 20
3.7517242343
 30
0.0
 40
2.9104166667
 41
0.0
 71
     1
 72
     1
  1
ABP-Beyerle GmbH
  7
SLDTEXTSTYLE1
 73
     1
 44
1.0
  0
ENDBLK
  5
A4
330
A2
100
AcDbEntity
  8
0
100
AcDbBlockEnd
  0
BLOCK
  5
A8
330
A7
100
AcDbEntity
  8
0
100
AcDbBlockBegin
  2
SW_NOTE_0_5
 70
     0
 10
0.0
 20
0.0
 30
0.0
  3
SW_NOTE_0_5
  1

  0
MTEXT
  5
AA
330
A7
100
AcDbEntity
  8
0
  6
Continuous
 62
     0
370
     0
100
AcDbMText
 10
0.0
 20
3.7517242343
 30
0.0
 40
2.9104166667
 41
0.0
 71
     1
 72
     1
  1
76646 Bruchsal
  7
SLDTEXTSTYLE1
 73
     1
 44
1.0
  0
ENDBLK
  5
A9
330
A7
100
AcDbEntity
  8
0
100
AcDbBlockEnd
  0
BLOCK
  5
AD
330
AC
100
AcDbEntity
  8
0
100
AcDbBlockBegin
  2
Block5
 70
     0
 10
0.0
 20
0.0
 30
0.0
  3
Block5
  1

  0
LINE
  5
AF
330
AC
100
AcDbEntity
  8
0
100
AcDbLine
 10
363.6834285714
 20
41.3579706949
 30
0.0
 11
388.6834285714
 21
41.3579706949
 31
0.0
  0
LINE
  5
B0
330
AC
100
AcDbEntity
  8
0
100
AcDbLine
 10
374.9034285714
 20
41.3579706949
 30
0.0
 11
374.9034285714
 21
171.3579706949
 31
0.0
  0
LINE
  5
B1
330
AC
100
AcDbEntity
  8
0
100
AcDbLine
 10
374.9034285714
 20
51.3579706949
 30
0.0
 11
384.9034285714
 21
51.3579706949
 31
0.0
  0
LINE
  5
B2
330
AC
100
AcDbEntity
  8
0
100
AcDbLine
 10
374.9034285714
 20
61.3579706949
 30
0.0
 11
384.9034285714
 21
61.3579706949
 31
0.0
  0
LINE
  5
B3
330
AC
100
AcDbEntity
  8
0
100
AcDbLine
 10
374.9034285714
 20
71.3579706949
 30
0.0
 11
384.9034285714
 21
71.3579706949
 31
0.0
  0
LINE
  5
B4
330
AC
100
AcDbEntity
  8
0
100
AcDbLine
 10
374.9034285714
 20
81.3579706949
 30
0.0
 11
384.9034285714
 21
81.3579706949
 31
0.0
  0
LINE
  5
B5
330
AC
100
AcDbEntity
  8
0
100
AcDbLine
 10
374.9034285714
 20
91.3579706949
 30
0.0
 11
384.9034285714
 21
91.3579706949
 31
0.0
  0
LINE
  5
B6
330
AC
100
AcDbEntity
  8
0
100
AcDbLine
 10
374.9034285714
 20
101.3579706949
 30
0.0
 11
384.9034285714
 21
101.3579706949
 31
0.0
  0
LINE
  5
B7
330
AC
100
AcDbEntity
  8
0
100
AcDbLine
 10
374.9034285714
 20
111.3579706949
 30
0.0
 11
384.9034285714
 21
111.3579706949
 31
0.0
  0
LINE
  5
B8
330
AC
100
AcDbEntity
  8
0
100
AcDbLine
 10
374.9034285714
 20
121.3579706949
 30
0.0
 11
384.9034285714
 21
121.3579706949
 31
0.0
  0
LINE
  5
B9
330
AC
100
AcDbEntity
  8
0
100
AcDbLine
 10
374.9034285714
 20
131.3579706949
 30
0.0
 11
384.9034285714
 21
131.3579706949
 31
0.0
  0
LINE
  5
BA
330
AC
100
AcDbEntity
  8
0
100
AcDbLine
 10
374.9034285714
 20
141.3579706949
 30
0.0
 11
384.9034285714
 21
141.3579706949
 31
0.0
  0
LINE
  5
BB
330
AC
100
AcDbEntity
  8
0
100
AcDbLine
 10
374.9034285714
 20
151.3579706949
 30
0.0
 11
384.9034285714
 21
151.3579706949
 31
0.0
  0
LINE
  5
BC
330
AC
100
AcDbEntity
  8
0
100
AcDbLine
 10
374.9034285714
 20
161.3579706949
 30
0.0
 11
384.9034285714
 21
161.3579706949
 31
0.0
  0
LINE
  5
BD
330
AC
100
AcDbEntity
  8
0
100
AcDbLine
 10
374.9034285714
 20
171.3579706949
 30
0.0
 11
384.9034285714
 21
171.3579706949
 31
0.0
  0
LINE
  5
BE
330
AC
100
AcDbEntity
  8
0
100
AcDbLine
 10
374.9034285714
 20
66.7579706949
 30
0.0
 11
362.9034285714
 21
66.7579706949
 31
0.0
  0
LINE
  5
BF
330
AC
100
AcDbEntity
  8
0
100
AcDbLine
 10
374.9034285714
 20
92.1579706949
 30
0.0
 11
362.9034285714
 21
92.1579706949
 31
0.0
  0
LINE
  5
C0
330
AC
100
AcDbEntity
  8
0
100
AcDbLine
 10
374.9034285714
 20
117.5579706949
 30
0.0
 11
362.9034285714
 21
117.5579706949
 31
0.0
  0
LINE
  5
C1
330
AC
100
AcDbEntity
  8
0
100
AcDbLine
 10
374.9034285714
 20
142.9579706949
 30
0.0
 11
362.9034285714
 21
142.9579706949
 31
0.0
  0
LINE
  5
C2
330
AC
100
AcDbEntity
  8
0
100
AcDbLine
 10
374.9034285714
 20
168.3579706949
 30
0.0
 11
362.9034285714
 21
168.3579706949
 31
0.0
  0
INSERT
  5
CE
330
AC
100
AcDbEntity
  8
0
  6
Continuous
 62
   179
370
    18
100
AcDbBlockReference
  2
SW_BLOCK_DIMENSION_0
 10
397.2096946378
 20
38.9914197296
 30
0.0
  0
INSERT
  5
D6
330
AC
100
AcDbEntity
  8
0
  6
Continuous
 62
   179
370
    18
100
AcDbBlockReference
  2
SW_BLOCK_DIMENSION_1
 10
397.2096946378
 20
48.9914197296
 30
0.0
  0
INSERT
  5
DE
330
AC
100
AcDbEntity
  8
0
  6
Continuous
 62
   179
370
    18
100
AcDbBlockReference
  2
SW_BLOCK_DIMENSION_2
 10
397.2096946378
 20
58.9914197296
 30
0.0
  0
INSERT
  5
E6
330
AC
100
AcDbEntity
  8
0
  6
Continuous
 62
   179
370
    18
100
AcDbBlockReference
  2
SW_BLOCK_DIMENSION_3
 10
397.2096946378
 20
68.9914197296
 30
0.0
  0
INSERT
  5
EE
330
AC
100
AcDbEntity
  8
0
  6
Continuous
 62
   179
370
    18
100
AcDbBlockReference
  2
SW_BLOCK_DIMENSION_4
 10
397.2096946378
 20
78.9914197296
 30
0.0
  0
INSERT
  5
F6
330
AC
100
AcDbEntity
  8
0
  6
Continuous
 62
   179
370
    18
100
AcDbBlockReference
  2
SW_BLOCK_DIMENSION_5
 10
397.2096946378
 20
88.9914197296
 30
0.0
  0
INSERT
  5
FE
330
AC
100
AcDbEntity
  8
0
  6
Continuous
 62
   179
370
    18
100
AcDbBlockReference
  2
SW_BLOCK_DIMENSION_6
 10
397.2096946378
 20
98.9914197296
 30
0.0
  0
INSERT
  5
106
330
AC
100
AcDbEntity
  8
0
  6
Continuous
 62
   179
370
    18
100
AcDbBlockReference
  2
SW_BLOCK_DIMENSION_7
 10
397.2096946378
 20
108.9914197296
 30
0.0
  0
INSERT
  5
10E
330
AC
100
AcDbEntity
  8
0
  6
Continuous
 62
   179
370
    18
100
AcDbBlockReference
  2
SW_BLOCK_DIMENSION_8
 10
397.2096946378
 20
118.9914197296
 30
0.0
  0
INSERT
  5
116
330
AC
100
AcDbEntity
  8
0
  6
Continuous
 62
   179
370
    18
100
AcDbBlockReference
  2
SW_BLOCK_DIMENSION_9
 10
397.2096946378
 20
128.9914197296
 30
0.0
  0
INSERT
  5
11E
330
AC
100
AcDbEntity
  8
0
  6
Continuous
 62
   179
370
    18
100
AcDbBlockReference
  2
SW_BLOCK_DIMENSION_10
 10
397.2096946378
 20
138.9914197296
 30
0.0
  0
INSERT
  5
126
330
AC
100
AcDbEntity
  8
0
  6
Continuous
 62
   179
370
    18
100
AcDbBlockReference
  2
SW_BLOCK_DIMENSION_11
 10
397.2096946378
 20
148.9914197296
 30
0.0
  0
INSERT
  5
12E
330
AC
100
AcDbEntity
  8
0
  6
Continuous
 62
   179
370
    18
100
AcDbBlockReference
  2
SW_BLOCK_DIMENSION_12
 10
397.2096946378
 20
158.9914197296
 30
0.0
  0
INSERT
  5
136
330
AC
100
AcDbEntity
  8
0
  6
Continuous
 62
   179
370
    18
100
AcDbBlockReference
  2
SW_BLOCK_DIMENSION_13
 10
397.2096946378
 20
168.9914197296
 30
0.0
  0
INSERT
  5
146
330
AC
100
AcDbEntity
  8
0
  6
Continuous
 62
   179
370
    18
100
AcDbBlockReference
  2
SW_BLOCK_DIMENSION_14
 10
341.1734707322
 20
36.1691980072
 30
0.0
  0
INSERT
  5
157
330
AC
100
AcDbEntity
  8
0
  6
Continuous
 62
   179
370
    18
100
AcDbBlockReference
  2
SW_BLOCK_DIMENSION_15
 10
339.1802765097
 20
61.5691980072
 30
0.0
  0
INSERT
  5
168
330
AC
100
AcDbEntity
  8
0
  6
Continuous
 62
   179
370
    18
100
AcDbBlockReference
  2
SW_BLOCK_DIMENSION_16
 10
339.1802765097
 20
86.9691980072
 30
0.0
  0
INSERT
  5
179
330
AC
100
AcDbEntity
  8
0
  6
Continuous
 62
   179
370
    18
100
AcDbBlockReference
  2
SW_BLOCK_DIMENSION_17
 10
339.1802765097
 20
112.3691980072
 30
0.0
  0
INSERT
  5
18A
330
AC
100
AcDbEntity
  8
0
  6
Continuous
 62
   179
370
    18
100
AcDbBlockReference
  2
SW_BLOCK_DIMENSION_18
 10
336.8284243759
 20
137.7691980072
 30
0.0
  0
INSERT
  5
19B
330
AC
100
AcDbEntity
  8
0
  6
Continuous
 62
   179
370
    18
100
AcDbBlockReference
  2
SW_BLOCK_DIMENSION_19
 10
341.1734707322
 20
163.1691980072
 30
0.0
  0
INSERT
  5
1A1
330
AC
100
AcDbEntity
  8
0
  6
Continuous
 62
   179
370
    18
100
AcDbBlockReference
  2
SW_NOTE_0_6
 10
337.5586028241
 20
28.8175207347
 30
0.0
  0
INSERT
  5
1A6
330
AC
100
AcDbEntity
  8
0
  6
Continuous
 62
   179
370
    18
100
AcDbBlockReference
  2
SW_NOTE_0_7
 10
393.160738319
 20
28.8175207347
 30
0.0
  0
ENDBLK
  5
AE
330
AC
100
AcDbEntity
  8
0
100
AcDbBlockEnd
  0
BLOCK
  5
C4
330
C3
100
AcDbEntity
  8
0
100
AcDbBlockBegin
  2
SW_BLOCK_DIMENSION_0
 70
     0
 10
0.0
 20
0.0
 30
0.0
  3
SW_BLOCK_DIMENSION_0
  1

  0
INSERT
  5
CB
330
C3
100
AcDbEntity
  8
0
  6
Continuous
 62
     0
370
    18
100
AcDbBlockReference
  2
_Origin
 10
-0.7692307692
 20
2.3665509652
 30
0.0
 41
0.9483022837
 42
0.9483022837
 50
0.0
  0
LINE
  5
CC
330
C3
100
AcDbEntity
  8
0
  6
Continuous
 62
     0
370
    18
100
AcDbLine
 10
-7.5262660664
 20
2.3665509652
 30
0.0
 11
0.0
 21
2.3665509652
 31
0.0
  0
MTEXT
  5
CD
330
C3
100
AcDbEntity
  8
0
  6
Continuous
 62
     0
370
    18
100
AcDbMText
 10
0.0
 20
4.0927900738
 30
0.0
 40
3.175
 41
0.0
 71
     1
 72
     1
  1
0
  7
SLDTEXTSTYLE1
 73
     1
 44
1.0
  0
ENDBLK
  5
C5
330
C3
100
AcDbEntity
  8
0
100
AcDbBlockEnd
  0
BLOCK
  5
C7
330
C6
100
AcDbEntity
  8
0
100
AcDbBlockBegin
  2
_Origin
 70
     0
 10
0.0
 20
0.0
 30
0.0
  3
_Origin
  1

  0
CIRCLE
  5
C9
330
C6
100
AcDbEntity
  8
0
  6
ByBlock
 62
     0
370
    -2
100
AcDbCircle
 10
0.0
 20
0.0
 30
0.0
 40
0.5
  0
LINE
  5
CA
330
C6
100
AcDbEntity
  8
0
  6
ByBlock
 62
     0
370
    -2
100
AcDbLine
 10
0.0
 20
0.0
 30
0.0
 11
-1.0
 21
0.0
 31
0.0
  0
ENDBLK
  5
C8
330
C6
100
AcDbEntity
  8
0
100
AcDbBlockEnd
  0
BLOCK
  5
D0
330
CF
100
AcDbEntity
  8
0
100
AcDbBlockBegin
  2
SW_BLOCK_DIMENSION_1
 70
     0
 10
0.0
 20
0.0
 30
0.0
  3
SW_BLOCK_DIMENSION_1
  1

  0
SOLID
  5
D2
330
CF
100
AcDbEntity
  8
0
  6
Continuous
 62
     0
370
    18
100
AcDbTrace
 10
-0.7692307692
 20
2.3665509652
 30
0.0
 11
-1.2433819111
 21
-0.7154314566
 31
0.0
 12
-0.2950796274
 22
-0.7154314566
 32
0.0
 13
-0.2950796274
 23
-0.7154314566
 33
0.0
  0
LINE
  5
D3
330
CF
100
AcDbEntity
  8
0
  6
Continuous
 62
     0
370
    18
100
AcDbLine
 10
-11.3062660664
 20
2.3665509652
 30
0.0
 11
0.0
 21
2.3665509652
 31
0.0
  0
LINE
  5
D4
330
CF
100
AcDbEntity
  8
0
  6
Continuous
 62
     0
370
    18
100
AcDbLine
 10
-0.7692307692
 20
-7.6334490348
 30
0.0
 11
-0.7692307692
 21
2.3665509652
 31
0.0
  0
MTEXT
  5
D5
330
CF
100
AcDbEntity
  8
0
  6
Continuous
 62
     0
370
    18
100
AcDbMText
 10
0.0
 20
4.0927900738
 30
0.0
 40
3.175
 41
0.0
 71
     1
 72
     1
  1
10
  7
SLDTEXTSTYLE1
 73
     1
 44
1.0
  0
ENDBLK
  5
D1
330
CF
100
AcDbEntity
  8
0
100
AcDbBlockEnd
  0
BLOCK
  5
D8
330
D7
100
AcDbEntity
  8
0
100
AcDbBlockBegin
  2
SW_BLOCK_DIMENSION_2
 70
     0
 10
0.0
 20
0.0
 30
0.0
  3
SW_BLOCK_DIMENSION_2
  1

  0
SOLID
  5
DA
330
D7
100
AcDbEntity
  8
0
  6
Continuous
 62
     0
370
    18
100
AcDbTrace
 10
-0.7692307692
 20
2.3665509652
 30
0.0
 11
-1.2433819111
 21
-0.7154314566
 31
0.0
 12
-0.2950796274
 22
-0.7154314566
 32
0.0
 13
-0.2950796274
 23
-0.7154314566
 33
0.0
  0
LINE
  5
DB
330
D7
100
AcDbEntity
  8
0
  6
Continuous
 62
     0
370
    18
100
AcDbLine
 10
-11.3062660664
 20
2.3665509652
 30
0.0
 11
0.0
 21
2.3665509652
 31
0.0
  0
LINE
  5
DC
330
D7
100
AcDbEntity
  8
0
  6
Continuous
 62
     0
370
    18
100
AcDbLine
 10
-0.7692307692
 20
-7.6334490348
 30
0.0
 11
-0.7692307692
 21
2.3665509652
 31
0.0
  0
MTEXT
  5
DD
330
D7
100
AcDbEntity
  8
0
  6
Continuous
 62
     0
370
    18
100
AcDbMText
 10
0.0
 20
4.0927900738
 30
0.0
 40
3.175
 41
0.0
 71
     1
 72
     1
  1
20
  7
SLDTEXTSTYLE1
 73
     1
 44
1.0
  0
ENDBLK
  5
D9
330
D7
100
AcDbEntity
  8
0
100
AcDbBlockEnd
  0
BLOCK
  5
E0
330
DF
100
AcDbEntity
  8
0
100
AcDbBlockBegin
  2
SW_BLOCK_DIMENSION_3
 70
     0
 10
0.0
 20
0.0
 30
0.0
  3
SW_BLOCK_DIMENSION_3
  1

  0
SOLID
  5
E2
330
DF
100
AcDbEntity
  8
0
  6
Continuous
 62
     0
370
    18
100
AcDbTrace
 10
-0.7692307692
 20
2.3665509652
 30
0.0
 11
-1.2433819111
 21
-0.7154314566
 31
0.0
 12
-0.2950796274
 22
-0.7154314566
 32
0.0
 13
-0.2950796274
 23
-0.7154314566
 33
0.0
  0
LINE
  5
E3
330
DF
100
AcDbEntity
  8
0
  6
Continuous
 62
     0
370
    18
100
AcDbLine
 10
-11.3062660664
 20
2.3665509652
 30
0.0
 11
0.0
 21
2.3665509652
 31
0.0
  0
LINE
  5
E4
330
DF
100
AcDbEntity
  8
0
  6
Continuous
 62
     0
370
    18
100
AcDbLine
 10
-0.7692307692
 20
-7.6334490348
 30
0.0
 11
-0.7692307692
 21
2.3665509652
 31
0.0
  0
MTEXT
  5
E5
330
DF
100
AcDbEntity
  8
0
  6
Continuous
 62
     0
370
    18
100
AcDbMText
 10
0.0
 20
4.0927900738
 30
0.0
 40
3.175
 41
0.0
 71
     1
 72
     1
  1
30
  7
SLDTEXTSTYLE1
 73
     1
 44
1.0
  0
ENDBLK
  5
E1
330
DF
100
AcDbEntity
  8
0
100
AcDbBlockEnd
  0
BLOCK
  5
E8
330
E7
100
AcDbEntity
  8
0
100
AcDbBlockBegin
  2
SW_BLOCK_DIMENSION_4
 70
     0
 10
0.0
 20
0.0
 30
0.0
  3
SW_BLOCK_DIMENSION_4
  1

  0
SOLID
  5
EA
330
E7
100
AcDbEntity
  8
0
  6
Continuous
 62
     0
370
    18
100
AcDbTrace
 10
-0.7692307692
 20
2.3665509652
 30
0.0
 11
-1.2433819111
 21
-0.7154314566
 31
0.0
 12
-0.2950796274
 22
-0.7154314566
 32
0.0
 13
-0.2950796274
 23
-0.7154314566
 33
0.0
  0
LINE
  5
EB
330
E7
100
AcDbEntity
  8
0
  6
Continuous
 62
     0
370
    18
100
AcDbLine
 10
-11.3062660664
 20
2.3665509652
 30
0.0
 11
0.0
 21
2.3665509652
 31
0.0
  0
LINE
  5
EC
330
E7
100
AcDbEntity
  8
0
  6
Continuous
 62
     0
370
    18
100
AcDbLine
 10
-0.7692307692
 20
-7.6334490348
 30
0.0
 11
-0.7692307692
 21
2.3665509652
 31
0.0
  0
MTEXT
  5
ED
330
E7
100
AcDbEntity
  8
0
  6
Continuous
 62
     0
370
    18
100
AcDbMText
 10
0.0
 20
4.0927900738
 30
0.0
 40
3.175
 41
0.0
 71
     1
 72
     1
  1
40
  7
SLDTEXTSTYLE1
 73
     1
 44
1.0
  0
ENDBLK
  5
E9
330
E7
100
AcDbEntity
  8
0
100
AcDbBlockEnd
  0
BLOCK
  5
F0
330
EF
100
AcDbEntity
  8
0
100
AcDbBlockBegin
  2
SW_BLOCK_DIMENSION_5
 70
     0
 10
0.0
 20
0.0
 30
0.0
  3
SW_BLOCK_DIMENSION_5
  1

  0
SOLID
  5
F2
330
EF
100
AcDbEntity
  8
0
  6
Continuous
 62
     0
370
    18
100
AcDbTrace
 10
-0.7692307692
 20
2.3665509652
 30
0.0
 11
-1.2433819111
 21
-0.7154314566
 31
0.0
 12
-0.2950796274
 22
-0.7154314566
 32
0.0
 13
-0.2950796274
 23
-0.7154314566
 33
0.0
  0
LINE
  5
F3
330
EF
100
AcDbEntity
  8
0
  6
Continuous
 62
     0
370
    18
100
AcDbLine
 10
-11.3062660664
 20
2.3665509652
 30
0.0
 11
0.0
 21
2.3665509652
 31
0.0
  0
LINE
  5
F4
330
EF
100
AcDbEntity
  8
0
  6
Continuous
 62
     0
370
    18
100
AcDbLine
 10
-0.7692307692
 20
-7.6334490348
 30
0.0
 11
-0.7692307692
 21
2.3665509652
 31
0.0
  0
MTEXT
  5
F5
330
EF
100
AcDbEntity
  8
0
  6
Continuous
 62
     0
370
    18
100
AcDbMText
 10
0.0
 20
4.0927900738
 30
0.0
 40
3.175
 41
0.0
 71
     1
 72
     1
  1
50
  7
SLDTEXTSTYLE1
 73
     1
 44
1.0
  0
ENDBLK
  5
F1
330
EF
100
AcDbEntity
  8
0
100
AcDbBlockEnd
  0
BLOCK
  5
F8
330
F7
100
AcDbEntity
  8
0
100
AcDbBlockBegin
  2
SW_BLOCK_DIMENSION_6
 70
     0
 10
0.0
 20
0.0
 30
0.0
  3
SW_BLOCK_DIMENSION_6
  1

  0
SOLID
  5
FA
330
F7
100
AcDbEntity
  8
0
  6
Continuous
 62
     0
370
    18
100
AcDbTrace
 10
-0.7692307692
 20
2.3665509652
 30
0.0
 11
-1.2433819111
 21
-0.7154314566
 31
0.0
 12
-0.2950796274
 22
-0.7154314566
 32
0.0
 13
-0.2950796274
 23
-0.7154314566
 33
0.0
  0
LINE
  5
FB
330
F7
100
AcDbEntity
  8
0
  6
Continuous
 62
     0
370
    18
100
AcDbLine
 10
-11.3062660664
 20
2.3665509652
 30
0.0
 11
0.0
 21
2.3665509652
 31
0.0
  0
LINE
  5
FC
330
F7
100
AcDbEntity
  8
0
  6
Continuous
 62
     0
370
    18
100
AcDbLine
 10
-0.7692307692
 20
-7.6334490348
 30
0.0
 11
-0.7692307692
 21
2.3665509652
 31
0.0
  0
MTEXT
  5
FD
330
F7
100
AcDbEntity
  8
0
  6
Continuous
 62
     0
370
    18
100
AcDbMText
 10
0.0
 20
4.0927900738
 30
0.0
 40
3.175
 41
0.0
 71
     1
 72
     1
  1
60
  7
SLDTEXTSTYLE1
 73
     1
 44
1.0
  0
ENDBLK
  5
F9
330
F7
100
AcDbEntity
  8
0
100
AcDbBlockEnd
  0
BLOCK
  5
100
330
FF
100
AcDbEntity
  8
0
100
AcDbBlockBegin
  2
SW_BLOCK_DIMENSION_7
 70
     0
 10
0.0
 20
0.0
 30
0.0
  3
SW_BLOCK_DIMENSION_7
  1

  0
SOLID
  5
102
330
FF
100
AcDbEntity
  8
0
  6
Continuous
 62
     0
370
    18
100
AcDbTrace
 10
-0.7692307692
 20
2.3665509652
 30
0.0
 11
-1.2433819111
 21
-0.7154314566
 31
0.0
 12
-0.2950796274
 22
-0.7154314566
 32
0.0
 13
-0.2950796274
 23
-0.7154314566
 33
0.0
  0
LINE
  5
103
330
FF
100
AcDbEntity
  8
0
  6
Continuous
 62
     0
370
    18
100
AcDbLine
 10
-11.3062660664
 20
2.3665509652
 30
0.0
 11
0.0
 21
2.3665509652
 31
0.0
  0
LINE
  5
104
330
FF
100
AcDbEntity
  8
0
  6
Continuous
 62
     0
370
    18
100
AcDbLine
 10
-0.7692307692
 20
-7.6334490348
 30
0.0
 11
-0.7692307692
 21
2.3665509652
 31
0.0
  0
MTEXT
  5
105
330
FF
100
AcDbEntity
  8
0
  6
Continuous
 62
     0
370
    18
100
AcDbMText
 10
0.0
 20
4.0927900738
 30
0.0
 40
3.175
 41
0.0
 71
     1
 72
     1
  1
70
  7
SLDTEXTSTYLE1
 73
     1
 44
1.0
  0
ENDBLK
  5
101
330
FF
100
AcDbEntity
  8
0
100
AcDbBlockEnd
  0
BLOCK
  5
108
330
107
100
AcDbEntity
  8
0
100
AcDbBlockBegin
  2
SW_BLOCK_DIMENSION_8
 70
     0
 10
0.0
 20
0.0
 30
0.0
  3
SW_BLOCK_DIMENSION_8
  1

  0
SOLID
  5
10A
330
107
100
AcDbEntity
  8
0
  6
Continuous
 62
     0
370
    18
100
AcDbTrace
 10
-0.7692307692
 20
2.3665509652
 30
0.0
 11
-1.2433819111
 21
-0.7154314566
 31
0.0
 12
-0.2950796274
 22
-0.7154314566
 32
0.0
 13
-0.2950796274
 23
-0.7154314566
 33
0.0
  0
LINE
  5
10B
330
107
100
AcDbEntity
  8
0
  6
Continuous
 62
     0
370
    18
100
AcDbLine
 10
-11.3062660664
 20
2.3665509652
 30
0.0
 11
0.0
 21
2.3665509652
 31
0.0
  0
LINE
  5
10C
330
107
100
AcDbEntity
  8
0
  6
Continuous
 62
     0
370
    18
100
AcDbLine
 10
-0.7692307692
 20
-7.6334490348
 30
0.0
 11
-0.7692307692
 21
2.3665509652
 31
0.0
  0
MTEXT
  5
10D
330
107
100
AcDbEntity
  8
0
  6
Continuous
 62
     0
370
    18
100
AcDbMText
 10
0.0
 20
4.0927900738
 30
0.0
 40
3.175
 41
0.0
 71
     1
 72
     1
  1
80
  7
SLDTEXTSTYLE1
 73
     1
 44
1.0
  0
ENDBLK
  5
109
330
107
100
AcDbEntity
  8
0
100
AcDbBlockEnd
  0
BLOCK
  5
110
330
10F
100
AcDbEntity
  8
0
100
AcDbBlockBegin
  2
SW_BLOCK_DIMENSION_9
 70
     0
 10
0.0
 20
0.0
 30
0.0
  3
SW_BLOCK_DIMENSION_9
  1

  0
SOLID
  5
112
330
10F
100
AcDbEntity
  8
0
  6
Continuous
 62
     0
370
    18
100
AcDbTrace
 10
-0.7692307692
 20
2.3665509652
 30
0.0
 11
-1.2433819111
 21
-0.7154314566
 31
0.0
 12
-0.2950796274
 22
-0.7154314566
 32
0.0
 13
-0.2950796274
 23
-0.7154314566
 33
0.0
  0
LINE
  5
113
330
10F
100
AcDbEntity
  8
0
  6
Continuous
 62
     0
370
    18
100
AcDbLine
 10
-11.3062660664
 20
2.3665509652
 30
0.0
 11
0.0
 21
2.3665509652
 31
0.0
  0
LINE
  5
114
330
10F
100
AcDbEntity
  8
0
  6
Continuous
 62
     0
370
    18
100
AcDbLine
 10
-0.7692307692
 20
-7.6334490348
 30
0.0
 11
-0.7692307692
 21
2.3665509652
 31
0.0
  0
MTEXT
  5
115
330
10F
100
AcDbEntity
  8
0
  6
Continuous
 62
     0
370
    18
100
AcDbMText
 10
0.0
 20
4.0927900738
 30
0.0
 40
3.175
 41
0.0
 71
     1
 72
     1
  1
90
  7
SLDTEXTSTYLE1
 73
     1
 44
1.0
  0
ENDBLK
  5
111
330
10F
100
AcDbEntity
  8
0
100
AcDbBlockEnd
  0
BLOCK
  5
118
330
117
100
AcDbEntity
  8
0
100
AcDbBlockBegin
  2
SW_BLOCK_DIMENSION_10
 70
     0
 10
0.0
 20
0.0
 30
0.0
  3
SW_BLOCK_DIMENSION_10
  1

  0
SOLID
  5
11A
330
117
100
AcDbEntity
  8
0
  6
Continuous
 62
     0
370
    18
100
AcDbTrace
 10
-0.7692307692
 20
2.3665509652
 30
0.0
 11
-1.2433819111
 21
-0.7154314566
 31
0.0
 12
-0.2950796274
 22
-0.7154314566
 32
0.0
 13
-0.2950796274
 23
-0.7154314566
 33
0.0
  0
LINE
  5
11B
330
117
100
AcDbEntity
  8
0
  6
Continuous
 62
     0
370
    18
100
AcDbLine
 10
-11.3062660664
 20
2.3665509652
 30
0.0
 11
0.0
 21
2.3665509652
 31
0.0
  0
LINE
  5
11C
330
117
100
AcDbEntity
  8
0
  6
Continuous
 62
     0
370
    18
100
AcDbLine
 10
-0.7692307692
 20
-7.6334490348
 30
0.0
 11
-0.7692307692
 21
2.3665509652
 31
0.0
  0
MTEXT
  5
11D
330
117
100
AcDbEntity
  8
0
  6
Continuous
 62
     0
370
    18
100
AcDbMText
 10
0.0
 20
4.0927900738
 30
0.0
 40
3.175
 41
0.0
 71
     1
 72
     1
  1
100
  7
SLDTEXTSTYLE1
 73
     1
 44
1.0
  0
ENDBLK
  5
119
330
117
100
AcDbEntity
  8
0
100
AcDbBlockEnd
  0
BLOCK
  5
120
330
11F
100
AcDbEntity
  8
0
100
AcDbBlockBegin
  2
SW_BLOCK_DIMENSION_11
 70
     0
 10
0.0
 20
0.0
 30
0.0
  3
SW_BLOCK_DIMENSION_11
  1

  0
SOLID
  5
122
330
11F
100
AcDbEntity
  8
0
  6
Continuous
 62
     0
370
    18
100
AcDbTrace
 10
-0.7692307692
 20
2.3665509652
 30
0.0
 11
-1.2433819111
 21
-0.7154314566
 31
0.0
 12
-0.2950796274
 22
-0.7154314566
 32
0.0
 13
-0.2950796274
 23
-0.7154314566
 33
0.0
  0
LINE
  5
123
330
11F
100
AcDbEntity
  8
0
  6
Continuous
 62
     0
370
    18
100
AcDbLine
 10
-11.3062660664
 20
2.3665509652
 30
0.0
 11
0.0
 21
2.3665509652
 31
0.0
  0
LINE
  5
124
330
11F
100
AcDbEntity
  8
0
  6
Continuous
 62
     0
370
    18
100
AcDbLine
 10
-0.7692307692
 20
-7.6334490348
 30
0.0
 11
-0.7692307692
 21
2.3665509652
 31
0.0
  0
MTEXT
  5
125
330
11F
100
AcDbEntity
  8
0
  6
Continuous
 62
     0
370
    18
100
AcDbMText
 10
0.0
 20
4.0927900738
 30
0.0
 40
3.175
 41
0.0
 71
     1
 72
     1
  1
110
  7
SLDTEXTSTYLE1
 73
     1
 44
1.0
  0
ENDBLK
  5
121
330
11F
100
AcDbEntity
  8
0
100
AcDbBlockEnd
  0
BLOCK
  5
128
330
127
100
AcDbEntity
  8
0
100
AcDbBlockBegin
  2
SW_BLOCK_DIMENSION_12
 70
     0
 10
0.0
 20
0.0
 30
0.0
  3
SW_BLOCK_DIMENSION_12
  1

  0
SOLID
  5
12A
330
127
100
AcDbEntity
  8
0
  6
Continuous
 62
     0
370
    18
100
AcDbTrace
 10
-0.7692307692
 20
2.3665509652
 30
0.0
 11
-1.2433819111
 21
-0.7154314566
 31
0.0
 12
-0.2950796274
 22
-0.7154314566
 32
0.0
 13
-0.2950796274
 23
-0.7154314566
 33
0.0
  0
LINE
  5
12B
330
127
100
AcDbEntity
  8
0
  6
Continuous
 62
     0
370
    18
100
AcDbLine
 10
-11.3062660664
 20
2.3665509652
 30
0.0
 11
0.0
 21
2.3665509652
 31
0.0
  0
LINE
  5
12C
330
127
100
AcDbEntity
  8
0
  6
Continuous
 62
     0
370
    18
100
AcDbLine
 10
-0.7692307692
 20
-7.6334490348
 30
0.0
 11
-0.7692307692
 21
2.3665509652
 31
0.0
  0
MTEXT
  5
12D
330
127
100
AcDbEntity
  8
0
  6
Continuous
 62
     0
370
    18
100
AcDbMText
 10
0.0
 20
4.0927900738
 30
0.0
 40
3.175
 41
0.0
 71
     1
 72
     1
  1
120
  7
SLDTEXTSTYLE1
 73
     1
 44
1.0
  0
ENDBLK
  5
129
330
127
100
AcDbEntity
  8
0
100
AcDbBlockEnd
  0
BLOCK
  5
130
330
12F
100
AcDbEntity
  8
0
100
AcDbBlockBegin
  2
SW_BLOCK_DIMENSION_13
 70
     0
 10
0.0
 20
0.0
 30
0.0
  3
SW_BLOCK_DIMENSION_13
  1

  0
SOLID
  5
132
330
12F
100
AcDbEntity
  8
0
  6
Continuous
 62
     0
370
    18
100
AcDbTrace
 10
-0.7692307692
 20
2.3665509652
 30
0.0
 11
-1.2433819111
 21
-0.7154314566
 31
0.0
 12
-0.2950796274
 22
-0.7154314566
 32
0.0
 13
-0.2950796274
 23
-0.7154314566
 33
0.0
  0
LINE
  5
133
330
12F
100
AcDbEntity
  8
0
  6
Continuous
 62
     0
370
    18
100
AcDbLine
 10
-11.3062660664
 20
2.3665509652
 30
0.0
 11
0.0
 21
2.3665509652
 31
0.0
  0
LINE
  5
134
330
12F
100
AcDbEntity
  8
0
  6
Continuous
 62
     0
370
    18
100
AcDbLine
 10
-0.7692307692
 20
-7.6334490348
 30
0.0
 11
-0.7692307692
 21
2.3665509652
 31
0.0
  0
MTEXT
  5
135
330
12F
100
AcDbEntity
  8
0
  6
Continuous
 62
     0
370
    18
100
AcDbMText
 10
0.0
 20
4.0927900738
 30
0.0
 40
3.175
 41
0.0
 71
     1
 72
     1
  1
130
  7
SLDTEXTSTYLE1
 73
     1
 44
1.0
  0
ENDBLK
  5
131
330
12F
100
AcDbEntity
  8
0
100
AcDbBlockEnd
  0
BLOCK
  5
138
330
137
100
AcDbEntity
  8
0
100
AcDbBlockBegin
  2
SW_BLOCK_DIMENSION_14
 70
     0
 10
0.0
 20
0.0
 30
0.0
  3
SW_BLOCK_DIMENSION_14
  1

  0
INSERT
  5
13A
330
137
100
AcDbEntity
  8
0
  6
Continuous
 62
     0
370
    18
100
AcDbBlockReference
  2
_Origin
 10
11.7112223517
 20
5.1887726877
 30
0.0
 41
0.9483022837
 42
0.9483022837
 50
0.0
  0
LINE
  5
13B
330
137
100
AcDbEntity
  8
0
  6
Continuous
 62
     0
370
    18
100
AcDbLine
 10
3.2925925916
 20
9.671990294
 30
0.0
 11
2.2342592711
 21
9.671990294
 31
0.0
  0
LINE
  5
13C
330
137
100
AcDbEntity
  8
0
  6
Continuous
 62
     0
370
    18
100
AcDbLine
 10
2.2342592711
 20
9.671990294
 30
0.0
 11
2.2342592711
 21
4.9388883635
 31
0.0
  0
LINE
  5
13D
330
137
100
AcDbEntity
  8
0
  6
Continuous
 62
     0
370
    18
100
AcDbLine
 10
2.2342592711
 20
4.9388883635
 30
0.0
 11
3.2925925916
 21
4.9388883635
 31
0.0
  0
LINE
  5
13E
330
137
100
AcDbEntity
  8
0
  6
Continuous
 62
     0
370
    18
100
AcDbLine
 10
7.6493982924
 20
9.671990294
 30
0.0
 11
8.707731613
 21
9.671990294
 31
0.0
  0
LINE
  5
13F
330
137
100
AcDbEntity
  8
0
  6
Continuous
 62
     0
370
    18
100
AcDbLine
 10
8.707731613
 20
9.671990294
 30
0.0
 11
8.707731613
 21
4.9388883635
 31
0.0
  0
LINE
  5
140
330
137
100
AcDbEntity
  8
0
  6
Continuous
 62
     0
370
    18
100
AcDbLine
 10
8.707731613
 20
4.9388883635
 30
0.0
 11
7.6493982924
 21
4.9388883635
 31
0.0
  0
LINE
  5
141
330
137
100
AcDbEntity
  8
0
  6
Continuous
 62
     0
370
    18
100
AcDbLine
 10
21.5099578393
 20
5.1887726877
 30
0.0
 11
10.9419915825
 21
5.1887726877
 31
0.0
  0
MTEXT
  5
142
330
137
100
AcDbEntity
  8
0
  6
Continuous
 62
     0
370
    18
100
AcDbMText
 10
1.190625
 20
4.0927900738
 30
0.0
 40
3.175
 41
0.0
 71
     1
 72
     1
  1

  7
SLDTEXTSTYLE1
 73
     1
 44
1.0
  0
MTEXT
  5
143
330
137
100
AcDbEntity
  8
0
  6
Continuous
 62
     0
370
    18
100
AcDbMText
 10
3.2925925916
 20
9.0316784373
 30
0.0
 40
3.175
 41
0.0
 71
     1
 72
     1
  1
0"
  7
SLDTEXTSTYLE1
 73
     1
 44
1.0
  0
MTEXT
  5
144
330
137
100
AcDbEntity
  8
0
  6
Continuous
 62
     0
370
    18
100
AcDbMText
 10
4.2950697243
 20
4.0927898409
 30
0.0
 40
3.175
 41
0.0
 71
     1
 72
     1
  1
0
  7
SLDTEXTSTYLE1
 73
     1
 44
1.0
  0
MTEXT
  5
145
330
137
100
AcDbEntity
  8
0
  6
Continuous
 62
     0
370
    18
100
AcDbMText
 10
10.9566905156
 20
4.0927900738
 30
0.0
 40
3.175
 41
0.0
 71
     1
 72
     1
  1

  7
SLDTEXTSTYLE1
 73
     1
 44
1.0
  0
ENDBLK
  5
139
330
137
100
AcDbEntity
  8
0
100
AcDbBlockEnd
  0
BLOCK
  5
148
330
147
100
AcDbEntity
  8
0
100
AcDbBlockBegin
  2
SW_BLOCK_DIMENSION_15
 70
     0
 10
0.0
 20
0.0
 30
0.0
  3
SW_BLOCK_DIMENSION_15
  1

  0
SOLID
  5
14A
330
147
100
AcDbEntity
  8
0
  6
Continuous
 62
     0
370
    18
100
AcDbTrace
 10
13.7044165742
 20
5.1887726877
 30
0.0
 11
13.2302654324
 21
2.1067902658
 31
0.0
 12
14.178567716
 22
2.1067902658
 32
0.0
 13
14.178567716
 23
2.1067902658
 33
0.0
  0
LINE
  5
14B
330
147
100
AcDbEntity
  8
0
  6
Continuous
 62
     0
370
    18
100
AcDbLine
 10
4.2891897028
 20
9.671990294
 30
0.0
 11
3.2308563823
 21
9.671990294
 31
0.0
  0
LINE
  5
14C
330
147
100
AcDbEntity
  8
0
  6
Continuous
 62
     0
370
    18
100
AcDbLine
 10
3.2308563823
 20
9.671990294
 30
0.0
 11
3.2308563823
 21
4.9388883635
 31
0.0
  0
LINE
  5
14D
330
147
100
AcDbEntity
  8
0
  6
Continuous
 62
     0
370
    18
100
AcDbLine
 10
3.2308563823
 20
4.9388883635
 30
0.0
 11
4.2891897028
 21
4.9388883635
 31
0.0
  0
LINE
  5
14E
330
147
100
AcDbEntity
  8
0
  6
Continuous
 62
     0
370
    18
100
AcDbLine
 10
8.6459954036
 20
9.671990294
 30
0.0
 11
9.7043287242
 21
9.671990294
 31
0.0
  0
LINE
  5
14F
330
147
100
AcDbEntity
  8
0
  6
Continuous
 62
     0
370
    18
100
AcDbLine
 10
9.7043287242
 20
9.671990294
 30
0.0
 11
9.7043287242
 21
4.9388883635
 31
0.0
  0
LINE
  5
150
330
147
100
AcDbEntity
  8
0
  6
Continuous
 62
     0
370
    18
100
AcDbLine
 10
9.7043287242
 20
4.9388883635
 30
0.0
 11
8.6459954036
 21
4.9388883635
 31
0.0
  0
LINE
  5
151
330
147
100
AcDbEntity
  8
0
  6
Continuous
 62
     0
370
    18
100
AcDbLine
 10
22.7231520617
 20
5.1887726877
 30
0.0
 11
12.935185805
 21
5.1887726877
 31
0.0
  0
LINE
  5
152
330
147
100
AcDbEntity
  8
0
  6
Continuous
 62
     0
370
    18
100
AcDbLine
 10
13.7044165742
 20
-20.2112273123
 30
0.0
 11
13.7044165742
 21
5.1887726877
 31
0.0
  0
MTEXT
  5
153
330
147
100
AcDbEntity
  8
0
  6
Continuous
 62
     0
370
    18
100
AcDbMText
 10
1.190625
 20
4.0927900738
 30
0.0
 40
3.175
 41
0.0
 71
     1
 72
     1
  1

  7
SLDTEXTSTYLE1
 73
     1
 44
1.0
  0
MTEXT
  5
154
330
147
100
AcDbEntity
  8
0
  6
Continuous
 62
     0
370
    18
100
AcDbMText
 10
4.2891897028
 20
9.0316784373
 30
0.0
 40
3.175
 41
0.0
 71
     1
 72
     1
  1
1"
  7
SLDTEXTSTYLE1
 73
     1
 44
1.0
  0
MTEXT
  5
155
330
147
100
AcDbEntity
  8
0
  6
Continuous
 62
     0
370
    18
100
AcDbMText
 10
1.1759259505
 20
4.0927898409
 30
0.0
 40
3.175
 41
0.0
 71
     1
 72
     1
  1
25,40
  7
SLDTEXTSTYLE1
 73
     1
 44
1.0
  0
MTEXT
  5
156
330
147
100
AcDbEntity
  8
0
  6
Continuous
 62
     0
370
    18
100
AcDbMText
 10
12.949884738
 20
4.0927900738
 30
0.0
 40
3.175
 41
0.0
 71
     1
 72
     1
  1

  7
SLDTEXTSTYLE1
 73
     1
 44
1.0
  0
ENDBLK
  5
149
330
147
100
AcDbEntity
  8
0
100
AcDbBlockEnd
  0
BLOCK
  5
159
330
158
100
AcDbEntity
  8
0
100
AcDbBlockBegin
  2
SW_BLOCK_DIMENSION_16
 70
     0
 10
0.0
 20
0.0
 30
0.0
  3
SW_BLOCK_DIMENSION_16
  1

  0
SOLID
  5
15B
330
158
100
AcDbEntity
  8
0
  6
Continuous
 62
     0
370
    18
100
AcDbTrace
 10
13.7044165742
 20
5.1887726877
 30
0.0
 11
13.2302654324
 21
2.1067902658
 31
0.0
 12
14.178567716
 22
2.1067902658
 32
0.0
 13
14.178567716
 23
2.1067902658
 33
0.0
  0
LINE
  5
15C
330
158
100
AcDbEntity
  8
0
  6
Continuous
 62
     0
370
    18
100
AcDbLine
 10
4.2891897028
 20
9.671990294
 30
0.0
 11
3.2308563823
 21
9.671990294
 31
0.0
  0
LINE
  5
15D
330
158
100
AcDbEntity
  8
0
  6
Continuous
 62
     0
370
    18
100
AcDbLine
 10
3.2308563823
 20
9.671990294
 30
0.0
 11
3.2308563823
 21
4.9388883635
 31
0.0
  0
LINE
  5
15E
330
158
100
AcDbEntity
  8
0
  6
Continuous
 62
     0
370
    18
100
AcDbLine
 10
3.2308563823
 20
4.9388883635
 30
0.0
 11
4.2891897028
 21
4.9388883635
 31
0.0
  0
LINE
  5
15F
330
158
100
AcDbEntity
  8
0
  6
Continuous
 62
     0
370
    18
100
AcDbLine
 10
8.6459954036
 20
9.671990294
 30
0.0
 11
9.7043287242
 21
9.671990294
 31
0.0
  0
LINE
  5
160
330
158
100
AcDbEntity
  8
0
  6
Continuous
 62
     0
370
    18
100
AcDbLine
 10
9.7043287242
 20
9.671990294
 30
0.0
 11
9.7043287242
 21
4.9388883635
 31
0.0
  0
LINE
  5
161
330
158
100
AcDbEntity
  8
0
  6
Continuous
 62
     0
370
    18
100
AcDbLine
 10
9.7043287242
 20
4.9388883635
 30
0.0
 11
8.6459954036
 21
4.9388883635
 31
0.0
  0
LINE
  5
162
330
158
100
AcDbEntity
  8
0
  6
Continuous
 62
     0
370
    18
100
AcDbLine
 10
22.7231520617
 20
5.1887726877
 30
0.0
 11
12.935185805
 21
5.1887726877
 31
0.0
  0
LINE
  5
163
330
158
100
AcDbEntity
  8
0
  6
Continuous
 62
     0
370
    18
100
AcDbLine
 10
13.7044165742
 20
-20.2112273123
 30
0.0
 11
13.7044165742
 21
5.1887726877
 31
0.0
  0
MTEXT
  5
164
330
158
100
AcDbEntity
  8
0
  6
Continuous
 62
     0
370
    18
100
AcDbMText
 10
1.190625
 20
4.0927900738
 30
0.0
 40
3.175
 41
0.0
 71
     1
 72
     1
  1

  7
SLDTEXTSTYLE1
 73
     1
 44
1.0
  0
MTEXT
  5
165
330
158
100
AcDbEntity
  8
0
  6
Continuous
 62
     0
370
    18
100
AcDbMText
 10
4.2891897028
 20
9.0316784373
 30
0.0
 40
3.175
 41
0.0
 71
     1
 72
     1
  1
2"
  7
SLDTEXTSTYLE1
 73
     1
 44
1.0
  0
MTEXT
  5
166
330
158
100
AcDbEntity
  8
0
  6
Continuous
 62
     0
370
    18
100
AcDbMText
 10
1.1759259505
 20
4.0927898409
 30
0.0
 40
3.175
 41
0.0
 71
     1
 72
     1
  1
50,80
  7
SLDTEXTSTYLE1
 73
     1
 44
1.0
  0
MTEXT
  5
167
330
158
100
AcDbEntity
  8
0
  6
Continuous
 62
     0
370
    18
100
AcDbMText
 10
12.949884738
 20
4.0927900738
 30
0.0
 40
3.175
 41
0.0
 71
     1
 72
     1
  1

  7
SLDTEXTSTYLE1
 73
     1
 44
1.0
  0
ENDBLK
  5
15A
330
158
100
AcDbEntity
  8
0
100
AcDbBlockEnd
  0
BLOCK
  5
16A
330
169
100
AcDbEntity
  8
0
100
AcDbBlockBegin
  2
SW_BLOCK_DIMENSION_17
 70
     0
 10
0.0
 20
0.0
 30
0.0
  3
SW_BLOCK_DIMENSION_17
  1

  0
SOLID
  5
16C
330
169
100
AcDbEntity
  8
0
  6
Continuous
 62
     0
370
    18
100
AcDbTrace
 10
13.7044165742
 20
5.1887726877
 30
0.0
 11
13.2302654324
 21
2.1067902658
 31
0.0
 12
14.178567716
 22
2.1067902658
 32
0.0
 13
14.178567716
 23
2.1067902658
 33
0.0
  0
LINE
  5
16D
330
169
100
AcDbEntity
  8
0
  6
Continuous
 62
     0
370
    18
100
AcDbLine
 10
4.2891897028
 20
9.671990294
 30
0.0
 11
3.2308563823
 21
9.671990294
 31
0.0
  0
LINE
  5
16E
330
169
100
AcDbEntity
  8
0
  6
Continuous
 62
     0
370
    18
100
AcDbLine
 10
3.2308563823
 20
9.671990294
 30
0.0
 11
3.2308563823
 21
4.9388883635
 31
0.0
  0
LINE
  5
16F
330
169
100
AcDbEntity
  8
0
  6
Continuous
 62
     0
370
    18
100
AcDbLine
 10
3.2308563823
 20
4.9388883635
 30
0.0
 11
4.2891897028
 21
4.9388883635
 31
0.0
  0
LINE
  5
170
330
169
100
AcDbEntity
  8
0
  6
Continuous
 62
     0
370
    18
100
AcDbLine
 10
8.6459954036
 20
9.671990294
 30
0.0
 11
9.7043287242
 21
9.671990294
 31
0.0
  0
LINE
  5
171
330
169
100
AcDbEntity
  8
0
  6
Continuous
 62
     0
370
    18
100
AcDbLine
 10
9.7043287242
 20
9.671990294
 30
0.0
 11
9.7043287242
 21
4.9388883635
 31
0.0
  0
LINE
  5
172
330
169
100
AcDbEntity
  8
0
  6
Continuous
 62
     0
370
    18
100
AcDbLine
 10
9.7043287242
 20
4.9388883635
 30
0.0
 11
8.6459954036
 21
4.9388883635
 31
0.0
  0
LINE
  5
173
330
169
100
AcDbEntity
  8
0
  6
Continuous
 62
     0
370
    18
100
AcDbLine
 10
22.7231520617
 20
5.1887726877
 30
0.0
 11
12.935185805
 21
5.1887726877
 31
0.0
  0
LINE
  5
174
330
169
100
AcDbEntity
  8
0
  6
Continuous
 62
     0
370
    18
100
AcDbLine
 10
13.7044165742
 20
-20.2112273123
 30
0.0
 11
13.7044165742
 21
5.1887726877
 31
0.0
  0
MTEXT
  5
175
330
169
100
AcDbEntity
  8
0
  6
Continuous
 62
     0
370
    18
100
AcDbMText
 10
1.190625
 20
4.0927900738
 30
0.0
 40
3.175
 41
0.0
 71
     1
 72
     1
  1

  7
SLDTEXTSTYLE1
 73
     1
 44
1.0
  0
MTEXT
  5
176
330
169
100
AcDbEntity
  8
0
  6
Continuous
 62
     0
370
    18
100
AcDbMText
 10
4.2891897028
 20
9.0316784373
 30
0.0
 40
3.175
 41
0.0
 71
     1
 72
     1
  1
3"
  7
SLDTEXTSTYLE1
 73
     1
 44
1.0
  0
MTEXT
  5
177
330
169
100
AcDbEntity
  8
0
  6
Continuous
 62
     0
370
    18
100
AcDbMText
 10
1.1759259505
 20
4.0927898409
 30
0.0
 40
3.175
 41
0.0
 71
     1
 72
     1
  1
76,20
  7
SLDTEXTSTYLE1
 73
     1
 44
1.0
  0
MTEXT
  5
178
330
169
100
AcDbEntity
  8
0
  6
Continuous
 62
     0
370
    18
100
AcDbMText
 10
12.949884738
 20
4.0927900738
 30
0.0
 40
3.175
 41
0.0
 71
     1
 72
     1
  1

  7
SLDTEXTSTYLE1
 73
     1
 44
1.0
  0
ENDBLK
  5
16B
330
169
100
AcDbEntity
  8
0
100
AcDbBlockEnd
  0
BLOCK
  5
17B
330
17A
100
AcDbEntity
  8
0
100
AcDbBlockBegin
  2
SW_BLOCK_DIMENSION_18
 70
     0
 10
0.0
 20
0.0
 30
0.0
  3
SW_BLOCK_DIMENSION_18
  1

  0
SOLID
  5
17D
330
17A
100
AcDbEntity
  8
0
  6
Continuous
 62
     0
370
    18
100
AcDbTrace
 10
16.0562687081
 20
5.1887726877
 30
0.0
 11
15.5821175662
 21
2.1067902658
 31
0.0
 12
16.5304198499
 22
2.1067902658
 32
0.0
 13
16.5304198499
 23
2.1067902658
 33
0.0
  0
LINE
  5
17E
330
17A
100
AcDbEntity
  8
0
  6
Continuous
 62
     0
370
    18
100
AcDbLine
 10
5.4651157698
 20
9.671990294
 30
0.0
 11
4.4067824492
 21
9.671990294
 31
0.0
  0
LINE
  5
17F
330
17A
100
AcDbEntity
  8
0
  6
Continuous
 62
     0
370
    18
100
AcDbLine
 10
4.4067824492
 20
9.671990294
 30
0.0
 11
4.4067824492
 21
4.9388883635
 31
0.0
  0
LINE
  5
180
330
17A
100
AcDbEntity
  8
0
  6
Continuous
 62
     0
370
    18
100
AcDbLine
 10
4.4067824492
 20
4.9388883635
 30
0.0
 11
5.4651157698
 21
4.9388883635
 31
0.0
  0
LINE
  5
181
330
17A
100
AcDbEntity
  8
0
  6
Continuous
 62
     0
370
    18
100
AcDbLine
 10
9.8219214706
 20
9.671990294
 30
0.0
 11
10.8802547911
 21
9.671990294
 31
0.0
  0
LINE
  5
182
330
17A
100
AcDbEntity
  8
0
  6
Continuous
 62
     0
370
    18
100
AcDbLine
 10
10.8802547911
 20
9.671990294
 30
0.0
 11
10.8802547911
 21
4.9388883635
 31
0.0
  0
LINE
  5
183
330
17A
100
AcDbEntity
  8
0
  6
Continuous
 62
     0
370
    18
100
AcDbLine
 10
10.8802547911
 20
4.9388883635
 30
0.0
 11
9.8219214706
 21
4.9388883635
 31
0.0
  0
LINE
  5
184
330
17A
100
AcDbEntity
  8
0
  6
Continuous
 62
     0
370
    18
100
AcDbLine
 10
25.0750041956
 20
5.1887726877
 30
0.0
 11
15.2870379388
 21
5.1887726877
 31
0.0
  0
LINE
  5
185
330
17A
100
AcDbEntity
  8
0
  6
Continuous
 62
     0
370
    18
100
AcDbLine
 10
16.0562687081
 20
-20.2112273123
 30
0.0
 11
16.0562687081
 21
5.1887726877
 31
0.0
  0
MTEXT
  5
186
330
17A
100
AcDbEntity
  8
0
  6
Continuous
 62
     0
370
    18
100
AcDbMText
 10
1.190625
 20
4.0927900738
 30
0.0
 40
3.175
 41
0.0
 71
     1
 72
     1
  1

  7
SLDTEXTSTYLE1
 73
     1
 44
1.0
  0
MTEXT
  5
187
330
17A
100
AcDbEntity
  8
0
  6
Continuous
 62
     0
370
    18
100
AcDbMText
 10
5.4651157698
 20
9.0316784373
 30
0.0
 40
3.175
 41
0.0
 71
     1
 72
     1
  1
4"
  7
SLDTEXTSTYLE1
 73
     1
 44
1.0
  0
MTEXT
  5
188
330
17A
100
AcDbEntity
  8
0
  6
Continuous
 62
     0
370
    18
100
AcDbMText
 10
1.1759259505
 20
4.0927898409
 30
0.0
 40
3.175
 41
0.0
 71
     1
 72
     1
  1
101,60
  7
SLDTEXTSTYLE1
 73
     1
 44
1.0
  0
MTEXT
  5
189
330
17A
100
AcDbEntity
  8
0
  6
Continuous
 62
     0
370
    18
100
AcDbMText
 10
15.3017368719
 20
4.0927900738
 30
0.0
 40
3.175
 41
0.0
 71
     1
 72
     1
  1

  7
SLDTEXTSTYLE1
 73
     1
 44
1.0
  0
ENDBLK
  5
17C
330
17A
100
AcDbEntity
  8
0
100
AcDbBlockEnd
  0
BLOCK
  5
18C
330
18B
100
AcDbEntity
  8
0
100
AcDbBlockBegin
  2
SW_BLOCK_DIMENSION_19
 70
     0
 10
0.0
 20
0.0
 30
0.0
  3
SW_BLOCK_DIMENSION_19
  1

  0
SOLID
  5
18E
330
18B
100
AcDbEntity
  8
0
  6
Continuous
 62
     0
370
    18
100
AcDbTrace
 10
11.7112223517
 20
5.1887726877
 30
0.0
 11
11.2370712099
 21
2.1067902658
 31
0.0
 12
12.1853734936
 22
2.1067902658
 32
0.0
 13
12.1853734936
 23
2.1067902658
 33
0.0
  0
LINE
  5
18F
330
18B
100
AcDbEntity
  8
0
  6
Continuous
 62
     0
370
    18
100
AcDbLine
 10
3.2925925916
 20
9.671990294
 30
0.0
 11
2.2342592711
 21
9.671990294
 31
0.0
  0
LINE
  5
190
330
18B
100
AcDbEntity
  8
0
  6
Continuous
 62
     0
370
    18
100
AcDbLine
 10
2.2342592711
 20
9.671990294
 30
0.0
 11
2.2342592711
 21
4.9388883635
 31
0.0
  0
LINE
  5
191
330
18B
100
AcDbEntity
  8
0
  6
Continuous
 62
     0
370
    18
100
AcDbLine
 10
2.2342592711
 20
4.9388883635
 30
0.0
 11
3.2925925916
 21
4.9388883635
 31
0.0
  0
LINE
  5
192
330
18B
100
AcDbEntity
  8
0
  6
Continuous
 62
     0
370
    18
100
AcDbLine
 10
7.6493982924
 20
9.671990294
 30
0.0
 11
8.707731613
 21
9.671990294
 31
0.0
  0
LINE
  5
193
330
18B
100
AcDbEntity
  8
0
  6
Continuous
 62
     0
370
    18
100
AcDbLine
 10
8.707731613
 20
9.671990294
 30
0.0
 11
8.707731613
 21
4.9388883635
 31
0.0
  0
LINE
  5
194
330
18B
100
AcDbEntity
  8
0
  6
Continuous
 62
     0
370
    18
100
AcDbLine
 10
8.707731613
 20
4.9388883635
 30
0.0
 11
7.6493982924
 21
4.9388883635
 31
0.0
  0
LINE
  5
195
330
18B
100
AcDbEntity
  8
0
  6
Continuous
 62
     0
370
    18
100
AcDbLine
 10
20.7299578393
 20
5.1887726877
 30
0.0
 11
10.9419915825
 21
5.1887726877
 31
0.0
  0
LINE
  5
196
330
18B
100
AcDbEntity
  8
0
  6
Continuous
 62
     0
370
    18
100
AcDbLine
 10
11.7112223517
 20
-20.2112273123
 30
0.0
 11
11.7112223517
 21
5.1887726877
 31
0.0
  0
MTEXT
  5
197
330
18B
100
AcDbEntity
  8
0
  6
Continuous
 62
     0
370
    18
100
AcDbMText
 10
1.190625
 20
4.0927900738
 30
0.0
 40
3.175
 41
0.0
 71
     1
 72
     1
  1

  7
SLDTEXTSTYLE1
 73
     1
 44
1.0
  0
MTEXT
  5
198
330
18B
100
AcDbEntity
  8
0
  6
Continuous
 62
     0
370
    18
100
AcDbMText
 10
3.2925925916
 20
9.0316784373
 30
0.0
 40
3.175
 41
0.0
 71
     1
 72
     1
  1
5"
  7
SLDTEXTSTYLE1
 73
     1
 44
1.0
  0
MTEXT
  5
199
330
18B
100
AcDbEntity
  8
0
  6
Continuous
 62
     0
370
    18
100
AcDbMText
 10
1.9432179397
 20
4.0927898409
 30
0.0
 40
3.175
 41
0.0
 71
     1
 72
     1
  1
127
  7
SLDTEXTSTYLE1
 73
     1
 44
1.0
  0
MTEXT
  5
19A
330
18B
100
AcDbEntity
  8
0
  6
Continuous
 62
     0
370
    18
100
AcDbMText
 10
10.9566905156
 20
4.0927900738
 30
0.0
 40
3.175
 41
0.0
 71
     1
 72
     1
  1

  7
SLDTEXTSTYLE1
 73
     1
 44
1.0
  0
ENDBLK
  5
18D
330
18B
100
AcDbEntity
  8
0
100
AcDbBlockEnd
  0
BLOCK
  5
19D
330
19C
100
AcDbEntity
  8
0
100
AcDbBlockBegin
  2
SW_NOTE_0_6
 70
     0
 10
0.0
 20
0.0
 30
0.0
  3
SW_NOTE_0_6
  1

  0
MTEXT
  5
19F
330
19C
100
AcDbEntity
  8
0
  6
Continuous
 62
     0
370
    18
100
AcDbMText
 10
6.7138020833
 20
4.7749217527
 30
0.0
 40
3.7041666667
 41
0.0
 71
     2
 72
     1
  1
(Inch)
  7
SLDTEXTSTYLE1
 73
     1
 44
1.0
  0
MTEXT
  5
1A0
330
19C
100
AcDbEntity
  8
0
  6
Continuous
 62
     0
370
    18
100
AcDbMText
 10
6.7309508326
 20
-1.1639672404
 30
0.0
 40
3.7041666667
 41
0.0
 71
     2
 72
     1
  1
mm
  7
SLDTEXTSTYLE1
 73
     1
 44
1.0
  0
ENDBLK
  5
19E
330
19C
100
AcDbEntity
  8
0
100
AcDbBlockEnd
  0
BLOCK
  5
1A3
330
1A2
100
AcDbEntity
  8
0
100
AcDbBlockBegin
  2
SW_NOTE_0_7
 70
     0
 10
0.0
 20
0.0
 30
0.0
  3
SW_NOTE_0_7
  1

  0
MTEXT
  5
1A5
330
1A2
100
AcDbEntity
  8
0
  6
Continuous
 62
     0
370
    18
100
AcDbMText
 10
0.0
 20
4.7749217527
 30
0.0
 40
3.7041666667
 41
0.0
 71
     1
 72
     1
  1
mm
  7
SLDTEXTSTYLE1
 73
     1
 44
1.0
  0
ENDBLK
  5
1A4
330
1A2
100
AcDbEntity
  8
0
100
AcDbBlockEnd
  0
BLOCK
  5
1B2
330
1B1
100
AcDbEntity
  8
0
100
AcDbBlockBegin
  2
SW_NOTE_0_8
 70
     0
 10
0.0
 20
0.0
 30
0.0
  3
SW_NOTE_0_8
  1

  0
MTEXT
  5
1B4
330
1B1
100
AcDbEntity
  8
0
  6
Continuous
 62
     0
370
     0
100
AcDbMText
 10
19.893359375
 20
4.0927900738
 30
0.0
 40
3.175
 41
0.0
 71
     2
 72
     1
  1
ABP-Beyerle GmbH
  7
SLDTEXTSTYLE1
 73
     1
 44
1.0
  0
MTEXT
  5
1B5
330
1B1
100
AcDbEntity
  8
0
  6
Continuous
 62
     0
370
     0
100
AcDbMText
 10
20.6558884293
 20
-0.1405432084
 30
0.0
 40
3.175
 41
0.0
 71
     2
 72
     1
  1
Im Schollengarten 24b, 76646 Bruchsal
  7
SLDTEXTSTYLE1
 73
     1
 44
1.0
  0
MTEXT
  5
1B6
330
1B1
100
AcDbEntity
  8
0
  6
Continuous
 62
     0
370
     0
100
AcDbMText
 10
20.7863491923
 20
-4.3738764906
 30
0.0
 40
3.175
 41
0.0
 71
     2
 72
     1
  1
Tel. +49 (0)7251-9127-0, Fax. +49 (0)7251-9127-29
  7
SLDTEXTSTYLE1
 73
     1
 44
1.0
  0
MTEXT
  5
1B7
330
1B1
100
AcDbEntity
  8
0
  6
Continuous
 62
     0
370
     0
100
AcDbMText
 10
20.8392552227
 20
-8.6072097727
 30
0.0
 40
3.175
 41
0.0
 71
     2
 72
     1
  1
info@abp-beyerle.de, www.abp-beyerle.de
  7
SLDTEXTSTYLE1
 73
     1
 44
1.0
  0
ENDBLK
  5
1B3
330
1B1
100
AcDbEntity
  8
0
100
AcDbBlockEnd
  0
ENDSEC
  0
SECTION
  2
ENTITIES
  0
LINE
  5
1A8
330
1F
100
AcDbEntity
  8
0
  6
Continuous
 62
   179
370
    18
100
AcDbLine
 10
127.4819306314
 20
27.1626886523
 30
0.0
 11
127.4819306314
 21
7.1626886523
 31
0.0
  0
LINE
  5
1A9
330
1F
100
AcDbEntity
  8
0
  6
Continuous
 62
   179
370
    18
100
AcDbLine
 10
127.4819306314
 20
7.1626886523
 30
0.0
 11
231.2890403829
 21
7.1626886523
 31
0.0
  0
LINE
  5
1AA
330
1F
100
AcDbEntity
  8
0
  6
Continuous
 62
   179
370
    18
100
AcDbLine
 10
231.2890403829
 20
7.1626886523
 30
0.0
 11
231.2890403829
 21
27.1626886523
 31
0.0
  0
LINE
  5
1AB
330
1F
100
AcDbEntity
  8
0
  6
Continuous
 62
   179
370
    18
100
AcDbLine
 10
231.2890403829
 20
27.1626886523
 30
0.0
 11
127.4819306314
 21
27.1626886523
 31
0.0
  0
LINE
  5
1AC
330
1F
100
AcDbEntity
  8
0
  6
Continuous
 62
   179
370
    18
100
AcDbLine
 10
231.2890403829
 20
17.1626886523
 30
0.0
 11
127.4819306314
 21
17.1626886523
 31
0.0
  0
LINE
  5
1AD
330
1F
100
AcDbEntity
  8
0
  6
Continuous
 62
   179
370
    18
100
AcDbLine
 10
188.5336333335
 20
27.1626886523
 30
0.0
 11
188.5336333335
 21
7.1626886523
 31
0.0
  0
INSERT
  5
1AE
330
1F
100
AcDbEntity
  8
0
100
AcDbBlockReference
  2
Block5
 10
19.561342692
 20
-6.9223244521
 30
0.0
  0
MTEXT
  5
1AF
330
1F
100
AcDbEntity
  8
0
  6
Continuous
 62
     7
370
     0
100
AcDbMText
 10
402.5
 20
14.7189135832
 30
0.0
 40
6.35
 41
0.0
 71
     1
 72
     1
  1
1:1
  7
SLDTEXTSTYLE0
 73
     1
 44
1.0
  0
MTEXT
  5
1B0
330
1F
100
AcDbEntity
  8
0
  6
Continuous
 62
     7
370
     0
100
AcDbMText
 10
190.3749692016
 20
25.1056679674
 30
0.0
 40
4.2333333333
 41
0.0
 71
     1
 72
     1
  1
S70
  7
SLDTEXTSTYLE0
 73
     1
 44
1.0
  0
INSERT
  5
1B8
330
1F
100
AcDbEntity
  8
0
  6
Continuous
 62
     7
370
     0
100
AcDbBlockReference
  2
SW_NOTE_0_8
 10
35.4202146835
 20
20.1681939512
 30
0.0
  0
MTEXT
  5
1B9
330
1F
100
AcDbEntity
  8
0
  6
Continuous
 62
   179
370
    18
100
AcDbMText
 10
131.6112989967
 20
25.1056677346
 30
0.0
 40
4.2333333333
 41
0.0
 71
     1
 72
     1
  1
Artikelnummer
  7
SLDTEXTSTYLE0
 73
     1
 44
1.0
  0
MTEXT
  5
1BA
330
1F
100
AcDbEntity
  8
0
  6
Continuous
 62
   179
370
    18
100
AcDbMText
 10
131.6112989967
 20
15.1068467326
 30
0.0
 40
4.2333333333
 41
0.0
 71
     1
 72
     1
  1
Index
  7
SLDTEXTSTYLE0
 73
     1
 44
1.0
  0
MTEXT
  5
1BB
330
1F
100
AcDbEntity
  8
0
  6
Continuous
 62
   179
370
    18
100
AcDbMText
 10
191.3424447454
 20
14.5571014523
 30
0.0
 40
4.2333333333
 41
0.0
 71
     1
 72
     1
  1
0
  7
SLDTEXTSTYLE0
 73
     1
 44
1.0
  0
CIRCLE
  5
1BC
330
1F
100
AcDbEntity
  8
0
  6
Continuous
 62
     7
370
    25
100
AcDbCircle
 10
148.1947583815
 20
164.9041410405
 30
0.0
 40
15.0
  0
CIRCLE
  5
1BD
330
1F
100
AcDbEntity
  8
0
  6
Continuous
 62
     7
370
    25
100
AcDbCircle
 10
148.1947583815
 20
164.9041410405
 30
0.0
 40
14.70000000000002
  0
CIRCLE
  5
1BE
330
1F
100
AcDbEntity
  8
0
  6
Continuous
 62
     7
370
    25
100
AcDbCircle
 10
148.1947583815
 20
164.9041410405
 30
0.0
 40
3.799999999999983
  0
CIRCLE
  5
1BF
330
1F
100
AcDbEntity
  8
0
  6
Continuous
 62
     7
370
    25
100
AcDbCircle
 10
148.1947583815
 20
164.9041410405
 30
0.0
 40
3.400000000000006
  0
LINE
  5
1C0
330
1F
100
AcDbEntity
  8
0
  6
Continuous
 62
     7
370
    25
100
AcDbLine
 10
212.3149822976
 20
179.9041410405
 30
0.0
 11
204.7013803468
 21
179.9041410405
 31
0.0
  0
LINE
  5
1C1
330
1F
100
AcDbEntity
  8
0
  6
Continuous
 62
     7
370
    25
100
AcDbLine
 10
244.0013803468
 20
179.9041410405
 30
0.0
 11
221.285349038
 21
179.9041410405
 31
0.0
  0
LINE
  5
1C2
330
1F
100
AcDbEntity
  8
0
  6
Continuous
 62
     7
370
    25
100
AcDbLine
 10
204.7013803468
 20
149.9041410405
 30
0.0
 11
244.0013803468
 21
149.9041410405
 31
0.0
  0
LINE
  5
1C3
330
1F
100
AcDbEntity
  8
0
  6
Continuous
 62
     7
370
    25
100
AcDbLine
 10
244.0013803468
 20
149.9041410405
 30
0.0
 11
244.3013803468
 21
150.2041410405
 31
0.0
  0
LINE
  5
1C4
330
1F
100
AcDbEntity
  8
0
  6
Continuous
 62
     7
370
    25
100
AcDbLine
 10
244.3013803468
 20
179.6041410405
 30
0.0
 11
244.0013803468
 21
179.9041410405
 31
0.0
  0
LINE
  5
1C5
330
1F
100
AcDbEntity
  8
0
  6
Continuous
 62
     7
370
    25
100
AcDbLine
 10
204.3013803468
 20
150.3041410405
 30
0.0
 11
204.7013803468
 21
149.9041410405
 31
0.0
  0
LINE
  5
1C6
330
1F
100
AcDbEntity
  8
0
  6
Continuous
 62
     7
370
    25
100
AcDbLine
 10
204.7013803468
 20
179.9041410405
 30
0.0
 11
204.3013803468
 21
179.5041410405
 31
0.0
  0
LINE
  5
1C7
330
1F
100
AcDbEntity
  8
0
  6
Continuous
 62
     7
370
    25
100
AcDbLine
 10
234.3013803468
 20
158.3287985747
 30
0.0
 11
204.7013803468
 21
158.3287985747
 31
0.0
  0
LINE
  5
1C8
330
1F
100
AcDbEntity
  8
0
  6
Continuous
 62
     7
370
    25
100
AcDbLine
 10
234.3013803468
 20
158.3287985747
 30
0.0
 11
234.3013803468
 21
171.4794835062
 31
0.0
  0
LINE
  5
1C9
330
1F
100
AcDbEntity
  8
0
  6
Continuous
 62
     7
370
    25
100
AcDbLine
 10
204.7013803468
 20
171.4794835062
 30
0.0
 11
234.3013803468
 21
171.4794835062
 31
0.0
  0
LINE
  5
1CA
330
1F
100
AcDbEntity
  8
0
  6
Continuous
 62
     7
370
    25
100
AcDbLine
 10
204.7013803468
 20
179.9041410405
 30
0.0
 11
204.7013803468
 21
171.4794835062
 31
0.0
  0
LINE
  5
1CB
330
1F
100
AcDbEntity
  8
0
  6
Continuous
 62
     7
370
    25
100
AcDbLine
 10
204.7013803468
 20
158.3287985747
 30
0.0
 11
204.7013803468
 21
149.9041410405
 31
0.0
  0
SPLINE
  5
1CC
330
1F
100
AcDbEntity
  8
0
  6
Continuous
 62
     7
370
    25
100
AcDbSpline
210
0.0
220
0.0
230
1.0
 70
     8
 71
     3
 72
    27
 73
    23
 74
     0
 42
0.000000001
 43
0.00000001
 40
0.0
 40
0.0
 40
0.0
 40
0.0
 40
0.0299786514649047
 40
0.0805552407994376
 40
0.1325691067866953
 40
0.1837799358100671
 40
0.2363700567034966
 40
0.289525815905357
 40
0.344190436303386
 40
0.397775713745172
 40
0.4530322688288198
 40
0.5046230162904898
 40
0.5577929421543724
 40
0.6081185234390862
 40
0.6598328953815933
 40
0.7115361109253143
 40
0.7646321804861165
 40
0.8182278709798384
 40
0.8733968496550527
 40
0.926522774541107
 40
0.9813123405177636
 40
0.9999999999999999
 40
0.9999999999999999
 40
0.9999999999999999
 40
0.9999999999999999
 10
221.2853490379628
 20
179.8993398625019
 30
0.0
 10
221.2877382417138
 20
179.900052269333
 30
0.0
 10
221.2941582397484
 20
179.9019665683768
 30
0.0
 10
221.1701796063595
 20
179.8649582680329
 30
0.0
 10
220.934309074672
 20
179.79726303026
 30
0.0
 10
220.5817233064438
 20
179.7024897016572
 30
0.0
 10
220.1289345003105
 20
179.5923262243138
 30
0.0
 10
219.574653113623
 20
179.4755397472113
 30
0.0
 10
218.937419528115
 20
179.3666374627661
 30
0.0
 10
218.2277884156432
 20
179.277963365177
 30
0.0
 10
217.4870616063873
 20
179.223031135547
 30
0.0
 10
216.7277240578288
 20
179.2068874757519
 30
0.0
 10
215.993562947407
 20
179.2299045154819
 30
0.0
 10
215.2829412332941
 20
179.288222661982
 30
0.0
 10
214.6206333229413
 20
179.3738334064776
 30
0.0
 10
214.0063655584025
 20
179.4799260638995
 30
0.0
 10
213.4606159103396
 20
179.5952921945359
 30
0.0
 10
212.996540575695
 20
179.7086275487463
 30
0.0
 10
212.6377256143473
 20
179.805826553827
 30
0.0
 10
212.4041424968548
 20
179.8733138285223
 30
0.0
 10
212.2974220047158
 20
179.905325733882
 30
0.0
 10
212.3114217140583
 20
179.9011339341068
 30
0.0
 10
212.3149822976189
 20
179.9000678224467
 30
0.0
  0
LINE
  5
1CD
330
1F
100
AcDbEntity
  8
0
  6
Continuous
 62
     7
370
    25
100
AcDbLine
 10
244.0013803468
 20
164.9041410405
 30
0.0
 11
244.0013803468
 21
179.9041410405
 31
0.0
  0
LINE
  5
1CE
330
1F
100
AcDbEntity
  8
0
  6
Continuous
 62
     7
370
    25
100
AcDbLine
 10
244.0013803468
 20
149.9041410405
 30
0.0
 11
244.0013803468
 21
164.9041410405
 31
0.0
  0
LINE
  5
1CF
330
1F
100
AcDbEntity
  8
0
  6
Continuous
 62
     7
370
    25
100
AcDbLine
 10
244.3013803468
 20
164.9041410405
 30
0.0
 11
244.3013803468
 21
150.2041410405
 31
0.0
  0
LINE
  5
1D0
330
1F
100
AcDbEntity
  8
0
  6
Continuous
 62
     7
370
    25
100
AcDbLine
 10
244.3013803468
 20
179.6041410405
 30
0.0
 11
244.3013803468
 21
164.9041410405
 31
0.0
  0
LINE
  5
1D1
330
1F
100
AcDbEntity
  8
0
  6
Continuous
 62
     7
370
    25
100
AcDbLine
 10
204.3013803468
 20
150.3041410405
 30
0.0
 11
204.3013803468
 21
158.5041410405
 31
0.0
  0
SPLINE
  5
1D2
330
1F
100
AcDbEntity
  8
0
  6
Continuous
 62
     7
370
    25
100
AcDbSpline
210
0.0
220
0.0
230
1.0
 70
    24
 71
     3
 72
     8
 73
     4
 74
     0
 42
0.000000001
 43
0.00000001
 40
0.0003895496174021
 40
0.0003895496174021
 40
0.0003895496174021
 40
0.0003895496174021
 40
0.000843154318874
 40
0.000843154318874
 40
0.000843154318874
 40
0.000843154318874
 10
204.5153034667111
 20
158.7180641603527
 30
0.0
 10
204.4434966526554
 20
158.646257346297
 30
0.0
 10
204.3721804056917
 20
158.5749410993333
 30
0.0
 10
204.3013803468208
 20
158.5041410404625
 30
0.0
  0
SPLINE
  5
1D3
330
1F
100
AcDbEntity
  8
0
  6
Continuous
 62
     7
370
    25
100
AcDbSpline
210
0.0
220
0.0
230
1.0
 70
     8
 71
     3
 72
    10
 73
     6
 74
     0
 42
0.000000001
 43
0.00000001
 40
0.0
 40
0.0
 40
0.0
 40
0.0
 40
0.5
 40
0.5
 40
1.0
 40
1.0
 40
1.0
 40
1.0
 10
204.7013803468208
 20
158.328798574709
 30
0.0
 10
204.7013803468208
 20
158.3980380793708
 30
0.0
 10
204.6789136252703
 20
158.4740099034737
 30
0.0
 10
204.6095845953919
 20
158.609591268419
 30
0.0
 10
204.5645137334778
 20
158.6684914105713
 30
0.0
 10
204.5153034667176
 20
158.7180641603625
 30
0.0
  0
SPLINE
  5
1D4
330
1F
100
AcDbEntity
  8
0
  6
Continuous
 62
     7
370
    25
100
AcDbSpline
210
0.0
220
0.0
230
1.0
 70
     8
 71
     3
 72
    10
 73
     6
 74
     0
 42
0.000000001
 43
0.00000001
 40
0.0
 40
0.0
 40
0.0
 40
0.0
 40
0.5
 40
0.5
 40
1.0
 40
1.0
 40
1.0
 40
1.0
 10
204.5153034667191
 20
171.0902179205642
 30
0.0
 10
204.5645742088117
 20
171.1398515911497
 30
0.0
 10
204.6092039301399
 20
171.1981011717968
 30
0.0
 10
204.6787638757959
 20
171.3338257046704
 30
0.0
 10
204.7013803468208
 20
171.4099382587877
 30
0.0
 10
204.7013803468208
 20
171.4794835062159
 30
0.0
  0
SPLINE
  5
1D5
330
1F
100
AcDbEntity
  8
0
  6
Continuous
 62
     7
370
    25
100
AcDbSpline
210
0.0
220
0.0
230
1.0
 70
    24
 71
     3
 72
     8
 73
     4
 74
     0
 42
0.000000001
 43
0.00000001
 40
0.0
 40
0.0
 40
0.0
 40
0.0
 40
0.0004536047014887
 40
0.0004536047014887
 40
0.0004536047014887
 40
0.0004536047014887
 10
204.3013803468208
 20
171.3041410404625
 30
0.0
 10
204.3721804056943
 20
171.233340981589
 30
0.0
 10
204.4434966526607
 20
171.1620247346226
 30
0.0
 10
204.5153034667191
 20
171.0902179205642
 30
0.0
  0
LINE
  5
1D6
330
1F
100
AcDbEntity
  8
0
  6
Continuous
 62
     7
370
    25
100
AcDbLine
 10
204.3013803468
 20
171.3041410405
 30
0.0
 11
204.3013803468
 21
179.5041410405
 31
0.0
  0
LINE
  5
1D7
330
1F
100
AcDbEntity
  8
0
  6
Continuous
 62
     7
370
    25
100
AcDbLine
 10
204.5153034667
 20
158.7180641604
 30
0.0
 11
204.7013803468
 21
158.9041410405
 31
0.0
  0
LINE
  5
1D8
330
1F
100
AcDbEntity
  8
0
  6
Continuous
 62
     7
370
    25
100
AcDbLine
 10
204.7013803468
 20
158.9041410405
 30
0.0
 11
234.3013803468
 21
158.9041410405
 31
0.0
  0
LINE
  5
1D9
330
1F
100
AcDbEntity
  8
0
  6
Continuous
 62
     7
370
    25
100
AcDbLine
 10
234.3013803468
 20
170.9041410405
 30
0.0
 11
204.7013803468
 21
170.9041410405
 31
0.0
  0
LINE
  5
1DA
330
1F
100
AcDbEntity
  8
0
  6
Continuous
 62
     7
370
    25
100
AcDbLine
 10
204.7013803468
 20
170.9041410405
 30
0.0
 11
204.5153034667
 21
171.0902179206
 31
0.0
  0
LINE
  5
1DB
330
1F
100
AcDbEntity
  8
0
  6
Continuous
 62
     7
370
    25
100
AcDbLine
 10
163.1947583815
 20
77.6636323699
 30
0.0
 11
163.1947583815
 21
87.3636323699
 31
0.0
  0
LINE
  5
1DC
330
1F
100
AcDbEntity
  8
0
  6
Continuous
 62
     7
370
    25
100
AcDbLine
 10
133.1947583815
 20
87.3636323699
 30
0.0
 11
133.1947583815
 21
77.6636323699
 31
0.0
  0
LINE
  5
1DD
330
1F
100
AcDbEntity
  8
0
  6
Continuous
 62
     7
370
    25
100
AcDbLine
 10
133.1947583815
 20
77.6636323699
 30
0.0
 11
133.4947583815
 21
77.3636323699
 31
0.0
  0
LINE
  5
1DE
330
1F
100
AcDbEntity
  8
0
  6
Continuous
 62
     7
370
    25
100
AcDbLine
 10
162.8947583815
 20
77.3636323699
 30
0.0
 11
163.1947583815
 21
77.6636323699
 31
0.0
  0
LINE
  5
1DF
330
1F
100
AcDbEntity
  8
0
  6
Continuous
 62
     7
370
    25
100
AcDbLine
 10
134.6722586196
 20
117.0062503556
 30
0.0
 11
134.6722586196
 21
87.3636323699
 31
0.0
  0
LINE
  5
1E0
330
1F
100
AcDbEntity
  8
0
  6
Continuous
 62
     7
370
    25
100
AcDbLine
 10
161.7172581434
 20
87.3636323699
 30
0.0
 11
161.7172581434
 21
117.0052381261
 31
0.0
  0
SPLINE
  5
1E1
330
1F
100
AcDbEntity
  8
0
  6
Continuous
 62
     7
370
    25
100
AcDbSpline
210
0.0
220
0.0
230
1.0
 70
     8
 71
     3
 72
    10
 73
     6
 74
     0
 42
0.000000001
 43
0.00000001
 40
0.0
 40
0.0
 40
0.0
 40
0.0
 40
0.5
 40
0.5
 40
1.0
 40
1.0
 40
1.0
 40
1.0
 10
134.7342691245805
 20
117.149709250044
 30
0.0
 10
134.7028545693391
 20
117.1004385079513
 30
0.0
 10
134.6805914506469
 20
117.0558087866231
 30
0.0
 10
134.6675779483392
 20
116.9862488409671
 30
0.0
 10
134.6788200297094
 20
116.9636323699422
 30
0.0
 10
134.7127380782228
 20
116.9636323699422
 30
0.0
  0
SPLINE
  5
1E2
330
1F
100
AcDbEntity
  8
0
  6
Continuous
 62
     7
370
    25
100
AcDbSpline
210
0.0
220
0.0
230
1.0
 70
     8
 71
     3
 72
     8
 73
     4
 74
     0
 42
0.000000001
 43
0.00000001
 40
0.0
 40
0.0
 40
0.0
 40
0.0
 40
0.0004536047014887
 40
0.0004536047014887
 40
0.0004536047014887
 40
0.0004536047014887
 10
135.0722586196435
 20
117.3636323699422
 30
0.0
 10
134.9589569421183
 20
117.2928323110688
 30
0.0
 10
134.8462964860265
 20
117.2215160641024
 30
0.0
 10
134.7342691245805
 20
117.149709250044
 30
0.0
  0
LINE
  5
1E3
330
1F
100
AcDbEntity
  8
0
  6
Continuous
 62
     7
370
    25
100
AcDbLine
 10
135.0722586196
 20
117.3636323699
 30
0.0
 11
161.3172581434
 21
117.3636323699
 31
0.0
  0
SPLINE
  5
1E4
330
1F
100
AcDbEntity
  8
0
  6
Continuous
 62
     7
370
    25
100
AcDbSpline
210
0.0
220
0.0
230
1.0
 70
     8
 71
     3
 72
     8
 73
     4
 74
     0
 42
0.000000001
 43
0.00000001
 40
0.0003895496174021
 40
0.0003895496174021
 40
0.0003895496174021
 40
0.0003895496174021
 40
0.000843154318874
 40
0.000843154318874
 40
0.000843154318874
 40
0.000843154318874
 10
161.655247638413
 20
117.149709250052
 30
0.0
 10
161.5432202769711
 20
117.2215160641077
 30
0.0
 10
161.4305598208834
 20
117.2928323110714
 30
0.0
 10
161.3172581433624
 20
117.3636323699422
 30
0.0
  0
SPLINE
  5
1E5
330
1F
100
AcDbEntity
  8
0
  6
Continuous
 62
     7
370
    25
100
AcDbSpline
210
0.0
220
0.0
230
1.0
 70
     8
 71
     3
 72
    10
 73
     6
 74
     0
 42
0.000000001
 43
0.00000001
 40
0.0
 40
0.0
 40
0.0
 40
0.0
 40
0.5
 40
0.5
 40
1.0
 40
1.0
 40
1.0
 40
1.0
 10
161.6767786847832
 20
116.9636323699422
 30
0.0
 10
161.7105476188946
 20
116.9636323699422
 30
0.0
 10
161.7218922876843
 20
116.9860990914928
 30
0.0
 10
161.7090705035442
 20
117.0554281213712
 30
0.0
 10
161.686623635171
 20
117.1004989832853
 30
0.0
 10
161.6552476384246
 20
117.1497092500455
 30
0.0
  0
LINE
  5
1E6
330
1F
100
AcDbEntity
  8
0
  6
Continuous
 62
     7
370
    25
100
AcDbLine
 10
161.6767786848
 20
116.9636323699
 30
0.0
 11
134.7127380782
 21
116.9636323699
 31
0.0
  0
LINE
  5
1E7
330
1F
100
AcDbEntity
  8
0
  6
Continuous
 62
     7
370
    25
100
AcDbLine
 10
133.1947583815
 20
87.3636323699
 30
0.0
 11
134.7127380782
 21
87.3636323699
 31
0.0
  0
LINE
  5
1E8
330
1F
100
AcDbEntity
  8
0
  6
Continuous
 62
     7
370
    25
100
AcDbLine
 10
134.7127380782
 20
116.9636323699
 30
0.0
 11
134.7127380782
 21
87.3636323699
 31
0.0
  0
LINE
  5
1E9
330
1F
100
AcDbEntity
  8
0
  6
Continuous
 62
     7
370
    25
100
AcDbLine
 10
161.6767786848
 20
87.3636323699
 30
0.0
 11
161.6767786848
 21
116.9636323699
 31
0.0
  0
LINE
  5
1EA
330
1F
100
AcDbEntity
  8
0
  6
Continuous
 62
     7
370
    25
100
AcDbLine
 10
161.6767786848
 20
87.3636323699
 30
0.0
 11
163.1947583815
 21
87.3636323699
 31
0.0
  0
SPLINE
  5
1EB
330
1F
100
AcDbEntity
  8
0
  6
Continuous
 62
     7
370
    25
100
AcDbSpline
210
0.0
220
0.0
230
1.0
 70
    11
 71
     3
 72
    72
 73
    68
 74
     0
 42
0.000000001
 43
0.00000001
 40
0.0
 40
0.0
 40
0.0
 40
0.0
 40
0.03125
 40
0.03125
 40
0.0625000000000001
 40
0.0625000000000001
 40
0.0937500000000001
 40
0.0937500000000001
 40
0.1250000000000001
 40
0.1250000000000001
 40
0.1562500000000001
 40
0.1562500000000001
 40
0.1875000000000002
 40
0.1875000000000002
 40
0.2187500000000002
 40
0.2187500000000002
 40
0.2500000000000002
 40
0.2500000000000002
 40
0.2812500000000002
 40
0.2812500000000002
 40
0.3125000000000002
 40
0.3125000000000002
 40
0.3437500000000002
 40
0.3437500000000002
 40
0.3750000000000003
 40
0.3750000000000003
 40
0.4062500000000003
 40
0.4062500000000003
 40
0.4375000000000003
 40
0.4375000000000003
 40
0.4687500000000003
 40
0.4687500000000003
 40
0.4843750000000006
 40
0.4843750000000006
 40
0.5000000000000007
 40
0.5000000000000007
 40
0.5312500000000007
 40
0.5312500000000007
 40
0.5625000000000008
 40
0.5625000000000008
 40
0.5937500000000008
 40
0.5937500000000008
 40
0.6250000000000008
 40
0.6250000000000008
 40
0.6562500000000008
 40
0.6562500000000008
 40
0.6875000000000009
 40
0.6875000000000009
 40
0.7187500000000009
 40
0.7187500000000009
 40
0.7500000000000009
 40
0.7500000000000009
 40
0.7812500000000009
 40
0.7812500000000009
 40
0.812500000000001
 40
0.812500000000001
 40
0.843750000000001
 40
0.843750000000001
 40
0.8750000000000008
 40
0.8750000000000008
 40
0.9062500000000006
 40
0.9062500000000006
 40
0.9375000000000003
 40
0.9375000000000003
 40
0.9687500000000002
 40
0.9687500000000002
 40
1.0
 40
1.0
 40
1.0
 40
1.0
 10
152.694758381503
 20
104.8636323699422
 30
0.0
 10
152.694758381503
 20
104.564476455567
 30
0.0
 10
152.6652272773025
 20
104.2706868672835
 30
0.0
 10
152.5498650402513
 20
103.6932809234269
 30
0.0
 10
152.4625270769535
 20
103.4065967513256
 30
0.0
 10
152.2361205401219
 20
102.8625840610132
 30
0.0
 10
152.0978325335552
 20
102.6048413543441
 30
0.0
 10
151.7714040503368
 20
102.117047135842
 30
0.0
 10
151.582676595942
 20
101.8875483796987
 30
0.0
 10
151.1701654061533
 20
101.4751196014297
 30
0.0
 10
150.9447419490239
 20
101.289414396436
 30
0.0
 10
150.4533680133801
 20
100.9602842847003
 30
0.0
 10
150.1942895298352
 20
100.8216442318491
 30
0.0
 10
149.6534533705722
 20
100.5965488401176
 30
0.0
 10
149.3679893448407
 20
100.5091510131134
 30
0.0
 10
148.7862811757722
 20
100.3928293588307
 30
0.0
 10
148.4931271391905
 20
100.3638258335533
 30
0.0
 10
147.9022540786006
 20
100.3634408169885
 30
0.0
 10
147.6021267608146
 20
100.3930812562676
 30
0.0
 10
147.0235205617163
 20
100.5087223286993
 30
0.0
 10
146.7420833505114
 20
100.5942662128276
 30
0.0
 10
146.1949494845718
 20
100.821539285297
 30
0.0
 10
145.9344257699768
 20
100.9615443341549
 30
0.0
 10
145.4487457415201
 20
101.2866491249692
 30
0.0
 10
145.2198297557788
 20
101.4745242829133
 30
0.0
 10
144.8045648382435
 20
101.8899407764915
 30
0.0
 10
144.6195663441853
 20
102.1152557417594
 30
0.0
 10
144.2938365597968
 20
102.6012484204371
 30
0.0
 10
144.1524595273905
 20
102.8646307762063
 30
0.0
 10
143.9270015427047
 20
103.406773089638
 30
0.0
 10
143.841123710489
 20
103.6873471322632
 30
0.0
 10
143.7536419085759
 20
104.123071821334
 30
0.0
 10
143.7314177542804
 20
104.2715131689839
 30
0.0
 10
143.7021076393775
 20
104.5668091699748
 30
0.0
 10
143.6948223171272
 20
104.7143188813721
 30
0.0
 10
143.6946317641202
 20
105.1564408959052
 30
0.0
 10
143.7234500110106
 20
105.4519804397153
 30
0.0
 10
143.840033491685
 20
106.0362888112072
 30
0.0
 10
143.9260392965658
 20
106.317693776255
 30
0.0
 10
144.151246938765
 20
106.8601975233699
 30
0.0
 10
144.2923584994002
 20
107.1235215819463
 30
0.0
 10
144.6183006904693
 20
107.610407656458
 30
0.0
 10
144.8033478531925
 20
107.8359318245047
 30
0.0
 10
145.218379519675
 20
108.2514632821914
 30
0.0
 10
145.4473399738347
 20
108.4395103822512
 30
0.0
 10
145.932347717243
 20
108.7644924612492
 30
0.0
 10
146.190841994025
 20
108.9037578529428
 30
0.0
 10
146.7394807869508
 20
109.1321756728956
 30
0.0
 10
147.0209300358397
 20
109.2177892000461
 30
0.0
 10
147.5978324169082
 20
109.3335578815157
 30
0.0
 10
147.8969069481065
 20
109.3635509973282
 30
0.0
 10
148.4901459315795
 20
109.3637134052939
 30
0.0
 10
148.7834387388001
 20
109.334750314661
 30
0.0
 10
149.3634604292068
 20
109.2192696094683
 30
0.0
 10
149.650546884072
 20
109.131758609802
 30
0.0
 10
150.1928509775459
 20
108.9063848656103
 30
0.0
 10
150.4515136211823
 20
108.768081012108
 30
0.0
 10
150.9436348208011
 20
108.4387326108588
 30
0.0
 10
151.1693651637739
 20
108.252853523551
 30
0.0
 10
151.5820643561626
 20
107.8404198617254
 30
0.0
 10
151.7707882457778
 20
107.6110264383174
 30
0.0
 10
152.0973935521881
 20
107.1231903978893
 30
0.0
 10
152.2355452363711
 20
106.865735676653
 30
0.0
 10
152.4616265023737
 20
106.3231571200973
 30
0.0
 10
152.5494049763938
 20
106.0358810248847
 30
0.0
 10
152.6652133823739
 20
105.4570512444293
 30
0.0
 10
152.694758381503
 20
105.1627882843175
 30
0.0
 10
152.694758381503
 20
104.8636323699422
 30
0.0
  0
LINE
  5
1EC
330
1F
100
AcDbEntity
  8
0
  6
Continuous
 62
     7
370
    25
100
AcDbLine
 10
133.1947583815
 20
77.6636323699
 30
0.0
 11
163.1947583815
 21
77.6636323699
 31
0.0
  0
LINE
  5
1ED
330
1F
100
AcDbEntity
  8
0
  6
Continuous
 62
     7
370
    25
100
AcDbLine
 10
162.8947583815
 20
77.3636323699
 30
0.0
 11
133.4947583815
 21
77.3636323699
 31
0.0
  0
ENDSEC
  0
SECTION
  2
OBJECTS
  0
DICTIONARY
  5
C
330
0
100
AcDbDictionary
281
     1
  3
ACAD_GROUP
350
D
  3
ACAD_LAYOUT
350
1A
  3
ACAD_MLINESTYLE
350
17
  3
ACAD_PLOTSETTINGS
350
19
  3
ACAD_PLOTSTYLENAME
350
E
  3
ACAD_SCALELIST
350
47
  0
DICTIONARY
  5
D
102
{ACAD_REACTORS
330
C
102
}
330
C
100
AcDbDictionary
281
     1
  0
DICTIONARY
  5
1A
102
{ACAD_REACTORS
330
C
102
}
330
C
100
AcDbDictionary
281
     1
  3
Layout1
350
1E
  3
Layout2
350
26
  3
Model
350
22
  0
DICTIONARY
  5
17
102
{ACAD_REACTORS
330
C
102
}
330
C
100
AcDbDictionary
281
     1
  3
Standard
350
18
  0
DICTIONARY
  5
19
102
{ACAD_REACTORS
330
C
102
}
330
C
100
AcDbDictionary
281
     1
  0
ACDBDICTIONARYWDFLT
  5
E
102
{ACAD_REACTORS
330
C
102
}
330
C
100
AcDbDictionary
281
     1
  3
Normal
350
F
100
AcDbDictionaryWithDefault
340
F
  0
DICTIONARY
  5
47
102
{ACAD_REACTORS
330
C
102
}
330
C
100
AcDbDictionary
281
     1
  3
A0
350
48
  3
A1
350
49
  3
A2
350
4A
  3
A3
350
4B
  3
A4
350
4C
  3
A5
350
4D
  3
A6
350
4E
  3
A7
350
4F
  3
A8
350
50
  3
A9
350
51
  3
B0
350
52
  3
B1
350
53
  3
B2
350
54
  3
B3
350
55
  3
B4
350
56
  3
B5
350
57
  3
B6
350
58
  3
B7
350
59
  3
B8
350
5A
  3
B9
350
5B
  3
C0
350
5C
  3
C1
350
5D
  3
C2
350
5E
  3
C3
350
5F
  3
C4
350
60
  3
C5
350
61
  3
C6
350
62
  3
C7
350
63
  3
C8
350
64
  3
C9
350
65
  3
D0
350
66
  3
D1
350
67
  3
D2
350
68
  0
LAYOUT
  5
1E
102
{ACAD_REACTORS
330
1A
102
}
330
1A
100
AcDbPlotSettings
  1

  2
none_device
  4

  6

 40
0.0
 41
0.0
 42
0.0
 43
0.0
 44
0.0
 45
0.0
 46
0.0
 47
0.0
 48
0.0
 49
0.0
140
0.0
141
0.0
142
1.0
143
1.0
 70
   688
 72
     1
 73
     0
 74
     5
  7

 75
    16
147
1.0
148
0.0
149
0.0
100
AcDbLayout
  1
Layout1
 70
     1
 71
     1
 10
0.0
 20
0.0
 11
420.0
 21
297.0
 12
0.0
 22
0.0
 32
0.0
 14
1.0000000000E+20
 24
1.0000000000E+20
 34
1.0000000000E+20
 15
-1.0000000000E+20
 25
-1.0000000000E+20
 35
-1.0000000000E+20
146
0.0
 13
0.0
 23
0.0
 33
0.0
 16
1.0
 26
0.0
 36
0.0
 17
0.0
 27
1.0
 37
0.0
 76
     0
330
1B
  0
LAYOUT
  5
26
102
{ACAD_REACTORS
330
1A
102
}
330
1A
100
AcDbPlotSettings
  1

  2
none_device
  4

  6

 40
0.0
 41
0.0
 42
0.0
 43
0.0
 44
0.0
 45
0.0
 46
0.0
 47
0.0
 48
0.0
 49
0.0
140
0.0
141
0.0
142
1.0
143
1.0
 70
   688
 72
     1
 73
     0
 74
     5
  7

 75
    16
147
1.0
148
0.0
149
0.0
100
AcDbLayout
  1
Layout2
 70
     1
 71
     2
 10
0.0
 20
0.0
 11
0.0
 21
0.0
 12
0.0
 22
0.0
 32
0.0
 14
0.0
 24
0.0
 34
0.0
 15
0.0
 25
0.0
 35
0.0
146
0.0
 13
0.0
 23
0.0
 33
0.0
 16
1.0
 26
0.0
 36
0.0
 17
0.0
 27
1.0
 37
0.0
 76
     0
330
23
  0
LAYOUT
  5
22
102
{ACAD_REACTORS
330
1A
102
}
330
1A
100
AcDbPlotSettings
  1

  2
none_device
  4
Letter_(8.50_x_11.00_Inches)
  6

 40
6.35
 41
6.35
 42
6.35000508
 43
6.35000508
 44
215.9
 45
279.4
 46
0.0
 47
0.0
 48
0.0
 49
0.0
140
0.0
141
0.0
142
1.0
143
1.0
 70
  1712
 72
     1
 73
     0
 74
     0
  7

 75
     0
147
1.0
148
0.0
149
0.0
100
AcDbLayout
  1
Model
 70
     1
 71
     0
 10
0.0
 20
0.0
 11
431.8
 21
279.4
 12
0.0
 22
0.0
 32
0.0
 14
0.0
 24
0.0
 34
0.0
 15
431.8
 25
279.4
 35
0.0
146
0.0
 13
0.0
 23
0.0
 33
0.0
 16
1.0
 26
0.0
 36
0.0
 17
0.0
 27
1.0
 37
0.0
 76
     0
330
1F
331
29
  0
MLINESTYLE
  5
18
102
{ACAD_REACTORS
330
17
102
}
330
17
100
AcDbMlineStyle
  2
Standard
 70
     0
  3

 62
   256
 51
90.0
 52
90.0
 71
     2
 49
0.5
 62
   256
  6
BYLAYER
 49
-0.5
 62
   256
  6
BYLAYER
  0
ACDBPLACEHOLDER
  5
F
102
{ACAD_REACTORS
330
E
102
}
330
E
  0
SCALE
  5
48
102
{ACAD_REACTORS
330
47
102
}
330
47
100
AcDbScale
 70
     0
300
1:1
140
1.0
141
1.0
290
     1
  0
SCALE
  5
49
102
{ACAD_REACTORS
330
47
102
}
330
47
100
AcDbScale
 70
     0
300
1:2
140
1.0
141
2.0
290
     0
  0
SCALE
  5
4A
102
{ACAD_REACTORS
330
47
102
}
330
47
100
AcDbScale
 70
     0
300
1:4
140
1.0
141
4.0
290
     0
  0
SCALE
  5
4B
102
{ACAD_REACTORS
330
47
102
}
330
47
100
AcDbScale
 70
     0
300
1:5
140
1.0
141
5.0
290
     0
  0
SCALE
  5
4C
102
{ACAD_REACTORS
330
47
102
}
330
47
100
AcDbScale
 70
     0
300
1:8
140
1.0
141
8.0
290
     0
  0
SCALE
  5
4D
102
{ACAD_REACTORS
330
47
102
}
330
47
100
AcDbScale
 70
     0
300
1:10
140
1.0
141
10.0
290
     0
  0
SCALE
  5
4E
102
{ACAD_REACTORS
330
47
102
}
330
47
100
AcDbScale
 70
     0
300
1:16
140
1.0
141
16.0
290
     0
  0
SCALE
  5
4F
102
{ACAD_REACTORS
330
47
102
}
330
47
100
AcDbScale
 70
     0
300
1:20
140
1.0
141
20.0
290
     0
  0
SCALE
  5
50
102
{ACAD_REACTORS
330
47
102
}
330
47
100
AcDbScale
 70
     0
300
1:30
140
1.0
141
30.0
290
     0
  0
SCALE
  5
51
102
{ACAD_REACTORS
330
47
102
}
330
47
100
AcDbScale
 70
     0
300
1:40
140
1.0
141
40.0
290
     0
  0
SCALE
  5
52
102
{ACAD_REACTORS
330
47
102
}
330
47
100
AcDbScale
 70
     0
300
1:50
140
1.0
141
50.0
290
     0
  0
SCALE
  5
53
102
{ACAD_REACTORS
330
47
102
}
330
47
100
AcDbScale
 70
     0
300
1:100
140
1.0
141
100.0
290
     0
  0
SCALE
  5
54
102
{ACAD_REACTORS
330
47
102
}
330
47
100
AcDbScale
 70
     0
300
2:1
140
2.0
141
1.0
290
     0
  0
SCALE
  5
55
102
{ACAD_REACTORS
330
47
102
}
330
47
100
AcDbScale
 70
     0
300
4:1
140
4.0
141
1.0
290
     0
  0
SCALE
  5
56
102
{ACAD_REACTORS
330
47
102
}
330
47
100
AcDbScale
 70
     0
300
8:1
140
8.0
141
1.0
290
     0
  0
SCALE
  5
57
102
{ACAD_REACTORS
330
47
102
}
330
47
100
AcDbScale
 70
     0
300
10:1
140
10.0
141
1.0
290
     0
  0
SCALE
  5
58
102
{ACAD_REACTORS
330
47
102
}
330
47
100
AcDbScale
 70
     0
300
100:1
140
100.0
141
1.0
290
     0
  0
SCALE
  5
59
102
{ACAD_REACTORS
330
47
102
}
330
47
100
AcDbScale
 70
     0
300
1/128" = 1'-0"
140
0.0078125
141
12.0
290
     0
  0
SCALE
  5
5A
102
{ACAD_REACTORS
330
47
102
}
330
47
100
AcDbScale
 70
     0
300
1/64" = 1'-0"
140
0.015625
141
12.0
290
     0
  0
SCALE
  5
5B
102
{ACAD_REACTORS
330
47
102
}
330
47
100
AcDbScale
 70
     0
300
1/32" = 1'-0"
140
0.03125
141
12.0
290
     0
  0
SCALE
  5
5C
102
{ACAD_REACTORS
330
47
102
}
330
47
100
AcDbScale
 70
     0
300
1/16" = 1'-0"
140
0.0625
141
12.0
290
     0
  0
SCALE
  5
5D
102
{ACAD_REACTORS
330
47
102
}
330
47
100
AcDbScale
 70
     0
300
3/32" = 1'-0"
140
0.09375
141
12.0
290
     0
  0
SCALE
  5
5E
102
{ACAD_REACTORS
330
47
102
}
330
47
100
AcDbScale
 70
     0
300
1/8" = 1'-0"
140
0.125
141
12.0
290
     0
  0
SCALE
  5
5F
102
{ACAD_REACTORS
330
47
102
}
330
47
100
AcDbScale
 70
     0
300
3/16" = 1'-0"
140
0.1875
141
12.0
290
     0
  0
SCALE
  5
60
102
{ACAD_REACTORS
330
47
102
}
330
47
100
AcDbScale
 70
     0
300
1/4" = 1'-0"
140
0.25
141
12.0
290
     0
  0
SCALE
  5
61
102
{ACAD_REACTORS
330
47
102
}
330
47
100
AcDbScale
 70
     0
300
3/8" = 1'-0"
140
0.375
141
12.0
290
     0
  0
SCALE
  5
62
102
{ACAD_REACTORS
330
47
102
}
330
47
100
AcDbScale
 70
     0
300
1/2" = 1'-0"
140
0.5
141
12.0
290
     0
  0
SCALE
  5
63
102
{ACAD_REACTORS
330
47
102
}
330
47
100
AcDbScale
 70
     0
300
3/4" = 1'-0"
140
0.75
141
12.0
290
     0
  0
SCALE
  5
64
102
{ACAD_REACTORS
330
47
102
}
330
47
100
AcDbScale
 70
     0
300
1" = 1'-0"
140
1.0
141
12.0
290
     0
  0
SCALE
  5
65
102
{ACAD_REACTORS
330
47
102
}
330
47
100
AcDbScale
 70
     0
300
1-1/2" = 1'-0"
140
1.5
141
12.0
290
     0
  0
SCALE
  5
66
102
{ACAD_REACTORS
330
47
102
}
330
47
100
AcDbScale
 70
     0
300
3" = 1'-0"
140
3.0
141
12.0
290
     0
  0
SCALE
  5
67
102
{ACAD_REACTORS
330
47
102
}
330
47
100
AcDbScale
 70
     0
300
6" = 1'-0"
140
6.0
141
12.0
290
     0
  0
SCALE
  5
68
102
{ACAD_REACTORS
330
47
102
}
330
47
100
AcDbScale
 70
     0
300
1'-0" = 1'-0"
140
12.0
141
12.0
290
     0
  0
ENDSEC
  0
EOF
