  0
SECTION
  2
HEADER
  9
$ACADVER
  1
AC1015
  9
$ACADMAINTVER
 70
     6
  9
$DWGCODEPAGE
  3
ANSI_1252
  9
$INSBASE
 10
0.0
 20
0.0
 30
0.0
  9
$EXTMIN
 10
0.0
 20
0.0
 30
0.0
  9
$EXTMAX
 10
431.8
 20
279.4
 30
0.0
  9
$LIMMIN
 10
0.0
 20
0.0
  9
$LIMMAX
 10
431.8
 20
279.4
  9
$ORTHOMODE
 70
     0
  9
$REGENMODE
 70
     1
  9
$FILLMODE
 70
     1
  9
$QTEXTMODE
 70
     0
  9
$MIRRTEXT
 70
     1
  9
$LTSCALE
 40
1.0
  9
$ATTMODE
 70
     1
  9
$TEXTSIZE
 40
4.9388888889
  9
$TRACEWID
 40
1.0
  9
$TEXTSTYLE
  7
Standard
  9
$CLAYER
  8
0
  9
$CELTYPE
  6
ByLayer
  9
$CECOLOR
 62
   256
  9
$CELTSCALE
 40
1.0
  9
$DISPSILH
 70
     0
  9
$DIMSCALE
 40
1.0
  9
$DIMASZ
 40
5.1366373698
  9
$DIMEXO
 40
2.0
  9
$DIMDLI
 40
3.75
  9
$DIMRND
 40
0.0
  9
$DIMDLE
 40
0.0
  9
$DIMEXE
 40
2.0
  9
$DIMTP
 40
0.0
  9
$DIMTM
 40
0.0
  9
$DIMTXT
 40
7.0555555556
  9
$DIMCEN
 40
2.5
  9
$DIMTSZ
 40
0.0
  9
$DIMTOL
 70
     0
  9
$DIMLIM
 70
     0
  9
$DIMTIH
 70
     1
  9
$DIMTOH
 70
     1
  9
$DIMSE1
 70
     0
  9
$DIMSE2
 70
     0
  9
$DIMTAD
 70
     1
  9
$DIMZIN
 70
     0
  9
$DIMBLK
  1

  9
$DIMASO
 70
     1
  9
$DIMSHO
 70
     1
  9
$DIMPOST
  1

  9
$DIMAPOST
  1

  9
$DIMALT
 70
     0
  9
$DIMALTD
 70
     3
  9
$DIMALTF
 40
0.0393700787
  9
$DIMLFAC
 40
1.0
  9
$DIMTOFL
 70
     1
  9
$DIMTVP
 40
0.0
  9
$DIMTIX
 70
     0
  9
$DIMSOXD
 70
     0
  9
$DIMSAH
 70
     0
  9
$DIMBLK1
  1

  9
$DIMBLK2
  1

  9
$DIMSTYLE
  2
ISO-25
  9
$DIMCLRD
 70
     0
  9
$DIMCLRE
 70
     0
  9
$DIMCLRT
 70
     0
  9
$DIMTFAC
 40
1.0
  9
$DIMGAP
 40
2.0
  9
$DIMJUST
 70
     0
  9
$DIMSD1
 70
     0
  9
$DIMSD2
 70
     0
  9
$DIMTOLJ
 70
     0
  9
$DIMTZIN
 70
     0
  9
$DIMALTZ
 70
     0
  9
$DIMALTTZ
 70
     0
  9
$DIMUPT
 70
     0
  9
$DIMDEC
 70
     2
  9
$DIMTDEC
 70
     2
  9
$DIMALTU
 70
     2
  9
$DIMALTTD
 70
     3
  9
$DIMTXSTY
  7
Standard
  9
$DIMAUNIT
 70
     0
  9
$DIMADEC
 70
     2
  9
$DIMALTRND
 40
0.0
  9
$DIMAZIN
 70
     0
  9
$DIMDSEP
 70
    44
  9
$DIMATFIT
 70
     3
  9
$DIMFRAC
 70
     0
  9
$DIMLDRBLK
  1

  9
$DIMLUNIT
 70
     2
  9
$DIMLWD
 70
    -2
  9
$DIMLWE
 70
    -2
  9
$DIMTMOVE
 70
     0
  9
$LUNITS
 70
     2
  9
$LUPREC
 70
     2
  9
$SKETCHINC
 40
1.0
  9
$FILLETRAD
 40
10.0
  9
$AUNITS
 70
     0
  9
$AUPREC
 70
     2
  9
$MENU
  1
.
  9
$ELEVATION
 40
0.0
  9
$PELEVATION
 40
0.0
  9
$THICKNESS
 40
0.0
  9
$LIMCHECK
 70
     0
  9
$CHAMFERA
 40
0.0
  9
$CHAMFERB
 40
0.0
  9
$CHAMFERC
 40
0.0
  9
$CHAMFERD
 40
0.0
  9
$SKPOLY
 70
     0
  9
$TDCREATE
 40
2457689.682712986
  9
$TDUCREATE
 40
2457689.599379653
  9
$TDUPDATE
 40
2457689.682713565
  9
$TDUUPDATE
 40
2457689.599380231
  9
$TDINDWG
 40
0.0000000116
  9
$TDUSRTIMER
 40
0.0000000116
  9
$USRTIMER
 70
     1
  9
$ANGBASE
 50
0.0
  9
$ANGDIR
 70
     0
  9
$PDMODE
 70
     0
  9
$PDSIZE
 40
-1.0
  9
$PLINEWID
 40
0.0
  9
$SPLFRAME
 70
     0
  9
$SPLINETYPE
 70
     6
  9
$SPLINESEGS
 70
     8
  9
$HANDSEED
  5
3BC
  9
$SURFTAB1
 70
     6
  9
$SURFTAB2
 70
     6
  9
$SURFTYPE
 70
     6
  9
$SURFU
 70
     6
  9
$SURFV
 70
     6
  9
$UCSBASE
  2

  9
$UCSNAME
  2

  9
$UCSORG
 10
0.0
 20
0.0
 30
0.0
  9
$UCSXDIR
 10
1.0
 20
0.0
 30
0.0
  9
$UCSYDIR
 10
0.0
 20
1.0
 30
0.0
  9
$UCSORTHOREF
  2

  9
$UCSORTHOVIEW
 70
     0
  9
$UCSORGTOP
 10
0.0
 20
0.0
 30
0.0
  9
$UCSORGBOTTOM
 10
0.0
 20
0.0
 30
0.0
  9
$UCSORGLEFT
 10
0.0
 20
0.0
 30
0.0
  9
$UCSORGRIGHT
 10
0.0
 20
0.0
 30
0.0
  9
$UCSORGFRONT
 10
0.0
 20
0.0
 30
0.0
  9
$UCSORGBACK
 10
0.0
 20
0.0
 30
0.0
  9
$PUCSBASE
  2

  9
$PUCSNAME
  2

  9
$PUCSORG
 10
0.0
 20
0.0
 30
0.0
  9
$PUCSXDIR
 10
1.0
 20
0.0
 30
0.0
  9
$PUCSYDIR
 10
0.0
 20
1.0
 30
0.0
  9
$PUCSORTHOREF
  2

  9
$PUCSORTHOVIEW
 70
     0
  9
$PUCSORGTOP
 10
0.0
 20
0.0
 30
0.0
  9
$PUCSORGBOTTOM
 10
0.0
 20
0.0
 30
0.0
  9
$PUCSORGLEFT
 10
0.0
 20
0.0
 30
0.0
  9
$PUCSORGRIGHT
 10
0.0
 20
0.0
 30
0.0
  9
$PUCSORGFRONT
 10
0.0
 20
0.0
 30
0.0
  9
$PUCSORGBACK
 10
0.0
 20
0.0
 30
0.0
  9
$USERI1
 70
     0
  9
$USERI2
 70
     0
  9
$USERI3
 70
     0
  9
$USERI4
 70
     0
  9
$USERI5
 70
     0
  9
$USERR1
 40
0.0
  9
$USERR2
 40
0.0
  9
$USERR3
 40
0.0
  9
$USERR4
 40
0.0
  9
$USERR5
 40
0.0
  9
$WORLDVIEW
 70
     1
  9
$SHADEDGE
 70
     3
  9
$SHADEDIF
 70
    70
  9
$TILEMODE
 70
     1
  9
$MAXACTVP
 70
    64
  9
$PINSBASE
 10
0.0
 20
0.0
 30
0.0
  9
$PLIMCHECK
 70
     0
  9
$PEXTMIN
 10
1.0000000000E+20
 20
1.0000000000E+20
 30
1.0000000000E+20
  9
$PEXTMAX
 10
-1.0000000000E+20
 20
-1.0000000000E+20
 30
-1.0000000000E+20
  9
$PLIMMIN
 10
0.0
 20
0.0
  9
$PLIMMAX
 10
420.0
 20
297.0
  9
$UNITMODE
 70
     0
  9
$VISRETAIN
 70
     1
  9
$PLINEGEN
 70
     0
  9
$PSLTSCALE
 70
     1
  9
$TREEDEPTH
 70
  3020
  9
$CMLSTYLE
  2
Standard
  9
$CMLJUST
 70
     0
  9
$CMLSCALE
 40
20.0
  9
$PROXYGRAPHICS
 70
     1
  9
$MEASUREMENT
 70
     1
  9
$CELWEIGHT
370
    -1
  9
$ENDCAPS
280
     0
  9
$JOINSTYLE
280
     0
  9
$LWDISPLAY
290
     1
  9
$INSUNITS
 70
     4
  9
$HYPERLINKBASE
  1

  9
$STYLESHEET
  1

  9
$XEDIT
290
     1
  9
$CEPSNTYPE
380
     0
  9
$PSTYLEMODE
290
     1
  9
$FINGERPRINTGUID
  2
{D6BFFF48-6427-473B-A243-4363B296D425}
  9
$VERSIONGUID
  2
{FAEB1C32-E019-11D5-929B-00C0DF256EC4}
  9
$EXTNAMES
290
     1
  9
$PSVPSCALE
 40
0.0
  9
$OLESTARTUP
290
     0
  0
ENDSEC
  0
SECTION
  2
CLASSES
  0
CLASS
  1
ACDBDICTIONARYWDFLT
  2
AcDbDictionaryWithDefault
  3
ObjectDBX Classes
 90
        0
280
     0
281
     0
  0
CLASS
  1
VISUALSTYLE
  2
AcDbVisualStyle
  3
ObjectDBX Classes
 90
     4095
280
     0
281
     0
  0
CLASS
  1
MATERIAL
  2
AcDbMaterial
  3
ObjectDBX Classes
 90
     1153
280
     0
281
     0
  0
CLASS
  1
SCALE
  2
AcDbScale
  3
ObjectDBX Classes
 90
     1153
280
     0
281
     0
  0
CLASS
  1
TABLESTYLE
  2
AcDbTableStyle
  3
ObjectDBX Classes
 90
     4095
280
     0
281
     0
  0
CLASS
  1
MLEADERSTYLE
  2
AcDbMLeaderStyle
  3
ACDB_MLEADERSTYLE_CLASS
 90
     4095
280
     0
281
     0
  0
CLASS
  1
SUN
  2
AcDbSun
  3
SCENEOE
 90
     1153
280
     0
281
     0
  0
CLASS
  1
ACDBPLACEHOLDER
  2
AcDbPlaceHolder
  3
ObjectDBX Classes
 90
        0
280
     0
281
     0
  0
CLASS
  1
LAYOUT
  2
AcDbLayout
  3
ObjectDBX Classes
 90
        0
280
     0
281
     0
  0
ENDSEC
  0
SECTION
  2
TABLES
  0
TABLE
  2
VPORT
  5
8
330
0
100
AcDbSymbolTable
 70
     1
  0
VPORT
  5
29
330
8
100
AcDbSymbolTableRecord
100
AcDbViewportTableRecord
  2
*Active
 70
     0
 10
0.0
 20
0.0
 11
1.0
 21
1.0
 12
215.9
 22
139.7
 13
0.0
 23
0.0
 14
10.0
 24
10.0
 15
10.0
 25
10.0
 16
0.0
 26
0.0
 36
1.0
 17
0.0
 27
0.0
 37
0.0
 40
279.4
 41
1.5454545455
 42
50.0
 43
0.0
 44
0.0
 50
0.0
 51
0.0
 71
     0
 72
  2000
 73
     1
 74
     3
 75
     0
 76
     0
 77
     0
 78
     0
281
     0
 65
     1
110
0.0
120
0.0
130
0.0
111
1.0
121
0.0
131
0.0
112
0.0
122
1.0
132
0.0
 79
     0
146
0.0
  0
ENDTAB
  0
TABLE
  2
LTYPE
  5
5
330
0
100
AcDbSymbolTable
 70
     6
  0
LTYPE
  5
14
330
5
100
AcDbSymbolTableRecord
100
AcDbLinetypeTableRecord
  2
ByBlock
 70
     0
  3

 72
    65
 73
     0
 40
0.0
  0
LTYPE
  5
15
330
5
100
AcDbSymbolTableRecord
100
AcDbLinetypeTableRecord
  2
ByLayer
 70
     0
  3

 72
    65
 73
     0
 40
0.0
  0
LTYPE
  5
16
330
5
100
AcDbSymbolTableRecord
100
AcDbLinetypeTableRecord
  2
Continuous
 70
     0
  3
Solid line
 72
    65
 73
     0
 40
0.0
  0
LTYPE
  5
6E
330
5
100
AcDbSymbolTableRecord
100
AcDbLinetypeTableRecord
  2
HIDDEN
 70
     0
  3
Hidden __ __ __ __ __ __ __ __ __ __ __ __ __ __
 72
    65
 73
     2
 40
1.905
 49
1.27
 74
     0
 49
-0.635
 74
     0
  0
LTYPE
  5
6F
330
5
100
AcDbSymbolTableRecord
100
AcDbLinetypeTableRecord
  2
PHANTOM
 70
     0
  3
Phantom ______  __  __  ______  __  __  ______
 72
    65
 73
     6
 40
12.7
 49
6.35
 74
     0
 49
-1.27
 74
     0
 49
1.27
 74
     0
 49
-1.27
 74
     0
 49
1.27
 74
     0
 49
-1.27
 74
     0
  0
LTYPE
  5
70
330
5
100
AcDbSymbolTableRecord
100
AcDbLinetypeTableRecord
  2
CENTER
 70
     0
  3
Center ____ _ ____ _ ____ _ ____ _ ____ _ ____
 72
    65
 73
     4
 40
10.16
 49
6.35
 74
     0
 49
-1.27
 74
     0
 49
1.27
 74
     0
 49
-1.27
 74
     0
  0
LTYPE
  5
71
330
5
100
AcDbSymbolTableRecord
100
AcDbLinetypeTableRecord
  2
CENTERX2
 70
     0
  3
Center (2x) ________  __  ________  __  _____
 72
    65
 73
     4
 40
20.32
 49
12.7
 74
     0
 49
-2.54
 74
     0
 49
2.54
 74
     0
 49
-2.54
 74
     0
  0
LTYPE
  5
72
330
5
100
AcDbSymbolTableRecord
100
AcDbLinetypeTableRecord
  2
DOT2
 70
     0
  3
Dot (.5x) ........................................
 72
    65
 73
     2
 40
0.635
 49
0.0
 74
     0
 49
-0.635
 74
     0
  0
ENDTAB
  0
TABLE
  2
LAYER
  5
2
330
0
100
AcDbSymbolTable
 70
     3
  0
LAYER
  5
10
330
2
100
AcDbSymbolTableRecord
100
AcDbLayerTableRecord
  2
0
 70
     0
 62
     7
  6
Continuous
370
    -3
390
F
  0
LAYER
  5
73
330
2
100
AcDbSymbolTableRecord
100
AcDbLayerTableRecord
  2
SLD-0
 70
     0
 62
   179
  6
Continuous
370
    -3
390
F
  0
LAYER
  5
74
330
2
100
AcDbSymbolTableRecord
100
AcDbLayerTableRecord
  2
EBENE_1
 70
     0
 62
   179
  6
Continuous
370
    -3
390
F
  0
ENDTAB
  0
TABLE
  2
STYLE
  5
3
330
0
100
AcDbSymbolTable
 70
     3
  0
STYLE
  5
11
330
3
100
AcDbSymbolTableRecord
100
AcDbTextStyleTableRecord
  2
Standard
 70
     0
 40
0.0
 41
1.0
 50
0.0
 71
     0
 42
4.9388888889
  3
txt
  4

  0
STYLE
  5
96
330
3
100
AcDbSymbolTableRecord
100
AcDbTextStyleTableRecord
  2
SLDTEXTSTYLE0
 70
     0
 40
0.0
 41
0.605
 50
0.0
 71
     0
 42
4.9388888889
  3
TXT
  4

  0
STYLE
  5
16E
330
3
100
AcDbSymbolTableRecord
100
AcDbTextStyleTableRecord
  2
SLDTEXTSTYLE1
 70
     0
 40
0.0
 41
0.75
 50
0.0
 71
     0
 42
4.9388888889
  3
TXT
  4

  0
ENDTAB
  0
TABLE
  2
VIEW
  5
6
330
0
100
AcDbSymbolTable
 70
     0
  0
ENDTAB
  0
TABLE
  2
UCS
  5
7
330
0
100
AcDbSymbolTable
 70
     0
  0
ENDTAB
  0
TABLE
  2
APPID
  5
9
330
0
100
AcDbSymbolTable
 70
     1
  0
APPID
  5
12
330
9
100
AcDbSymbolTableRecord
100
AcDbRegAppTableRecord
  2
ACAD
 70
     0
  0
ENDTAB
  0
TABLE
  2
DIMSTYLE
  5
A
330
0
100
AcDbSymbolTable
 70
     1
100
AcDbDimStyleTable
  0
DIMSTYLE
105
27
330
A
100
AcDbSymbolTableRecord
100
AcDbDimStyleTableRecord
  2
ISO-25
 70
     0
 41
2.5
 42
0.625
 43
3.75
 44
1.25
 73
     0
 74
     0
 77
     1
 78
     8
140
2.5
141
2.5
143
0.0393700787
147
0.625
171
     3
172
     1
178
     0
271
     2
272
     2
274
     3
278
    44
283
     0
284
     8
340
11
  0
ENDTAB
  0
TABLE
  2
BLOCK_RECORD
  5
1
330
0
100
AcDbSymbolTable
 70
    25
  0
BLOCK_RECORD
  5
1F
330
1
100
AcDbSymbolTableRecord
100
AcDbBlockTableRecord
  2
*Model_Space
340
22
  0
BLOCK_RECORD
  5
1B
330
1
100
AcDbSymbolTableRecord
100
AcDbBlockTableRecord
  2
*Paper_Space
340
1E
  0
BLOCK_RECORD
  5
23
330
1
100
AcDbSymbolTableRecord
100
AcDbBlockTableRecord
  2
*Paper_Space0
340
26
  0
BLOCK_RECORD
  5
75
330
1
100
AcDbSymbolTableRecord
100
AcDbBlockTableRecord
  2
Block1
340
0
102
{BLKREFS
331
16D
102
}
  0
BLOCK_RECORD
  5
8C
330
1
100
AcDbSymbolTableRecord
100
AcDbBlockTableRecord
  2
SW_BLOCK_DIMENSION_0
340
0
102
{BLKREFS
331
98
102
}
  0
BLOCK_RECORD
  5
8F
330
1
100
AcDbSymbolTableRecord
100
AcDbBlockTableRecord
  2
_ORIGIN
340
0
102
{BLKREFS
331
94
331
104
102
}
  0
BLOCK_RECORD
  5
99
330
1
100
AcDbSymbolTableRecord
100
AcDbBlockTableRecord
  2
SW_BLOCK_DIMENSION_1
340
0
102
{BLKREFS
331
A0
102
}
  0
BLOCK_RECORD
  5
A1
330
1
100
AcDbSymbolTableRecord
100
AcDbBlockTableRecord
  2
SW_BLOCK_DIMENSION_2
340
0
102
{BLKREFS
331
A8
102
}
  0
BLOCK_RECORD
  5
A9
330
1
100
AcDbSymbolTableRecord
100
AcDbBlockTableRecord
  2
SW_BLOCK_DIMENSION_3
340
0
102
{BLKREFS
331
B0
102
}
  0
BLOCK_RECORD
  5
B1
330
1
100
AcDbSymbolTableRecord
100
AcDbBlockTableRecord
  2
SW_BLOCK_DIMENSION_4
340
0
102
{BLKREFS
331
B8
102
}
  0
BLOCK_RECORD
  5
B9
330
1
100
AcDbSymbolTableRecord
100
AcDbBlockTableRecord
  2
SW_BLOCK_DIMENSION_5
340
0
102
{BLKREFS
331
C0
102
}
  0
BLOCK_RECORD
  5
C1
330
1
100
AcDbSymbolTableRecord
100
AcDbBlockTableRecord
  2
SW_BLOCK_DIMENSION_6
340
0
102
{BLKREFS
331
C8
102
}
  0
BLOCK_RECORD
  5
C9
330
1
100
AcDbSymbolTableRecord
100
AcDbBlockTableRecord
  2
SW_BLOCK_DIMENSION_7
340
0
102
{BLKREFS
331
D0
102
}
  0
BLOCK_RECORD
  5
D1
330
1
100
AcDbSymbolTableRecord
100
AcDbBlockTableRecord
  2
SW_BLOCK_DIMENSION_8
340
0
102
{BLKREFS
331
D8
102
}
  0
BLOCK_RECORD
  5
D9
330
1
100
AcDbSymbolTableRecord
100
AcDbBlockTableRecord
  2
SW_BLOCK_DIMENSION_9
340
0
102
{BLKREFS
331
E0
102
}
  0
BLOCK_RECORD
  5
E1
330
1
100
AcDbSymbolTableRecord
100
AcDbBlockTableRecord
  2
SW_BLOCK_DIMENSION_10
340
0
102
{BLKREFS
331
E8
102
}
  0
BLOCK_RECORD
  5
E9
330
1
100
AcDbSymbolTableRecord
100
AcDbBlockTableRecord
  2
SW_BLOCK_DIMENSION_11
340
0
102
{BLKREFS
331
F0
102
}
  0
BLOCK_RECORD
  5
F1
330
1
100
AcDbSymbolTableRecord
100
AcDbBlockTableRecord
  2
SW_BLOCK_DIMENSION_12
340
0
102
{BLKREFS
331
F8
102
}
  0
BLOCK_RECORD
  5
F9
330
1
100
AcDbSymbolTableRecord
100
AcDbBlockTableRecord
  2
SW_BLOCK_DIMENSION_13
340
0
102
{BLKREFS
331
100
102
}
  0
BLOCK_RECORD
  5
101
330
1
100
AcDbSymbolTableRecord
100
AcDbBlockTableRecord
  2
SW_BLOCK_DIMENSION_14
340
0
102
{BLKREFS
331
110
102
}
  0
BLOCK_RECORD
  5
111
330
1
100
AcDbSymbolTableRecord
100
AcDbBlockTableRecord
  2
SW_BLOCK_DIMENSION_15
340
0
102
{BLKREFS
331
121
102
}
  0
BLOCK_RECORD
  5
122
330
1
100
AcDbSymbolTableRecord
100
AcDbBlockTableRecord
  2
SW_BLOCK_DIMENSION_16
340
0
102
{BLKREFS
331
132
102
}
  0
BLOCK_RECORD
  5
133
330
1
100
AcDbSymbolTableRecord
100
AcDbBlockTableRecord
  2
SW_BLOCK_DIMENSION_17
340
0
102
{BLKREFS
331
143
102
}
  0
BLOCK_RECORD
  5
144
330
1
100
AcDbSymbolTableRecord
100
AcDbBlockTableRecord
  2
SW_BLOCK_DIMENSION_18
340
0
102
{BLKREFS
331
154
102
}
  0
BLOCK_RECORD
  5
155
330
1
100
AcDbSymbolTableRecord
100
AcDbBlockTableRecord
  2
SW_BLOCK_DIMENSION_19
340
0
102
{BLKREFS
331
165
102
}
  0
BLOCK_RECORD
  5
166
330
1
100
AcDbSymbolTableRecord
100
AcDbBlockTableRecord
  2
SW_NOTE_0
340
0
102
{BLKREFS
331
16B
102
}
  0
BLOCK_RECORD
  5
171
330
1
100
AcDbSymbolTableRecord
100
AcDbBlockTableRecord
  2
SW_NOTE_1
340
0
102
{BLKREFS
331
178
102
}
  0
ENDTAB
  0
ENDSEC
  0
SECTION
  2
BLOCKS
  0
BLOCK
  5
20
330
1F
100
AcDbEntity
  8
0
100
AcDbBlockBegin
  2
*Model_Space
 70
     0
 10
0.0
 20
0.0
 30
0.0
  3
*Model_Space
  1

  0
ENDBLK
  5
21
330
1F
100
AcDbEntity
  8
0
100
AcDbBlockEnd
  0
BLOCK
  5
1C
330
1B
100
AcDbEntity
 67
     1
  8
0
100
AcDbBlockBegin
  2
*Paper_Space
 70
     0
 10
0.0
 20
0.0
 30
0.0
  3
*Paper_Space
  1

  0
ENDBLK
  5
1D
330
1B
100
AcDbEntity
 67
     1
  8
0
100
AcDbBlockEnd
  0
BLOCK
  5
24
330
23
100
AcDbEntity
  8
0
100
AcDbBlockBegin
  2
*Paper_Space0
 70
     0
 10
0.0
 20
0.0
 30
0.0
  3
*Paper_Space0
  1

  0
ENDBLK
  5
25
330
23
100
AcDbEntity
  8
0
100
AcDbBlockEnd
  0
BLOCK
  5
76
330
75
100
AcDbEntity
  8
0
100
AcDbBlockBegin
  2
Block1
 70
     0
 10
0.0
 20
0.0
 30
0.0
  3
Block1
  1

  0
LINE
  5
78
330
75
100
AcDbEntity
  8
EBENE_1
100
AcDbLine
 10
363.6834285714
 20
41.3579706949
 30
0.0
 11
388.6834285714
 21
41.3579706949
 31
0.0
  0
LINE
  5
79
330
75
100
AcDbEntity
  8
EBENE_1
100
AcDbLine
 10
374.9034285714
 20
41.3579706949
 30
0.0
 11
374.9034285714
 21
171.3579706949
 31
0.0
  0
LINE
  5
7A
330
75
100
AcDbEntity
  8
EBENE_1
100
AcDbLine
 10
374.9034285714
 20
51.3579706949
 30
0.0
 11
384.9034285714
 21
51.3579706949
 31
0.0
  0
LINE
  5
7B
330
75
100
AcDbEntity
  8
EBENE_1
100
AcDbLine
 10
374.9034285714
 20
61.3579706949
 30
0.0
 11
384.9034285714
 21
61.3579706949
 31
0.0
  0
LINE
  5
7C
330
75
100
AcDbEntity
  8
EBENE_1
100
AcDbLine
 10
374.9034285714
 20
71.3579706949
 30
0.0
 11
384.9034285714
 21
71.3579706949
 31
0.0
  0
LINE
  5
7D
330
75
100
AcDbEntity
  8
EBENE_1
100
AcDbLine
 10
374.9034285714
 20
81.3579706949
 30
0.0
 11
384.9034285714
 21
81.3579706949
 31
0.0
  0
LINE
  5
7E
330
75
100
AcDbEntity
  8
EBENE_1
100
AcDbLine
 10
374.9034285714
 20
91.3579706949
 30
0.0
 11
384.9034285714
 21
91.3579706949
 31
0.0
  0
LINE
  5
7F
330
75
100
AcDbEntity
  8
EBENE_1
100
AcDbLine
 10
374.9034285714
 20
101.3579706949
 30
0.0
 11
384.9034285714
 21
101.3579706949
 31
0.0
  0
LINE
  5
80
330
75
100
AcDbEntity
  8
EBENE_1
100
AcDbLine
 10
374.9034285714
 20
111.3579706949
 30
0.0
 11
384.9034285714
 21
111.3579706949
 31
0.0
  0
LINE
  5
81
330
75
100
AcDbEntity
  8
EBENE_1
100
AcDbLine
 10
374.9034285714
 20
121.3579706949
 30
0.0
 11
384.9034285714
 21
121.3579706949
 31
0.0
  0
LINE
  5
82
330
75
100
AcDbEntity
  8
EBENE_1
100
AcDbLine
 10
374.9034285714
 20
131.3579706949
 30
0.0
 11
384.9034285714
 21
131.3579706949
 31
0.0
  0
LINE
  5
83
330
75
100
AcDbEntity
  8
EBENE_1
100
AcDbLine
 10
374.9034285714
 20
141.3579706949
 30
0.0
 11
384.9034285714
 21
141.3579706949
 31
0.0
  0
LINE
  5
84
330
75
100
AcDbEntity
  8
EBENE_1
100
AcDbLine
 10
374.9034285714
 20
151.3579706949
 30
0.0
 11
384.9034285714
 21
151.3579706949
 31
0.0
  0
LINE
  5
85
330
75
100
AcDbEntity
  8
EBENE_1
100
AcDbLine
 10
374.9034285714
 20
161.3579706949
 30
0.0
 11
384.9034285714
 21
161.3579706949
 31
0.0
  0
LINE
  5
86
330
75
100
AcDbEntity
  8
EBENE_1
100
AcDbLine
 10
374.9034285714
 20
171.3579706949
 30
0.0
 11
384.9034285714
 21
171.3579706949
 31
0.0
  0
LINE
  5
87
330
75
100
AcDbEntity
  8
EBENE_1
100
AcDbLine
 10
374.9034285714
 20
66.7579706949
 30
0.0
 11
362.9034285714
 21
66.7579706949
 31
0.0
  0
LINE
  5
88
330
75
100
AcDbEntity
  8
EBENE_1
100
AcDbLine
 10
374.9034285714
 20
92.1579706949
 30
0.0
 11
362.9034285714
 21
92.1579706949
 31
0.0
  0
LINE
  5
89
330
75
100
AcDbEntity
  8
EBENE_1
100
AcDbLine
 10
374.9034285714
 20
117.5579706949
 30
0.0
 11
362.9034285714
 21
117.5579706949
 31
0.0
  0
LINE
  5
8A
330
75
100
AcDbEntity
  8
EBENE_1
100
AcDbLine
 10
374.9034285714
 20
142.9579706949
 30
0.0
 11
362.9034285714
 21
142.9579706949
 31
0.0
  0
LINE
  5
8B
330
75
100
AcDbEntity
  8
EBENE_1
100
AcDbLine
 10
374.9034285714
 20
168.3579706949
 30
0.0
 11
362.9034285714
 21
168.3579706949
 31
0.0
  0
INSERT
  5
98
330
75
100
AcDbEntity
  8
EBENE_1
100
AcDbBlockReference
  2
SW_BLOCK_DIMENSION_0
 10
397.2096946378
 20
38.9914197296
 30
0.0
  0
INSERT
  5
A0
330
75
100
AcDbEntity
  8
EBENE_1
100
AcDbBlockReference
  2
SW_BLOCK_DIMENSION_1
 10
397.2096946378
 20
48.9914197296
 30
0.0
  0
INSERT
  5
A8
330
75
100
AcDbEntity
  8
EBENE_1
100
AcDbBlockReference
  2
SW_BLOCK_DIMENSION_2
 10
397.2096946378
 20
58.9914197296
 30
0.0
  0
INSERT
  5
B0
330
75
100
AcDbEntity
  8
EBENE_1
100
AcDbBlockReference
  2
SW_BLOCK_DIMENSION_3
 10
397.2096946378
 20
68.9914197296
 30
0.0
  0
INSERT
  5
B8
330
75
100
AcDbEntity
  8
EBENE_1
100
AcDbBlockReference
  2
SW_BLOCK_DIMENSION_4
 10
397.2096946378
 20
78.9914197296
 30
0.0
  0
INSERT
  5
C0
330
75
100
AcDbEntity
  8
EBENE_1
100
AcDbBlockReference
  2
SW_BLOCK_DIMENSION_5
 10
397.2096946378
 20
88.9914197296
 30
0.0
  0
INSERT
  5
C8
330
75
100
AcDbEntity
  8
EBENE_1
100
AcDbBlockReference
  2
SW_BLOCK_DIMENSION_6
 10
397.2096946378
 20
98.9914197296
 30
0.0
  0
INSERT
  5
D0
330
75
100
AcDbEntity
  8
EBENE_1
100
AcDbBlockReference
  2
SW_BLOCK_DIMENSION_7
 10
397.2096946378
 20
108.9914197296
 30
0.0
  0
INSERT
  5
D8
330
75
100
AcDbEntity
  8
EBENE_1
100
AcDbBlockReference
  2
SW_BLOCK_DIMENSION_8
 10
397.2096946378
 20
118.9914197296
 30
0.0
  0
INSERT
  5
E0
330
75
100
AcDbEntity
  8
EBENE_1
100
AcDbBlockReference
  2
SW_BLOCK_DIMENSION_9
 10
397.2096946378
 20
128.9914197296
 30
0.0
  0
INSERT
  5
E8
330
75
100
AcDbEntity
  8
EBENE_1
100
AcDbBlockReference
  2
SW_BLOCK_DIMENSION_10
 10
397.2096946378
 20
138.9914197296
 30
0.0
  0
INSERT
  5
F0
330
75
100
AcDbEntity
  8
EBENE_1
100
AcDbBlockReference
  2
SW_BLOCK_DIMENSION_11
 10
397.2096946378
 20
148.9914197296
 30
0.0
  0
INSERT
  5
F8
330
75
100
AcDbEntity
  8
EBENE_1
100
AcDbBlockReference
  2
SW_BLOCK_DIMENSION_12
 10
397.2096946378
 20
158.9914197296
 30
0.0
  0
INSERT
  5
100
330
75
100
AcDbEntity
  8
EBENE_1
100
AcDbBlockReference
  2
SW_BLOCK_DIMENSION_13
 10
397.2096946378
 20
168.9914197296
 30
0.0
  0
INSERT
  5
110
330
75
100
AcDbEntity
  8
EBENE_1
100
AcDbBlockReference
  2
SW_BLOCK_DIMENSION_14
 10
337.2987953614
 20
36.1691980072
 30
0.0
  0
INSERT
  5
121
330
75
100
AcDbEntity
  8
EBENE_1
100
AcDbBlockReference
  2
SW_BLOCK_DIMENSION_15
 10
337.2987953614
 20
61.5691980072
 30
0.0
  0
INSERT
  5
132
330
75
100
AcDbEntity
  8
EBENE_1
100
AcDbBlockReference
  2
SW_BLOCK_DIMENSION_16
 10
337.2987953614
 20
86.9691980072
 30
0.0
  0
INSERT
  5
143
330
75
100
AcDbEntity
  8
EBENE_1
100
AcDbBlockReference
  2
SW_BLOCK_DIMENSION_17
 10
337.2987953614
 20
112.3691980072
 30
0.0
  0
INSERT
  5
154
330
75
100
AcDbEntity
  8
EBENE_1
100
AcDbBlockReference
  2
SW_BLOCK_DIMENSION_18
 10
336.8284243759
 20
137.7691980072
 30
0.0
  0
INSERT
  5
165
330
75
100
AcDbEntity
  8
EBENE_1
100
AcDbBlockReference
  2
SW_BLOCK_DIMENSION_19
 10
337.2987953614
 20
163.1691980072
 30
0.0
  0
INSERT
  5
16B
330
75
100
AcDbEntity
  8
EBENE_1
 62
   179
100
AcDbBlockReference
  2
SW_NOTE_0
 10
337.5586028241
 20
28.8175207347
 30
0.0
  0
MTEXT
  5
16C
330
75
100
AcDbEntity
  8
EBENE_1
100
AcDbMText
 10
393.160738319
 20
33.5924424874
 30
0.0
 40
3.7041666667
 41
0.0
 71
     1
 72
     1
  1
mm
  7
SLDTEXTSTYLE0
 73
     1
 44
1.0
  0
ENDBLK
  5
77
330
75
100
AcDbEntity
  8
0
100
AcDbBlockEnd
  0
BLOCK
  5
8D
330
8C
100
AcDbEntity
  8
0
100
AcDbBlockBegin
  2
SW_BLOCK_DIMENSION_0
 70
     0
 10
0.0
 20
0.0
 30
0.0
  3
SW_BLOCK_DIMENSION_0
  1

  0
INSERT
  5
94
330
8C
100
AcDbEntity
  8
EBENE_1
 62
     0
100
AcDbBlockReference
  2
_ORIGIN
 10
-1.5805038061
 20
2.3665509652
 30
0.0
 41
0.9483022837
 42
0.9483022837
 50
0.0
  0
LINE
  5
95
330
8C
100
AcDbEntity
  8
EBENE_1
 62
     0
100
AcDbLine
 10
-6.5262660664
 20
2.3665509652
 30
0.0
 11
0.0
 21
2.3665509652
 31
0.0
  0
MTEXT
  5
97
330
8C
100
AcDbEntity
  8
EBENE_1
 62
     0
100
AcDbMText
 10
0.0
 20
4.0927900738
 30
0.0
 40
3.175
 41
0.0
 71
     1
 72
     1
  1
0
  7
SLDTEXTSTYLE0
 73
     1
 44
1.0
  0
ENDBLK
  5
8E
330
8C
100
AcDbEntity
  8
0
100
AcDbBlockEnd
  0
BLOCK
  5
90
330
8F
100
AcDbEntity
  8
0
100
AcDbBlockBegin
  2
_ORIGIN
 70
     0
 10
0.0
 20
0.0
 30
0.0
  3
_ORIGIN
  1

  0
CIRCLE
  5
92
330
8F
100
AcDbEntity
  8
0
  6
ByBlock
 62
     0
370
    -2
100
AcDbCircle
 10
0.0
 20
0.0
 30
0.0
 40
0.5
  0
LINE
  5
93
330
8F
100
AcDbEntity
  8
0
  6
ByBlock
 62
     0
370
    -2
100
AcDbLine
 10
0.0
 20
0.0
 30
0.0
 11
-1.0
 21
0.0
 31
0.0
  0
ENDBLK
  5
91
330
8F
100
AcDbEntity
  8
0
100
AcDbBlockEnd
  0
BLOCK
  5
9A
330
99
100
AcDbEntity
  8
0
100
AcDbBlockBegin
  2
SW_BLOCK_DIMENSION_1
 70
     0
 10
0.0
 20
0.0
 30
0.0
  3
SW_BLOCK_DIMENSION_1
  1

  0
SOLID
  5
9C
330
99
100
AcDbEntity
  8
EBENE_1
 62
     0
100
AcDbTrace
 10
-1.5805038061
 20
2.3665509652
 30
0.0
 11
-2.0546549479
 21
-0.7154314566
 31
0.0
 12
-1.1063526643
 22
-0.7154314566
 32
0.0
 13
-1.1063526643
 23
-0.7154314566
 33
0.0
  0
LINE
  5
9D
330
99
100
AcDbEntity
  8
EBENE_1
 62
     0
100
AcDbLine
 10
-10.3062660664
 20
2.3665509652
 30
0.0
 11
0.0
 21
2.3665509652
 31
0.0
  0
LINE
  5
9E
330
99
100
AcDbEntity
  8
EBENE_1
 62
     0
100
AcDbLine
 10
-1.5805038061
 20
-7.6334490348
 30
0.0
 11
-1.5805038061
 21
2.3665509652
 31
0.0
  0
MTEXT
  5
9F
330
99
100
AcDbEntity
  8
EBENE_1
 62
     0
100
AcDbMText
 10
0.0
 20
4.0927900738
 30
0.0
 40
3.175
 41
0.0
 71
     1
 72
     1
  1
10
  7
SLDTEXTSTYLE0
 73
     1
 44
1.0
  0
ENDBLK
  5
9B
330
99
100
AcDbEntity
  8
0
100
AcDbBlockEnd
  0
BLOCK
  5
A2
330
A1
100
AcDbEntity
  8
0
100
AcDbBlockBegin
  2
SW_BLOCK_DIMENSION_2
 70
     0
 10
0.0
 20
0.0
 30
0.0
  3
SW_BLOCK_DIMENSION_2
  1

  0
SOLID
  5
A4
330
A1
100
AcDbEntity
  8
EBENE_1
 62
     0
100
AcDbTrace
 10
-1.5805038061
 20
2.3665509652
 30
0.0
 11
-2.0546549479
 21
-0.7154314566
 31
0.0
 12
-1.1063526643
 22
-0.7154314566
 32
0.0
 13
-1.1063526643
 23
-0.7154314566
 33
0.0
  0
LINE
  5
A5
330
A1
100
AcDbEntity
  8
EBENE_1
 62
     0
100
AcDbLine
 10
-10.3062660664
 20
2.3665509652
 30
0.0
 11
0.0
 21
2.3665509652
 31
0.0
  0
LINE
  5
A6
330
A1
100
AcDbEntity
  8
EBENE_1
 62
     0
100
AcDbLine
 10
-1.5805038061
 20
-7.6334490348
 30
0.0
 11
-1.5805038061
 21
2.3665509652
 31
0.0
  0
MTEXT
  5
A7
330
A1
100
AcDbEntity
  8
EBENE_1
 62
     0
100
AcDbMText
 10
0.0
 20
4.0927900738
 30
0.0
 40
3.175
 41
0.0
 71
     1
 72
     1
  1
20
  7
SLDTEXTSTYLE0
 73
     1
 44
1.0
  0
ENDBLK
  5
A3
330
A1
100
AcDbEntity
  8
0
100
AcDbBlockEnd
  0
BLOCK
  5
AA
330
A9
100
AcDbEntity
  8
0
100
AcDbBlockBegin
  2
SW_BLOCK_DIMENSION_3
 70
     0
 10
0.0
 20
0.0
 30
0.0
  3
SW_BLOCK_DIMENSION_3
  1

  0
SOLID
  5
AC
330
A9
100
AcDbEntity
  8
EBENE_1
 62
     0
100
AcDbTrace
 10
-1.5805038061
 20
2.3665509652
 30
0.0
 11
-2.0546549479
 21
-0.7154314566
 31
0.0
 12
-1.1063526643
 22
-0.7154314566
 32
0.0
 13
-1.1063526643
 23
-0.7154314566
 33
0.0
  0
LINE
  5
AD
330
A9
100
AcDbEntity
  8
EBENE_1
 62
     0
100
AcDbLine
 10
-10.3062660664
 20
2.3665509652
 30
0.0
 11
0.0
 21
2.3665509652
 31
0.0
  0
LINE
  5
AE
330
A9
100
AcDbEntity
  8
EBENE_1
 62
     0
100
AcDbLine
 10
-1.5805038061
 20
-7.6334490348
 30
0.0
 11
-1.5805038061
 21
2.3665509652
 31
0.0
  0
MTEXT
  5
AF
330
A9
100
AcDbEntity
  8
EBENE_1
 62
     0
100
AcDbMText
 10
0.0
 20
4.0927900738
 30
0.0
 40
3.175
 41
0.0
 71
     1
 72
     1
  1
30
  7
SLDTEXTSTYLE0
 73
     1
 44
1.0
  0
ENDBLK
  5
AB
330
A9
100
AcDbEntity
  8
0
100
AcDbBlockEnd
  0
BLOCK
  5
B2
330
B1
100
AcDbEntity
  8
0
100
AcDbBlockBegin
  2
SW_BLOCK_DIMENSION_4
 70
     0
 10
0.0
 20
0.0
 30
0.0
  3
SW_BLOCK_DIMENSION_4
  1

  0
SOLID
  5
B4
330
B1
100
AcDbEntity
  8
EBENE_1
 62
     0
100
AcDbTrace
 10
-1.5805038061
 20
2.3665509652
 30
0.0
 11
-2.0546549479
 21
-0.7154314566
 31
0.0
 12
-1.1063526643
 22
-0.7154314566
 32
0.0
 13
-1.1063526643
 23
-0.7154314566
 33
0.0
  0
LINE
  5
B5
330
B1
100
AcDbEntity
  8
EBENE_1
 62
     0
100
AcDbLine
 10
-10.3062660664
 20
2.3665509652
 30
0.0
 11
0.0
 21
2.3665509652
 31
0.0
  0
LINE
  5
B6
330
B1
100
AcDbEntity
  8
EBENE_1
 62
     0
100
AcDbLine
 10
-1.5805038061
 20
-7.6334490348
 30
0.0
 11
-1.5805038061
 21
2.3665509652
 31
0.0
  0
MTEXT
  5
B7
330
B1
100
AcDbEntity
  8
EBENE_1
 62
     0
100
AcDbMText
 10
0.0
 20
4.0927900738
 30
0.0
 40
3.175
 41
0.0
 71
     1
 72
     1
  1
40
  7
SLDTEXTSTYLE0
 73
     1
 44
1.0
  0
ENDBLK
  5
B3
330
B1
100
AcDbEntity
  8
0
100
AcDbBlockEnd
  0
BLOCK
  5
BA
330
B9
100
AcDbEntity
  8
0
100
AcDbBlockBegin
  2
SW_BLOCK_DIMENSION_5
 70
     0
 10
0.0
 20
0.0
 30
0.0
  3
SW_BLOCK_DIMENSION_5
  1

  0
SOLID
  5
BC
330
B9
100
AcDbEntity
  8
EBENE_1
 62
     0
100
AcDbTrace
 10
-1.5805038061
 20
2.3665509652
 30
0.0
 11
-2.0546549479
 21
-0.7154314566
 31
0.0
 12
-1.1063526643
 22
-0.7154314566
 32
0.0
 13
-1.1063526643
 23
-0.7154314566
 33
0.0
  0
LINE
  5
BD
330
B9
100
AcDbEntity
  8
EBENE_1
 62
     0
100
AcDbLine
 10
-10.3062660664
 20
2.3665509652
 30
0.0
 11
0.0
 21
2.3665509652
 31
0.0
  0
LINE
  5
BE
330
B9
100
AcDbEntity
  8
EBENE_1
 62
     0
100
AcDbLine
 10
-1.5805038061
 20
-7.6334490348
 30
0.0
 11
-1.5805038061
 21
2.3665509652
 31
0.0
  0
MTEXT
  5
BF
330
B9
100
AcDbEntity
  8
EBENE_1
 62
     0
100
AcDbMText
 10
0.0
 20
4.0927900738
 30
0.0
 40
3.175
 41
0.0
 71
     1
 72
     1
  1
50
  7
SLDTEXTSTYLE0
 73
     1
 44
1.0
  0
ENDBLK
  5
BB
330
B9
100
AcDbEntity
  8
0
100
AcDbBlockEnd
  0
BLOCK
  5
C2
330
C1
100
AcDbEntity
  8
0
100
AcDbBlockBegin
  2
SW_BLOCK_DIMENSION_6
 70
     0
 10
0.0
 20
0.0
 30
0.0
  3
SW_BLOCK_DIMENSION_6
  1

  0
SOLID
  5
C4
330
C1
100
AcDbEntity
  8
EBENE_1
 62
     0
100
AcDbTrace
 10
-1.5805038061
 20
2.3665509652
 30
0.0
 11
-2.0546549479
 21
-0.7154314566
 31
0.0
 12
-1.1063526643
 22
-0.7154314566
 32
0.0
 13
-1.1063526643
 23
-0.7154314566
 33
0.0
  0
LINE
  5
C5
330
C1
100
AcDbEntity
  8
EBENE_1
 62
     0
100
AcDbLine
 10
-10.3062660664
 20
2.3665509652
 30
0.0
 11
0.0
 21
2.3665509652
 31
0.0
  0
LINE
  5
C6
330
C1
100
AcDbEntity
  8
EBENE_1
 62
     0
100
AcDbLine
 10
-1.5805038061
 20
-7.6334490348
 30
0.0
 11
-1.5805038061
 21
2.3665509652
 31
0.0
  0
MTEXT
  5
C7
330
C1
100
AcDbEntity
  8
EBENE_1
 62
     0
100
AcDbMText
 10
0.0
 20
4.0927900738
 30
0.0
 40
3.175
 41
0.0
 71
     1
 72
     1
  1
60
  7
SLDTEXTSTYLE0
 73
     1
 44
1.0
  0
ENDBLK
  5
C3
330
C1
100
AcDbEntity
  8
0
100
AcDbBlockEnd
  0
BLOCK
  5
CA
330
C9
100
AcDbEntity
  8
0
100
AcDbBlockBegin
  2
SW_BLOCK_DIMENSION_7
 70
     0
 10
0.0
 20
0.0
 30
0.0
  3
SW_BLOCK_DIMENSION_7
  1

  0
SOLID
  5
CC
330
C9
100
AcDbEntity
  8
EBENE_1
 62
     0
100
AcDbTrace
 10
-1.5805038061
 20
2.3665509652
 30
0.0
 11
-2.0546549479
 21
-0.7154314566
 31
0.0
 12
-1.1063526643
 22
-0.7154314566
 32
0.0
 13
-1.1063526643
 23
-0.7154314566
 33
0.0
  0
LINE
  5
CD
330
C9
100
AcDbEntity
  8
EBENE_1
 62
     0
100
AcDbLine
 10
-10.3062660664
 20
2.3665509652
 30
0.0
 11
0.0
 21
2.3665509652
 31
0.0
  0
LINE
  5
CE
330
C9
100
AcDbEntity
  8
EBENE_1
 62
     0
100
AcDbLine
 10
-1.5805038061
 20
-7.6334490348
 30
0.0
 11
-1.5805038061
 21
2.3665509652
 31
0.0
  0
MTEXT
  5
CF
330
C9
100
AcDbEntity
  8
EBENE_1
 62
     0
100
AcDbMText
 10
0.0
 20
4.0927900738
 30
0.0
 40
3.175
 41
0.0
 71
     1
 72
     1
  1
70
  7
SLDTEXTSTYLE0
 73
     1
 44
1.0
  0
ENDBLK
  5
CB
330
C9
100
AcDbEntity
  8
0
100
AcDbBlockEnd
  0
BLOCK
  5
D2
330
D1
100
AcDbEntity
  8
0
100
AcDbBlockBegin
  2
SW_BLOCK_DIMENSION_8
 70
     0
 10
0.0
 20
0.0
 30
0.0
  3
SW_BLOCK_DIMENSION_8
  1

  0
SOLID
  5
D4
330
D1
100
AcDbEntity
  8
EBENE_1
 62
     0
100
AcDbTrace
 10
-1.5805038061
 20
2.3665509652
 30
0.0
 11
-2.0546549479
 21
-0.7154314566
 31
0.0
 12
-1.1063526643
 22
-0.7154314566
 32
0.0
 13
-1.1063526643
 23
-0.7154314566
 33
0.0
  0
LINE
  5
D5
330
D1
100
AcDbEntity
  8
EBENE_1
 62
     0
100
AcDbLine
 10
-10.3062660664
 20
2.3665509652
 30
0.0
 11
0.0
 21
2.3665509652
 31
0.0
  0
LINE
  5
D6
330
D1
100
AcDbEntity
  8
EBENE_1
 62
     0
100
AcDbLine
 10
-1.5805038061
 20
-7.6334490348
 30
0.0
 11
-1.5805038061
 21
2.3665509652
 31
0.0
  0
MTEXT
  5
D7
330
D1
100
AcDbEntity
  8
EBENE_1
 62
     0
100
AcDbMText
 10
0.0
 20
4.0927900738
 30
0.0
 40
3.175
 41
0.0
 71
     1
 72
     1
  1
80
  7
SLDTEXTSTYLE0
 73
     1
 44
1.0
  0
ENDBLK
  5
D3
330
D1
100
AcDbEntity
  8
0
100
AcDbBlockEnd
  0
BLOCK
  5
DA
330
D9
100
AcDbEntity
  8
0
100
AcDbBlockBegin
  2
SW_BLOCK_DIMENSION_9
 70
     0
 10
0.0
 20
0.0
 30
0.0
  3
SW_BLOCK_DIMENSION_9
  1

  0
SOLID
  5
DC
330
D9
100
AcDbEntity
  8
EBENE_1
 62
     0
100
AcDbTrace
 10
-1.5805038061
 20
2.3665509652
 30
0.0
 11
-2.0546549479
 21
-0.7154314566
 31
0.0
 12
-1.1063526643
 22
-0.7154314566
 32
0.0
 13
-1.1063526643
 23
-0.7154314566
 33
0.0
  0
LINE
  5
DD
330
D9
100
AcDbEntity
  8
EBENE_1
 62
     0
100
AcDbLine
 10
-10.3062660664
 20
2.3665509652
 30
0.0
 11
0.0
 21
2.3665509652
 31
0.0
  0
LINE
  5
DE
330
D9
100
AcDbEntity
  8
EBENE_1
 62
     0
100
AcDbLine
 10
-1.5805038061
 20
-7.6334490348
 30
0.0
 11
-1.5805038061
 21
2.3665509652
 31
0.0
  0
MTEXT
  5
DF
330
D9
100
AcDbEntity
  8
EBENE_1
 62
     0
100
AcDbMText
 10
0.0
 20
4.0927900738
 30
0.0
 40
3.175
 41
0.0
 71
     1
 72
     1
  1
90
  7
SLDTEXTSTYLE0
 73
     1
 44
1.0
  0
ENDBLK
  5
DB
330
D9
100
AcDbEntity
  8
0
100
AcDbBlockEnd
  0
BLOCK
  5
E2
330
E1
100
AcDbEntity
  8
0
100
AcDbBlockBegin
  2
SW_BLOCK_DIMENSION_10
 70
     0
 10
0.0
 20
0.0
 30
0.0
  3
SW_BLOCK_DIMENSION_10
  1

  0
SOLID
  5
E4
330
E1
100
AcDbEntity
  8
EBENE_1
 62
     0
100
AcDbTrace
 10
-1.5805038061
 20
2.3665509652
 30
0.0
 11
-2.0546549479
 21
-0.7154314566
 31
0.0
 12
-1.1063526643
 22
-0.7154314566
 32
0.0
 13
-1.1063526643
 23
-0.7154314566
 33
0.0
  0
LINE
  5
E5
330
E1
100
AcDbEntity
  8
EBENE_1
 62
     0
100
AcDbLine
 10
-10.3062660664
 20
2.3665509652
 30
0.0
 11
0.0
 21
2.3665509652
 31
0.0
  0
LINE
  5
E6
330
E1
100
AcDbEntity
  8
EBENE_1
 62
     0
100
AcDbLine
 10
-1.5805038061
 20
-7.6334490348
 30
0.0
 11
-1.5805038061
 21
2.3665509652
 31
0.0
  0
MTEXT
  5
E7
330
E1
100
AcDbEntity
  8
EBENE_1
 62
     0
100
AcDbMText
 10
0.0
 20
4.0927900738
 30
0.0
 40
3.175
 41
0.0
 71
     1
 72
     1
  1
100
  7
SLDTEXTSTYLE0
 73
     1
 44
1.0
  0
ENDBLK
  5
E3
330
E1
100
AcDbEntity
  8
0
100
AcDbBlockEnd
  0
BLOCK
  5
EA
330
E9
100
AcDbEntity
  8
0
100
AcDbBlockBegin
  2
SW_BLOCK_DIMENSION_11
 70
     0
 10
0.0
 20
0.0
 30
0.0
  3
SW_BLOCK_DIMENSION_11
  1

  0
SOLID
  5
EC
330
E9
100
AcDbEntity
  8
EBENE_1
 62
     0
100
AcDbTrace
 10
-1.5805038061
 20
2.3665509652
 30
0.0
 11
-2.0546549479
 21
-0.7154314566
 31
0.0
 12
-1.1063526643
 22
-0.7154314566
 32
0.0
 13
-1.1063526643
 23
-0.7154314566
 33
0.0
  0
LINE
  5
ED
330
E9
100
AcDbEntity
  8
EBENE_1
 62
     0
100
AcDbLine
 10
-10.3062660664
 20
2.3665509652
 30
0.0
 11
0.0
 21
2.3665509652
 31
0.0
  0
LINE
  5
EE
330
E9
100
AcDbEntity
  8
EBENE_1
 62
     0
100
AcDbLine
 10
-1.5805038061
 20
-7.6334490348
 30
0.0
 11
-1.5805038061
 21
2.3665509652
 31
0.0
  0
MTEXT
  5
EF
330
E9
100
AcDbEntity
  8
EBENE_1
 62
     0
100
AcDbMText
 10
0.0
 20
4.0927900738
 30
0.0
 40
3.175
 41
0.0
 71
     1
 72
     1
  1
110
  7
SLDTEXTSTYLE0
 73
     1
 44
1.0
  0
ENDBLK
  5
EB
330
E9
100
AcDbEntity
  8
0
100
AcDbBlockEnd
  0
BLOCK
  5
F2
330
F1
100
AcDbEntity
  8
0
100
AcDbBlockBegin
  2
SW_BLOCK_DIMENSION_12
 70
     0
 10
0.0
 20
0.0
 30
0.0
  3
SW_BLOCK_DIMENSION_12
  1

  0
SOLID
  5
F4
330
F1
100
AcDbEntity
  8
EBENE_1
 62
     0
100
AcDbTrace
 10
-1.5805038061
 20
2.3665509652
 30
0.0
 11
-2.0546549479
 21
-0.7154314566
 31
0.0
 12
-1.1063526643
 22
-0.7154314566
 32
0.0
 13
-1.1063526643
 23
-0.7154314566
 33
0.0
  0
LINE
  5
F5
330
F1
100
AcDbEntity
  8
EBENE_1
 62
     0
100
AcDbLine
 10
-10.3062660664
 20
2.3665509652
 30
0.0
 11
0.0
 21
2.3665509652
 31
0.0
  0
LINE
  5
F6
330
F1
100
AcDbEntity
  8
EBENE_1
 62
     0
100
AcDbLine
 10
-1.5805038061
 20
-7.6334490348
 30
0.0
 11
-1.5805038061
 21
2.3665509652
 31
0.0
  0
MTEXT
  5
F7
330
F1
100
AcDbEntity
  8
EBENE_1
 62
     0
100
AcDbMText
 10
0.0
 20
4.0927900738
 30
0.0
 40
3.175
 41
0.0
 71
     1
 72
     1
  1
120
  7
SLDTEXTSTYLE0
 73
     1
 44
1.0
  0
ENDBLK
  5
F3
330
F1
100
AcDbEntity
  8
0
100
AcDbBlockEnd
  0
BLOCK
  5
FA
330
F9
100
AcDbEntity
  8
0
100
AcDbBlockBegin
  2
SW_BLOCK_DIMENSION_13
 70
     0
 10
0.0
 20
0.0
 30
0.0
  3
SW_BLOCK_DIMENSION_13
  1

  0
SOLID
  5
FC
330
F9
100
AcDbEntity
  8
EBENE_1
 62
     0
100
AcDbTrace
 10
-1.5805038061
 20
2.3665509652
 30
0.0
 11
-2.0546549479
 21
-0.7154314566
 31
0.0
 12
-1.1063526643
 22
-0.7154314566
 32
0.0
 13
-1.1063526643
 23
-0.7154314566
 33
0.0
  0
LINE
  5
FD
330
F9
100
AcDbEntity
  8
EBENE_1
 62
     0
100
AcDbLine
 10
-10.3062660664
 20
2.3665509652
 30
0.0
 11
0.0
 21
2.3665509652
 31
0.0
  0
LINE
  5
FE
330
F9
100
AcDbEntity
  8
EBENE_1
 62
     0
100
AcDbLine
 10
-1.5805038061
 20
-7.6334490348
 30
0.0
 11
-1.5805038061
 21
2.3665509652
 31
0.0
  0
MTEXT
  5
FF
330
F9
100
AcDbEntity
  8
EBENE_1
 62
     0
100
AcDbMText
 10
0.0
 20
4.0927900738
 30
0.0
 40
3.175
 41
0.0
 71
     1
 72
     1
  1
130
  7
SLDTEXTSTYLE0
 73
     1
 44
1.0
  0
ENDBLK
  5
FB
330
F9
100
AcDbEntity
  8
0
100
AcDbBlockEnd
  0
BLOCK
  5
102
330
101
100
AcDbEntity
  8
0
100
AcDbBlockBegin
  2
SW_BLOCK_DIMENSION_14
 70
     0
 10
0.0
 20
0.0
 30
0.0
  3
SW_BLOCK_DIMENSION_14
  1

  0
INSERT
  5
104
330
101
100
AcDbEntity
  8
EBENE_1
 62
     0
100
AcDbBlockReference
  2
_ORIGIN
 10
16.3971707594
 20
5.1887726877
 30
0.0
 41
0.9483022837
 42
0.9483022837
 50
0.0
  0
LINE
  5
105
330
101
100
AcDbEntity
  8
EBENE_1
 62
     0
100
AcDbLine
 10
3.2925925916
 20
9.671990294
 30
0.0
 11
2.2342592711
 21
9.671990294
 31
0.0
  0
LINE
  5
106
330
101
100
AcDbEntity
  8
EBENE_1
 62
     0
100
AcDbLine
 10
2.2342592711
 20
9.671990294
 30
0.0
 11
2.2342592711
 21
4.9388883635
 31
0.0
  0
LINE
  5
107
330
101
100
AcDbEntity
  8
EBENE_1
 62
     0
100
AcDbLine
 10
2.2342592711
 20
4.9388883635
 30
0.0
 11
3.2925925916
 21
4.9388883635
 31
0.0
  0
LINE
  5
108
330
101
100
AcDbEntity
  8
EBENE_1
 62
     0
100
AcDbLine
 10
11.5240741288
 20
9.671990294
 30
0.0
 11
12.5824074494
 21
9.671990294
 31
0.0
  0
LINE
  5
109
330
101
100
AcDbEntity
  8
EBENE_1
 62
     0
100
AcDbLine
 10
12.5824074494
 20
9.671990294
 30
0.0
 11
12.5824074494
 21
4.9388883635
 31
0.0
  0
LINE
  5
10A
330
101
100
AcDbEntity
  8
EBENE_1
 62
     0
100
AcDbLine
 10
12.5824074494
 20
4.9388883635
 30
0.0
 11
11.5240741288
 21
4.9388883635
 31
0.0
  0
LINE
  5
10B
330
101
100
AcDbEntity
  8
EBENE_1
 62
     0
100
AcDbLine
 10
24.38463321
 20
5.1887726877
 30
0.0
 11
14.8166669533
 21
5.1887726877
 31
0.0
  0
MTEXT
  5
10C
330
101
100
AcDbEntity
  8
EBENE_1
 62
     0
100
AcDbMText
 10
1.190625
 20
4.0927900738
 30
0.0
 40
3.175
 41
0.0
 71
     1
 72
     1
  1

  7
SLDTEXTSTYLE0
 73
     1
 44
1.0
  0
MTEXT
  5
10D
330
101
100
AcDbEntity
  8
EBENE_1
 62
     0
100
AcDbMText
 10
3.2925925916
 20
9.0316784373
 30
0.0
 40
3.175
 41
0.0
 71
     1
 72
     1
  1
0,00
  7
SLDTEXTSTYLE0
 73
     1
 44
1.0
  0
MTEXT
  5
10E
330
101
100
AcDbEntity
  8
EBENE_1
 62
     0
100
AcDbMText
 10
6.2324074097
 20
4.0927898409
 30
0.0
 40
3.175
 41
0.0
 71
     1
 72
     1
  1
0
  7
SLDTEXTSTYLE0
 73
     1
 44
1.0
  0
MTEXT
  5
10F
330
101
100
AcDbEntity
  8
EBENE_1
 62
     0
100
AcDbMText
 10
14.8313658863
 20
4.0927900738
 30
0.0
 40
3.175
 41
0.0
 71
     1
 72
     1
  1

  7
SLDTEXTSTYLE0
 73
     1
 44
1.0
  0
ENDBLK
  5
103
330
101
100
AcDbEntity
  8
0
100
AcDbBlockEnd
  0
BLOCK
  5
112
330
111
100
AcDbEntity
  8
0
100
AcDbBlockBegin
  2
SW_BLOCK_DIMENSION_15
 70
     0
 10
0.0
 20
0.0
 30
0.0
  3
SW_BLOCK_DIMENSION_15
  1

  0
SOLID
  5
114
330
111
100
AcDbEntity
  8
EBENE_1
 62
     0
100
AcDbTrace
 10
16.3971707594
 20
5.1887726877
 30
0.0
 11
15.9230196175
 21
2.1067902658
 31
0.0
 12
16.8713219012
 22
2.1067902658
 32
0.0
 13
16.8713219012
 23
2.1067902658
 33
0.0
  0
LINE
  5
115
330
111
100
AcDbEntity
  8
EBENE_1
 62
     0
100
AcDbLine
 10
3.2925925916
 20
9.671990294
 30
0.0
 11
2.2342592711
 21
9.671990294
 31
0.0
  0
LINE
  5
116
330
111
100
AcDbEntity
  8
EBENE_1
 62
     0
100
AcDbLine
 10
2.2342592711
 20
9.671990294
 30
0.0
 11
2.2342592711
 21
4.9388883635
 31
0.0
  0
LINE
  5
117
330
111
100
AcDbEntity
  8
EBENE_1
 62
     0
100
AcDbLine
 10
2.2342592711
 20
4.9388883635
 30
0.0
 11
3.2925925916
 21
4.9388883635
 31
0.0
  0
LINE
  5
118
330
111
100
AcDbEntity
  8
EBENE_1
 62
     0
100
AcDbLine
 10
11.5240741288
 20
9.671990294
 30
0.0
 11
12.5824074494
 21
9.671990294
 31
0.0
  0
LINE
  5
119
330
111
100
AcDbEntity
  8
EBENE_1
 62
     0
100
AcDbLine
 10
12.5824074494
 20
9.671990294
 30
0.0
 11
12.5824074494
 21
4.9388883635
 31
0.0
  0
LINE
  5
11A
330
111
100
AcDbEntity
  8
EBENE_1
 62
     0
100
AcDbLine
 10
12.5824074494
 20
4.9388883635
 30
0.0
 11
11.5240741288
 21
4.9388883635
 31
0.0
  0
LINE
  5
11B
330
111
100
AcDbEntity
  8
EBENE_1
 62
     0
100
AcDbLine
 10
23.60463321
 20
5.1887726877
 30
0.0
 11
14.8166669533
 21
5.1887726877
 31
0.0
  0
LINE
  5
11C
330
111
100
AcDbEntity
  8
EBENE_1
 62
     0
100
AcDbLine
 10
16.3971707594
 20
-20.2112273123
 30
0.0
 11
16.3971707594
 21
5.1887726877
 31
0.0
  0
MTEXT
  5
11D
330
111
100
AcDbEntity
  8
EBENE_1
 62
     0
100
AcDbMText
 10
1.190625
 20
4.0927900738
 30
0.0
 40
3.175
 41
0.0
 71
     1
 72
     1
  1

  7
SLDTEXTSTYLE0
 73
     1
 44
1.0
  0
MTEXT
  5
11E
330
111
100
AcDbEntity
  8
EBENE_1
 62
     0
100
AcDbMText
 10
3.2925925916
 20
9.0316784373
 30
0.0
 40
3.175
 41
0.0
 71
     1
 72
     1
  1
1,00
  7
SLDTEXTSTYLE0
 73
     1
 44
1.0
  0
MTEXT
  5
11F
330
111
100
AcDbEntity
  8
EBENE_1
 62
     0
100
AcDbMText
 10
2.1166665247
 20
4.0927898409
 30
0.0
 40
3.175
 41
0.0
 71
     1
 72
     1
  1
25,40
  7
SLDTEXTSTYLE0
 73
     1
 44
1.0
  0
MTEXT
  5
120
330
111
100
AcDbEntity
  8
EBENE_1
 62
     0
100
AcDbMText
 10
14.8313658863
 20
4.0927900738
 30
0.0
 40
3.175
 41
0.0
 71
     1
 72
     1
  1

  7
SLDTEXTSTYLE0
 73
     1
 44
1.0
  0
ENDBLK
  5
113
330
111
100
AcDbEntity
  8
0
100
AcDbBlockEnd
  0
BLOCK
  5
123
330
122
100
AcDbEntity
  8
0
100
AcDbBlockBegin
  2
SW_BLOCK_DIMENSION_16
 70
     0
 10
0.0
 20
0.0
 30
0.0
  3
SW_BLOCK_DIMENSION_16
  1

  0
SOLID
  5
125
330
122
100
AcDbEntity
  8
EBENE_1
 62
     0
100
AcDbTrace
 10
16.3971707594
 20
5.1887726877
 30
0.0
 11
15.9230196175
 21
2.1067902658
 31
0.0
 12
16.8713219012
 22
2.1067902658
 32
0.0
 13
16.8713219012
 23
2.1067902658
 33
0.0
  0
LINE
  5
126
330
122
100
AcDbEntity
  8
EBENE_1
 62
     0
100
AcDbLine
 10
3.2925925916
 20
9.671990294
 30
0.0
 11
2.2342592711
 21
9.671990294
 31
0.0
  0
LINE
  5
127
330
122
100
AcDbEntity
  8
EBENE_1
 62
     0
100
AcDbLine
 10
2.2342592711
 20
9.671990294
 30
0.0
 11
2.2342592711
 21
4.9388883635
 31
0.0
  0
LINE
  5
128
330
122
100
AcDbEntity
  8
EBENE_1
 62
     0
100
AcDbLine
 10
2.2342592711
 20
4.9388883635
 30
0.0
 11
3.2925925916
 21
4.9388883635
 31
0.0
  0
LINE
  5
129
330
122
100
AcDbEntity
  8
EBENE_1
 62
     0
100
AcDbLine
 10
11.5240741288
 20
9.671990294
 30
0.0
 11
12.5824074494
 21
9.671990294
 31
0.0
  0
LINE
  5
12A
330
122
100
AcDbEntity
  8
EBENE_1
 62
     0
100
AcDbLine
 10
12.5824074494
 20
9.671990294
 30
0.0
 11
12.5824074494
 21
4.9388883635
 31
0.0
  0
LINE
  5
12B
330
122
100
AcDbEntity
  8
EBENE_1
 62
     0
100
AcDbLine
 10
12.5824074494
 20
4.9388883635
 30
0.0
 11
11.5240741288
 21
4.9388883635
 31
0.0
  0
LINE
  5
12C
330
122
100
AcDbEntity
  8
EBENE_1
 62
     0
100
AcDbLine
 10
23.60463321
 20
5.1887726877
 30
0.0
 11
14.8166669533
 21
5.1887726877
 31
0.0
  0
LINE
  5
12D
330
122
100
AcDbEntity
  8
EBENE_1
 62
     0
100
AcDbLine
 10
16.3971707594
 20
-20.2112273123
 30
0.0
 11
16.3971707594
 21
5.1887726877
 31
0.0
  0
MTEXT
  5
12E
330
122
100
AcDbEntity
  8
EBENE_1
 62
     0
100
AcDbMText
 10
1.190625
 20
4.0927900738
 30
0.0
 40
3.175
 41
0.0
 71
     1
 72
     1
  1

  7
SLDTEXTSTYLE0
 73
     1
 44
1.0
  0
MTEXT
  5
12F
330
122
100
AcDbEntity
  8
EBENE_1
 62
     0
100
AcDbMText
 10
3.2925925916
 20
9.0316784373
 30
0.0
 40
3.175
 41
0.0
 71
     1
 72
     1
  1
2,00
  7
SLDTEXTSTYLE0
 73
     1
 44
1.0
  0
MTEXT
  5
130
330
122
100
AcDbEntity
  8
EBENE_1
 62
     0
100
AcDbMText
 10
2.1166665247
 20
4.0927898409
 30
0.0
 40
3.175
 41
0.0
 71
     1
 72
     1
  1
50,80
  7
SLDTEXTSTYLE0
 73
     1
 44
1.0
  0
MTEXT
  5
131
330
122
100
AcDbEntity
  8
EBENE_1
 62
     0
100
AcDbMText
 10
14.8313658863
 20
4.0927900738
 30
0.0
 40
3.175
 41
0.0
 71
     1
 72
     1
  1

  7
SLDTEXTSTYLE0
 73
     1
 44
1.0
  0
ENDBLK
  5
124
330
122
100
AcDbEntity
  8
0
100
AcDbBlockEnd
  0
BLOCK
  5
134
330
133
100
AcDbEntity
  8
0
100
AcDbBlockBegin
  2
SW_BLOCK_DIMENSION_17
 70
     0
 10
0.0
 20
0.0
 30
0.0
  3
SW_BLOCK_DIMENSION_17
  1

  0
SOLID
  5
136
330
133
100
AcDbEntity
  8
EBENE_1
 62
     0
100
AcDbTrace
 10
16.3971707594
 20
5.1887726877
 30
0.0
 11
15.9230196175
 21
2.1067902658
 31
0.0
 12
16.8713219012
 22
2.1067902658
 32
0.0
 13
16.8713219012
 23
2.1067902658
 33
0.0
  0
LINE
  5
137
330
133
100
AcDbEntity
  8
EBENE_1
 62
     0
100
AcDbLine
 10
3.2925925916
 20
9.671990294
 30
0.0
 11
2.2342592711
 21
9.671990294
 31
0.0
  0
LINE
  5
138
330
133
100
AcDbEntity
  8
EBENE_1
 62
     0
100
AcDbLine
 10
2.2342592711
 20
9.671990294
 30
0.0
 11
2.2342592711
 21
4.9388883635
 31
0.0
  0
LINE
  5
139
330
133
100
AcDbEntity
  8
EBENE_1
 62
     0
100
AcDbLine
 10
2.2342592711
 20
4.9388883635
 30
0.0
 11
3.2925925916
 21
4.9388883635
 31
0.0
  0
LINE
  5
13A
330
133
100
AcDbEntity
  8
EBENE_1
 62
     0
100
AcDbLine
 10
11.5240741288
 20
9.671990294
 30
0.0
 11
12.5824074494
 21
9.671990294
 31
0.0
  0
LINE
  5
13B
330
133
100
AcDbEntity
  8
EBENE_1
 62
     0
100
AcDbLine
 10
12.5824074494
 20
9.671990294
 30
0.0
 11
12.5824074494
 21
4.9388883635
 31
0.0
  0
LINE
  5
13C
330
133
100
AcDbEntity
  8
EBENE_1
 62
     0
100
AcDbLine
 10
12.5824074494
 20
4.9388883635
 30
0.0
 11
11.5240741288
 21
4.9388883635
 31
0.0
  0
LINE
  5
13D
330
133
100
AcDbEntity
  8
EBENE_1
 62
     0
100
AcDbLine
 10
23.60463321
 20
5.1887726877
 30
0.0
 11
14.8166669533
 21
5.1887726877
 31
0.0
  0
LINE
  5
13E
330
133
100
AcDbEntity
  8
EBENE_1
 62
     0
100
AcDbLine
 10
16.3971707594
 20
-20.2112273123
 30
0.0
 11
16.3971707594
 21
5.1887726877
 31
0.0
  0
MTEXT
  5
13F
330
133
100
AcDbEntity
  8
EBENE_1
 62
     0
100
AcDbMText
 10
1.190625
 20
4.0927900738
 30
0.0
 40
3.175
 41
0.0
 71
     1
 72
     1
  1

  7
SLDTEXTSTYLE0
 73
     1
 44
1.0
  0
MTEXT
  5
140
330
133
100
AcDbEntity
  8
EBENE_1
 62
     0
100
AcDbMText
 10
3.2925925916
 20
9.0316784373
 30
0.0
 40
3.175
 41
0.0
 71
     1
 72
     1
  1
3,00
  7
SLDTEXTSTYLE0
 73
     1
 44
1.0
  0
MTEXT
  5
141
330
133
100
AcDbEntity
  8
EBENE_1
 62
     0
100
AcDbMText
 10
2.1166665247
 20
4.0927898409
 30
0.0
 40
3.175
 41
0.0
 71
     1
 72
     1
  1
76,20
  7
SLDTEXTSTYLE0
 73
     1
 44
1.0
  0
MTEXT
  5
142
330
133
100
AcDbEntity
  8
EBENE_1
 62
     0
100
AcDbMText
 10
14.8313658863
 20
4.0927900738
 30
0.0
 40
3.175
 41
0.0
 71
     1
 72
     1
  1

  7
SLDTEXTSTYLE0
 73
     1
 44
1.0
  0
ENDBLK
  5
135
330
133
100
AcDbEntity
  8
0
100
AcDbBlockEnd
  0
BLOCK
  5
145
330
144
100
AcDbEntity
  8
0
100
AcDbBlockBegin
  2
SW_BLOCK_DIMENSION_18
 70
     0
 10
0.0
 20
0.0
 30
0.0
  3
SW_BLOCK_DIMENSION_18
  1

  0
SOLID
  5
147
330
144
100
AcDbEntity
  8
EBENE_1
 62
     0
100
AcDbTrace
 10
16.8675417449
 20
5.1887726877
 30
0.0
 11
16.3933906031
 21
2.1067902658
 31
0.0
 12
17.3416928867
 22
2.1067902658
 32
0.0
 13
17.3416928867
 23
2.1067902658
 33
0.0
  0
LINE
  5
148
330
144
100
AcDbEntity
  8
EBENE_1
 62
     0
100
AcDbLine
 10
3.5277780844
 20
9.671990294
 30
0.0
 11
2.4694447638
 21
9.671990294
 31
0.0
  0
LINE
  5
149
330
144
100
AcDbEntity
  8
EBENE_1
 62
     0
100
AcDbLine
 10
2.4694447638
 20
9.671990294
 30
0.0
 11
2.4694447638
 21
4.9388883635
 31
0.0
  0
LINE
  5
14A
330
144
100
AcDbEntity
  8
EBENE_1
 62
     0
100
AcDbLine
 10
2.4694447638
 20
4.9388883635
 30
0.0
 11
3.5277780844
 21
4.9388883635
 31
0.0
  0
LINE
  5
14B
330
144
100
AcDbEntity
  8
EBENE_1
 62
     0
100
AcDbLine
 10
11.7592596216
 20
9.671990294
 30
0.0
 11
12.8175929422
 21
9.671990294
 31
0.0
  0
LINE
  5
14C
330
144
100
AcDbEntity
  8
EBENE_1
 62
     0
100
AcDbLine
 10
12.8175929422
 20
9.671990294
 30
0.0
 11
12.8175929422
 21
4.9388883635
 31
0.0
  0
LINE
  5
14D
330
144
100
AcDbEntity
  8
EBENE_1
 62
     0
100
AcDbLine
 10
12.8175929422
 20
4.9388883635
 30
0.0
 11
11.7592596216
 21
4.9388883635
 31
0.0
  0
LINE
  5
14E
330
144
100
AcDbEntity
  8
EBENE_1
 62
     0
100
AcDbLine
 10
24.0750041956
 20
5.1887726877
 30
0.0
 11
15.2870379388
 21
5.1887726877
 31
0.0
  0
LINE
  5
14F
330
144
100
AcDbEntity
  8
EBENE_1
 62
     0
100
AcDbLine
 10
16.8675417449
 20
-20.2112273123
 30
0.0
 11
16.8675417449
 21
5.1887726877
 31
0.0
  0
MTEXT
  5
150
330
144
100
AcDbEntity
  8
EBENE_1
 62
     0
100
AcDbMText
 10
1.190625
 20
4.0927900738
 30
0.0
 40
3.175
 41
0.0
 71
     1
 72
     1
  1

  7
SLDTEXTSTYLE0
 73
     1
 44
1.0
  0
MTEXT
  5
151
330
144
100
AcDbEntity
  8
EBENE_1
 62
     0
100
AcDbMText
 10
3.5277780844
 20
9.0316784373
 30
0.0
 40
3.175
 41
0.0
 71
     1
 72
     1
  1
4,00
  7
SLDTEXTSTYLE0
 73
     1
 44
1.0
  0
MTEXT
  5
152
330
144
100
AcDbEntity
  8
EBENE_1
 62
     0
100
AcDbMText
 10
1.1759259505
 20
4.0927898409
 30
0.0
 40
3.175
 41
0.0
 71
     1
 72
     1
  1
101,60
  7
SLDTEXTSTYLE0
 73
     1
 44
1.0
  0
MTEXT
  5
153
330
144
100
AcDbEntity
  8
EBENE_1
 62
     0
100
AcDbMText
 10
15.3017368719
 20
4.0927900738
 30
0.0
 40
3.175
 41
0.0
 71
     1
 72
     1
  1

  7
SLDTEXTSTYLE0
 73
     1
 44
1.0
  0
ENDBLK
  5
146
330
144
100
AcDbEntity
  8
0
100
AcDbBlockEnd
  0
BLOCK
  5
156
330
155
100
AcDbEntity
  8
0
100
AcDbBlockBegin
  2
SW_BLOCK_DIMENSION_19
 70
     0
 10
0.0
 20
0.0
 30
0.0
  3
SW_BLOCK_DIMENSION_19
  1

  0
SOLID
  5
158
330
155
100
AcDbEntity
  8
EBENE_1
 62
     0
100
AcDbTrace
 10
16.3971707594
 20
5.1887726877
 30
0.0
 11
15.9230196175
 21
2.1067902658
 31
0.0
 12
16.8713219012
 22
2.1067902658
 32
0.0
 13
16.8713219012
 23
2.1067902658
 33
0.0
  0
LINE
  5
159
330
155
100
AcDbEntity
  8
EBENE_1
 62
     0
100
AcDbLine
 10
3.2925925916
 20
9.671990294
 30
0.0
 11
2.2342592711
 21
9.671990294
 31
0.0
  0
LINE
  5
15A
330
155
100
AcDbEntity
  8
EBENE_1
 62
     0
100
AcDbLine
 10
2.2342592711
 20
9.671990294
 30
0.0
 11
2.2342592711
 21
4.9388883635
 31
0.0
  0
LINE
  5
15B
330
155
100
AcDbEntity
  8
EBENE_1
 62
     0
100
AcDbLine
 10
2.2342592711
 20
4.9388883635
 30
0.0
 11
3.2925925916
 21
4.9388883635
 31
0.0
  0
LINE
  5
15C
330
155
100
AcDbEntity
  8
EBENE_1
 62
     0
100
AcDbLine
 10
11.5240741288
 20
9.671990294
 30
0.0
 11
12.5824074494
 21
9.671990294
 31
0.0
  0
LINE
  5
15D
330
155
100
AcDbEntity
  8
EBENE_1
 62
     0
100
AcDbLine
 10
12.5824074494
 20
9.671990294
 30
0.0
 11
12.5824074494
 21
4.9388883635
 31
0.0
  0
LINE
  5
15E
330
155
100
AcDbEntity
  8
EBENE_1
 62
     0
100
AcDbLine
 10
12.5824074494
 20
4.9388883635
 30
0.0
 11
11.5240741288
 21
4.9388883635
 31
0.0
  0
LINE
  5
15F
330
155
100
AcDbEntity
  8
EBENE_1
 62
     0
100
AcDbLine
 10
23.60463321
 20
5.1887726877
 30
0.0
 11
14.8166669533
 21
5.1887726877
 31
0.0
  0
LINE
  5
160
330
155
100
AcDbEntity
  8
EBENE_1
 62
     0
100
AcDbLine
 10
16.3971707594
 20
-20.2112273123
 30
0.0
 11
16.3971707594
 21
5.1887726877
 31
0.0
  0
MTEXT
  5
161
330
155
100
AcDbEntity
  8
EBENE_1
 62
     0
100
AcDbMText
 10
1.190625
 20
4.0927900738
 30
0.0
 40
3.175
 41
0.0
 71
     1
 72
     1
  1

  7
SLDTEXTSTYLE0
 73
     1
 44
1.0
  0
MTEXT
  5
162
330
155
100
AcDbEntity
  8
EBENE_1
 62
     0
100
AcDbMText
 10
3.2925925916
 20
9.0316784373
 30
0.0
 40
3.175
 41
0.0
 71
     1
 72
     1
  1
5,00
  7
SLDTEXTSTYLE0
 73
     1
 44
1.0
  0
MTEXT
  5
163
330
155
100
AcDbEntity
  8
EBENE_1
 62
     0
100
AcDbMText
 10
3.8805556251
 20
4.0927898409
 30
0.0
 40
3.175
 41
0.0
 71
     1
 72
     1
  1
127
  7
SLDTEXTSTYLE0
 73
     1
 44
1.0
  0
MTEXT
  5
164
330
155
100
AcDbEntity
  8
EBENE_1
 62
     0
100
AcDbMText
 10
14.8313658863
 20
4.0927900738
 30
0.0
 40
3.175
 41
0.0
 71
     1
 72
     1
  1

  7
SLDTEXTSTYLE0
 73
     1
 44
1.0
  0
ENDBLK
  5
157
330
155
100
AcDbEntity
  8
0
100
AcDbBlockEnd
  0
BLOCK
  5
167
330
166
100
AcDbEntity
  8
0
100
AcDbBlockBegin
  2
SW_NOTE_0
 70
     0
 10
0.0
 20
0.0
 30
0.0
  3
SW_NOTE_0
  1

  0
MTEXT
  5
169
330
166
100
AcDbEntity
  8
EBENE_1
 62
     0
100
AcDbMText
 10
6.7138020833
 20
4.7749217527
 30
0.0
 40
3.7041666667
 41
0.0
 71
     2
 72
     1
  1
(Inch)
  7
SLDTEXTSTYLE0
 73
     1
 44
1.0
  0
MTEXT
  5
16A
330
166
100
AcDbEntity
  8
EBENE_1
 62
     0
100
AcDbMText
 10
6.7309508326
 20
-1.1639672404
 30
0.0
 40
3.7041666667
 41
0.0
 71
     2
 72
     1
  1
mm
  7
SLDTEXTSTYLE0
 73
     1
 44
1.0
  0
ENDBLK
  5
168
330
166
100
AcDbEntity
  8
0
100
AcDbBlockEnd
  0
BLOCK
  5
172
330
171
100
AcDbEntity
  8
0
100
AcDbBlockBegin
  2
SW_NOTE_1
 70
     0
 10
0.0
 20
0.0
 30
0.0
  3
SW_NOTE_1
  1

  0
MTEXT
  5
174
330
171
100
AcDbEntity
  8
0
  6
Continuous
 62
     0
370
     0
100
AcDbMText
 10
19.893359375
 20
4.0927900738
 30
0.0
 40
3.175
 41
0.0
 71
     2
 72
     1
  1
ABP-Beyerle GmbH
  7
SLDTEXTSTYLE0
 73
     1
 44
1.0
  0
MTEXT
  5
175
330
171
100
AcDbEntity
  8
0
  6
Continuous
 62
     0
370
     0
100
AcDbMText
 10
20.6558884293
 20
-0.1405432084
 30
0.0
 40
3.175
 41
0.0
 71
     2
 72
     1
  1
Im Schollengarten 24b, 76646 Bruchsal
  7
SLDTEXTSTYLE0
 73
     1
 44
1.0
  0
MTEXT
  5
176
330
171
100
AcDbEntity
  8
0
  6
Continuous
 62
     0
370
     0
100
AcDbMText
 10
20.7863491923
 20
-4.3738764906
 30
0.0
 40
3.175
 41
0.0
 71
     2
 72
     1
  1
Tel. +49 (0)7251-9127-0, Fax. +49 (0)7251-9127-29
  7
SLDTEXTSTYLE0
 73
     1
 44
1.0
  0
MTEXT
  5
177
330
171
100
AcDbEntity
  8
0
  6
Continuous
 62
     0
370
     0
100
AcDbMText
 10
20.8392552227
 20
-8.6072097727
 30
0.0
 40
3.175
 41
0.0
 71
     2
 72
     1
  1
info@abp-beyerle.de, www.abp-beyerle.de
  7
SLDTEXTSTYLE0
 73
     1
 44
1.0
  0
ENDBLK
  5
173
330
171
100
AcDbEntity
  8
0
100
AcDbBlockEnd
  0
ENDSEC
  0
SECTION
  2
ENTITIES
  0
INSERT
  5
16D
330
1F
100
AcDbEntity
  8
EBENE_1
100
AcDbBlockReference
  2
Block1
 10
19.561342692
 20
-6.9223244521
 30
0.0
  0
MTEXT
  5
16F
330
1F
100
AcDbEntity
  8
0
  6
Continuous
 62
     7
370
     0
100
AcDbMText
 10
402.5
 20
14.7189135832
 30
0.0
 40
6.35
 41
0.0
 71
     1
 72
     1
  1
1:1
  7
SLDTEXTSTYLE1
 73
     1
 44
1.0
  0
MTEXT
  5
170
330
1F
100
AcDbEntity
  8
0
  6
Continuous
 62
     7
370
     0
100
AcDbMText
 10
168.4090458961
 20
14.7189131175
 30
0.0
 40
6.35
 41
0.0
 71
     1
 72
     1
  1
USH105DS-EF
  7
SLDTEXTSTYLE1
 73
     1
 44
1.0
  0
INSERT
  5
178
330
1F
100
AcDbEntity
  8
0
  6
Continuous
 62
     7
370
     0
100
AcDbBlockReference
  2
SW_NOTE_1
 10
35.4202146835
 20
20.1681939512
 30
0.0
  0
LINE
  5
179
330
1F
100
AcDbEntity
  8
0
  6
Continuous
 62
     7
370
    15
100
AcDbLine
 10
227.2052061853
 20
199.2679454908
 30
0.0
 11
229.2052065131
 21
197.2679414377
 31
0.0
  0
LINE
  5
17A
330
1F
100
AcDbEntity
  8
0
  6
Continuous
 62
     7
370
    15
100
AcDbLine
 10
247.2052057383
 20
197.2679414377
 30
0.0
 11
249.2052060661
 21
199.2679454908
 31
0.0
  0
LINE
  5
17B
330
1F
100
AcDbEntity
  8
0
  6
Continuous
 62
     7
370
    15
100
AcDbLine
 10
249.2052060661
 20
433.2679468263
 30
0.0
 11
247.2052057383
 21
435.2679469213
 31
0.0
  0
LINE
  5
17C
330
1F
100
AcDbEntity
  8
0
  6
Continuous
 62
     7
370
    15
100
AcDbLine
 10
229.2052065131
 20
435.2679469213
 30
0.0
 11
227.2052061853
 21
433.2679468263
 31
0.0
  0
LINE
  5
17D
330
1F
100
AcDbEntity
  8
0
  6
Continuous
 62
     7
370
    15
100
AcDbLine
 10
227.2052061853
 20
395.7760140822
 30
0.0
 11
227.2052061853
 21
199.2679454908
 31
0.0
  0
LINE
  5
17E
330
1F
100
AcDbEntity
  8
0
  6
Continuous
 62
     7
370
    15
100
AcDbLine
 10
227.2052061853
 20
433.2679468263
 30
0.0
 11
227.2052061853
 21
426.7598802746
 31
0.0
  0
LINE
  5
17F
330
1F
100
AcDbEntity
  8
0
  6
Continuous
 62
     7
370
    15
100
AcDbLine
 10
249.2052060661
 20
426.7598802746
 30
0.0
 11
249.2052060661
 21
433.2679468263
 31
0.0
  0
LINE
  5
180
330
1F
100
AcDbEntity
  8
0
  6
Continuous
 62
     7
370
    15
100
AcDbLine
 10
249.2052060661
 20
353.7134446725
 30
0.0
 11
249.2052060661
 21
395.7760140822
 31
0.0
  0
LINE
  5
181
330
1F
100
AcDbEntity
  8
0
  6
Continuous
 62
     7
370
    15
100
AcDbLine
 10
249.2052060661
 20
199.2679454908
 30
0.0
 11
249.2052060661
 21
348.8224439845
 31
0.0
  0
LINE
  5
182
330
1F
100
AcDbEntity
  8
0
  6
Continuous
 62
     7
370
    15
100
AcDbLine
 10
256.9188312737
 20
407.9815719798
 30
0.0
 11
257.2052055148
 21
408.267946221
 31
0.0
  0
LINE
  5
183
330
1F
100
AcDbEntity
  8
0
  6
Continuous
 62
     7
370
    15
100
AcDbLine
 10
257.2052055148
 20
414.2679472044
 30
0.0
 11
256.9188312737
 21
414.5543233082
 31
0.0
  0
LINE
  5
184
330
1F
100
AcDbEntity
  8
0
  6
Continuous
 62
     7
370
    15
100
AcDbLine
 10
219.4915809778
 20
414.5543233082
 30
0.0
 11
219.2052067367
 21
414.2679472044
 31
0.0
  0
LINE
  5
185
330
1F
100
AcDbEntity
  8
0
  6
Continuous
 62
     7
370
    15
100
AcDbLine
 10
219.2052067367
 20
408.267946221
 30
0.0
 11
219.4915809778
 21
407.9815719798
 31
0.0
  0
ARC
  5
186
330
1F
100
AcDbEntity
  8
0
  6
Continuous
 62
     7
370
    15
100
AcDbCircle
 10
238.2052061257
 20
282.2679469213
 30
0.0
 40
13.59868421052629
100
AcDbArc
 50
323.9887716943
 51
36.0112283057
  0
ARC
  5
187
330
1F
100
AcDbEntity
  8
0
  6
Continuous
 62
     7
370
    15
100
AcDbCircle
 10
238.2052061257
 20
282.2679469213
 30
0.0
 40
13.5986842105263
100
AcDbArc
 50
143.9887716943
 51
216.0112283057
  0
ARC
  5
188
330
1F
100
AcDbEntity
  8
0
  6
Continuous
 62
     7
370
    15
100
AcDbCircle
 10
238.2052061257
 20
282.2679469213
 30
0.0
 40
15.00000000000002
100
AcDbArc
 50
317.1665719339
 51
42.8334280661
  0
ARC
  5
189
330
1F
100
AcDbEntity
  8
0
  6
Continuous
 62
     7
370
    15
100
AcDbCircle
 10
238.2052061257
 20
282.2679469213
 30
0.0
 40
15.00000000000001
100
AcDbArc
 50
137.1665719339
 51
222.8334280661
  0
ARC
  5
18A
330
1F
100
AcDbEntity
  8
0
  6
Continuous
 62
     7
370
    15
100
AcDbCircle
 10
238.2052061257
 20
227.2679469213
 30
0.0
 40
13.59868421052631
100
AcDbArc
 50
323.9887716943
 51
36.0112283057
  0
ARC
  5
18B
330
1F
100
AcDbEntity
  8
0
  6
Continuous
 62
     7
370
    15
100
AcDbCircle
 10
238.2052061257
 20
227.2679469213
 30
0.0
 40
13.59868421052632
100
AcDbArc
 50
143.9887716943
 51
216.0112283057
  0
ARC
  5
18C
330
1F
100
AcDbEntity
  8
0
  6
Continuous
 62
     7
370
    15
100
AcDbCircle
 10
238.2052061257
 20
227.2679469213
 30
0.0
 40
14.99999999999999
100
AcDbArc
 50
317.1665719339
 51
42.8334280661
  0
ARC
  5
18D
330
1F
100
AcDbEntity
  8
0
  6
Continuous
 62
     7
370
    15
100
AcDbCircle
 10
238.2052061257
 20
227.2679469213
 30
0.0
 40
15.00000000000001
100
AcDbArc
 50
137.1665719339
 51
222.8334280661
  0
LINE
  5
18E
330
1F
100
AcDbEntity
  8
0
  6
Continuous
 62
     7
370
    15
100
AcDbLine
 10
247.2052057383
 20
197.2679414377
 30
0.0
 11
229.2052065131
 21
197.2679414377
 31
0.0
  0
LINE
  5
18F
330
1F
100
AcDbEntity
  8
0
  6
Continuous
 62
     7
370
    15
100
AcDbLine
 10
227.2052061853
 20
199.2679454908
 30
0.0
 11
249.2052060661
 21
199.2679454908
 31
0.0
  0
LINE
  5
190
330
1F
100
AcDbEntity
  8
0
  6
Continuous
 62
     7
370
    15
100
AcDbLine
 10
249.2052060661
 20
433.2679468263
 30
0.0
 11
227.2052061853
 21
433.2679468263
 31
0.0
  0
LINE
  5
191
330
1F
100
AcDbEntity
  8
0
  6
Continuous
 62
     7
370
    15
100
AcDbLine
 10
229.2052065131
 20
435.2679469213
 30
0.0
 11
247.2052057383
 21
435.2679469213
 31
0.0
  0
ARC
  5
192
330
1F
100
AcDbEntity
  8
0
  6
Continuous
 62
     7
370
    15
100
AcDbCircle
 10
238.2052061257
 20
411.2679469213
 30
0.0
 40
28.95
100
AcDbArc
 50
292.3315430442
 51
157.6948819598
  0
ARC
  5
193
330
1F
100
AcDbEntity
  8
0
  6
Continuous
 62
     7
370
    15
100
AcDbCircle
 10
238.2052061257
 20
411.2679469213
 30
0.0
 40
28.95
100
AcDbArc
 50
157.6948819598
 51
247.6684569558
  0
ARC
  5
194
330
1F
100
AcDbEntity
  8
0
  6
Continuous
 62
     7
370
    15
100
AcDbCircle
 10
238.2052061257
 20
411.2679469213
 30
0.0
 40
29.00000000000001
100
AcDbArc
 50
292.2909703748
 51
153.7186912654
  0
ARC
  5
195
330
1F
100
AcDbEntity
  8
0
  6
Continuous
 62
     7
370
    15
100
AcDbCircle
 10
238.2052061257
 20
411.2679469213
 30
0.0
 40
29.00000000000001
100
AcDbArc
 50
153.7186912654
 51
247.7090296252
  0
LINE
  5
196
330
1F
100
AcDbEntity
  8
0
  6
Continuous
 62
     7
370
    15
100
AcDbLine
 10
257.2052055148
 20
414.2679472044
 30
0.0
 11
257.2052055148
 21
408.267946221
 31
0.0
  0
LINE
  5
197
330
1F
100
AcDbEntity
  8
0
  6
Continuous
 62
     7
370
    15
100
AcDbLine
 10
219.2052067367
 20
408.267946221
 30
0.0
 11
219.2052067367
 21
414.2679472044
 31
0.0
  0
LINE
  5
198
330
1F
100
AcDbEntity
  8
0
  6
Continuous
 62
     7
370
    15
100
AcDbLine
 10
248.8850657937
 20
352.7030043826
 30
0.0
 11
248.8850657937
 21
349.8328842744
 31
0.0
  0
LINE
  5
199
330
1F
100
AcDbEntity
  8
0
  6
Continuous
 62
     7
370
    15
100
AcDbLine
 10
249.2052060661
 20
348.8820486292
 30
0.0
 11
249.2052060661
 21
348.8224439845
 31
0.0
  0
LINE
  5
19A
330
1F
100
AcDbEntity
  8
0
  6
Continuous
 62
     7
370
    15
100
AcDbLine
 10
249.2052060661
 20
353.7134446725
 30
0.0
 11
249.2052060661
 21
348.8820486292
 31
0.0
  0
CIRCLE
  5
19B
330
1F
100
AcDbEntity
  8
0
  6
Continuous
 62
     7
370
    15
100
AcDbCircle
 10
238.2052061257
 20
411.2679469213
 30
0.0
 40
19.0
  0
CIRCLE
  5
19C
330
1F
100
AcDbEntity
  8
0
  6
Continuous
 62
     7
370
    15
100
AcDbCircle
 10
238.2052061257
 20
411.2679469213
 30
0.0
 40
17.0
  0
LINE
  5
19D
330
1F
100
AcDbEntity
  8
0
  6
Continuous
 62
     7
370
    15
100
AcDbLine
 10
121.7380923608
 20
359.2679493651
 30
0.0
 11
120.400370417
 21
359.2679493651
 31
0.0
  0
LINE
  5
19E
330
1F
100
AcDbEntity
  8
0
  6
Continuous
 62
     7
370
    15
100
AcDbLine
 10
120.400370417
 20
343.2679467425
 30
0.0
 11
121.7380923608
 21
343.2679467425
 31
0.0
  0
LINE
  5
19F
330
1F
100
AcDbEntity
  8
0
  6
Continuous
 62
     7
370
    15
100
AcDbLine
 10
114.0758146921
 20
359.2679493651
 30
0.0
 11
112.7380927483
 21
359.2679493651
 31
0.0
  0
LINE
  5
1A0
330
1F
100
AcDbEntity
  8
0
  6
Continuous
 62
     7
370
    15
100
AcDbLine
 10
112.7380927483
 20
343.2679467425
 30
0.0
 11
114.0758146921
 21
343.2679467425
 31
0.0
  0
ARC
  5
1A1
330
1F
100
AcDbEntity
  8
0
  6
Continuous
 62
     7
370
    15
100
AcDbCircle
 10
117.2380926171
 20
360.7679469213
 30
0.0
 40
3.500000000000005
100
AcDbArc
 50
205.3769335252
 51
334.6230664748
  0
ARC
  5
1A2
330
1F
100
AcDbEntity
  8
0
  6
Continuous
 62
     7
370
    15
100
AcDbCircle
 10
117.2380926171
 20
341.7679469213
 30
0.0
 40
3.499999999999981
100
AcDbArc
 50
25.3769335252
 51
154.6230664748
  0
LINE
  5
1A3
330
1F
100
AcDbEntity
  8
0
  6
Continuous
 62
     7
370
    15
100
AcDbLine
 10
138.9380892197
 20
242.2679432258
 30
0.0
 11
136.9380926171
 21
242.2679432258
 31
0.0
  0
LINE
  5
1A4
330
1F
100
AcDbEntity
  8
0
  6
Continuous
 62
     7
370
    15
100
AcDbLine
 10
136.9380926171
 20
212.2679420337
 30
0.0
 11
138.9380892197
 21
212.2679420337
 31
0.0
  0
LINE
  5
1A5
330
1F
100
AcDbEntity
  8
0
  6
Continuous
 62
     7
370
    15
100
AcDbLine
 10
138.9380892197
 20
212.2679420337
 30
0.0
 11
140.9380932728
 21
214.2679460868
 31
0.0
  0
LINE
  5
1A6
330
1F
100
AcDbEntity
  8
0
  6
Continuous
 62
     7
370
    15
100
AcDbLine
 10
140.9380932728
 20
240.2679540739
 30
0.0
 11
138.9380892197
 21
242.2679432258
 31
0.0
  0
LINE
  5
1A7
330
1F
100
AcDbEntity
  8
0
  6
Continuous
 62
     7
370
    15
100
AcDbLine
 10
136.9380926171
 20
232.2679527626
 30
0.0
 11
129.4380923191
 21
232.2679527626
 31
0.0
  0
LINE
  5
1A8
330
1F
100
AcDbEntity
  8
0
  6
Continuous
 62
     7
370
    15
100
AcDbLine
 10
129.4380923191
 20
222.2679473981
 30
0.0
 11
136.9380926171
 21
222.2679473981
 31
0.0
  0
LINE
  5
1A9
330
1F
100
AcDbEntity
  8
0
  6
Continuous
 62
     7
370
    15
100
AcDbLine
 10
138.9380892197
 20
297.2679503784
 30
0.0
 11
136.9380926171
 21
297.2679503784
 31
0.0
  0
LINE
  5
1AA
330
1F
100
AcDbEntity
  8
0
  6
Continuous
 62
     7
370
    15
100
AcDbLine
 10
136.9380926171
 20
267.2679491863
 30
0.0
 11
138.9380892197
 21
267.2679491863
 31
0.0
  0
LINE
  5
1AB
330
1F
100
AcDbEntity
  8
0
  6
Continuous
 62
     7
370
    15
100
AcDbLine
 10
138.9380892197
 20
267.2679491863
 30
0.0
 11
140.9380932728
 21
269.2679532394
 31
0.0
  0
LINE
  5
1AC
330
1F
100
AcDbEntity
  8
0
  6
Continuous
 62
     7
370
    15
100
AcDbLine
 10
140.9380932728
 20
295.2679463253
 30
0.0
 11
138.9380892197
 21
297.2679503784
 31
0.0
  0
LINE
  5
1AD
330
1F
100
AcDbEntity
  8
0
  6
Continuous
 62
     7
370
    15
100
AcDbLine
 10
136.9380926171
 20
287.267945014
 30
0.0
 11
129.4380923191
 21
287.267945014
 31
0.0
  0
LINE
  5
1AE
330
1F
100
AcDbEntity
  8
0
  6
Continuous
 62
     7
370
    15
100
AcDbLine
 10
129.4380923191
 20
277.2679396495
 30
0.0
 11
136.9380926171
 21
277.2679396495
 31
0.0
  0
LINE
  5
1AF
330
1F
100
AcDbEntity
  8
0
  6
Continuous
 62
     7
370
    15
100
AcDbLine
 10
90.9380925277
 20
297.2679503784
 30
0.0
 11
89.5367770845
 21
295.8666302785
 31
0.0
  0
LINE
  5
1B0
330
1F
100
AcDbEntity
  8
0
  6
Continuous
 62
     7
370
    15
100
AcDbLine
 10
89.5367770845
 20
268.6692692861
 30
0.0
 11
90.9380925277
 21
267.2679491863
 31
0.0
  0
LINE
  5
1B1
330
1F
100
AcDbEntity
  8
0
  6
Continuous
 62
     7
370
    15
100
AcDbLine
 10
90.9380925277
 20
267.2679491863
 30
0.0
 11
91.9380926916
 21
267.2679491863
 31
0.0
  0
LINE
  5
1B2
330
1F
100
AcDbEntity
  8
0
  6
Continuous
 62
     7
370
    15
100
AcDbLine
 10
91.9380926916
 20
297.2679503784
 30
0.0
 11
90.9380925277
 21
297.2679503784
 31
0.0
  0
LINE
  5
1B3
330
1F
100
AcDbEntity
  8
0
  6
Continuous
 62
     7
370
    15
100
AcDbLine
 10
85.3656086529
 20
274.3679501638
 30
0.0
 11
89.5367770845
 21
274.3679501638
 31
0.0
  0
LINE
  5
1B4
330
1F
100
AcDbEntity
  8
0
  6
Continuous
 62
     7
370
    15
100
AcDbLine
 10
89.5367770845
 20
290.1679494009
 30
0.0
 11
85.3662736172
 21
290.1679494009
 31
0.0
  0
LINE
  5
1B5
330
1F
100
AcDbEntity
  8
0
  6
Continuous
 62
     7
370
    15
100
AcDbLine
 10
90.9380925277
 20
212.2679420337
 30
0.0
 11
91.9380926916
 21
212.2679420337
 31
0.0
  0
LINE
  5
1B6
330
1F
100
AcDbEntity
  8
0
  6
Continuous
 62
     7
370
    15
100
AcDbLine
 10
91.9380926916
 20
242.2679432258
 30
0.0
 11
90.9380925277
 21
242.2679432258
 31
0.0
  0
LINE
  5
1B7
330
1F
100
AcDbEntity
  8
0
  6
Continuous
 62
     7
370
    15
100
AcDbLine
 10
90.9380925277
 20
242.2679432258
 30
0.0
 11
89.5367770845
 21
240.8666380271
 31
0.0
  0
LINE
  5
1B8
330
1F
100
AcDbEntity
  8
0
  6
Continuous
 62
     7
370
    15
100
AcDbLine
 10
89.5367770845
 20
213.6692621336
 30
0.0
 11
90.9380925277
 21
212.2679420337
 31
0.0
  0
LINE
  5
1B9
330
1F
100
AcDbEntity
  8
0
  6
Continuous
 62
     7
370
    15
100
AcDbLine
 10
85.3656086529
 20
219.3679430112
 30
0.0
 11
89.5367770845
 21
219.3679430112
 31
0.0
  0
LINE
  5
1BA
330
1F
100
AcDbEntity
  8
0
  6
Continuous
 62
     7
370
    15
100
AcDbLine
 10
89.5367770845
 20
235.1679422483
 30
0.0
 11
85.3662736172
 21
235.1679422483
 31
0.0
  0
LINE
  5
1BB
330
1F
100
AcDbEntity
  8
0
  6
Continuous
 62
     7
370
    15
100
AcDbLine
 10
98.9932057837
 20
222.2679473981
 30
0.0
 11
118.9932053367
 21
222.2679473981
 31
0.0
  0
LINE
  5
1BC
330
1F
100
AcDbEntity
  8
0
  6
Continuous
 62
     7
370
    15
100
AcDbLine
 10
118.9932053367
 20
232.2679527626
 30
0.0
 11
98.9932057837
 21
232.2679527626
 31
0.0
  0
LINE
  5
1BD
330
1F
100
AcDbEntity
  8
0
  6
Continuous
 62
     7
370
    15
100
AcDbLine
 10
98.4988336841
 20
277.2679396495
 30
0.0
 11
118.498833237
 21
277.2679396495
 31
0.0
  0
LINE
  5
1BE
330
1F
100
AcDbEntity
  8
0
  6
Continuous
 62
     7
370
    15
100
AcDbLine
 10
118.498833237
 20
287.267945014
 30
0.0
 11
98.4988336841
 21
287.267945014
 31
0.0
  0
LINE
  5
1BF
330
1F
100
AcDbEntity
  8
0
  6
Continuous
 62
     7
370
    15
100
AcDbLine
 10
129.4380923191
 20
231.267950736
 30
0.0
 11
118.9932053367
 21
231.267950736
 31
0.0
  0
LINE
  5
1C0
330
1F
100
AcDbEntity
  8
0
  6
Continuous
 62
     7
370
    15
100
AcDbLine
 10
98.9932057837
 20
231.267950736
 30
0.0
 11
91.9380926916
 21
231.267950736
 31
0.0
  0
LINE
  5
1C1
330
1F
100
AcDbEntity
  8
0
  6
Continuous
 62
     7
370
    15
100
AcDbLine
 10
91.9380926916
 20
223.2679494247
 30
0.0
 11
98.9932057837
 21
223.2679494247
 31
0.0
  0
LINE
  5
1C2
330
1F
100
AcDbEntity
  8
0
  6
Continuous
 62
     7
370
    15
100
AcDbLine
 10
118.9932053367
 20
223.2679494247
 30
0.0
 11
129.4380923191
 21
223.2679494247
 31
0.0
  0
LINE
  5
1C3
330
1F
100
AcDbEntity
  8
0
  6
Continuous
 62
     7
370
    15
100
AcDbLine
 10
129.4380923191
 20
286.2679429874
 30
0.0
 11
118.498833237
 21
286.2679429874
 31
0.0
  0
LINE
  5
1C4
330
1F
100
AcDbEntity
  8
0
  6
Continuous
 62
     7
370
    15
100
AcDbLine
 10
98.4988336841
 20
286.2679429874
 30
0.0
 11
91.9380926916
 21
286.2679429874
 31
0.0
  0
LINE
  5
1C5
330
1F
100
AcDbEntity
  8
0
  6
Continuous
 62
     7
370
    15
100
AcDbLine
 10
91.9380926916
 20
278.2679416761
 30
0.0
 11
98.4988336841
 21
278.2679416761
 31
0.0
  0
LINE
  5
1C6
330
1F
100
AcDbEntity
  8
0
  6
Continuous
 62
     7
370
    15
100
AcDbLine
 10
118.498833237
 20
278.2679416761
 30
0.0
 11
129.4380923191
 21
278.2679416761
 31
0.0
  0
LINE
  5
1C7
330
1F
100
AcDbEntity
  8
0
  6
Continuous
 62
     7
370
    15
100
AcDbLine
 10
85.4380925575
 20
433.2679468263
 30
0.0
 11
83.4380922297
 21
435.2679469213
 31
0.0
  0
LINE
  5
1C8
330
1F
100
AcDbEntity
  8
0
  6
Continuous
 62
     7
370
    15
100
AcDbLine
 10
65.4380930046
 20
435.2679469213
 30
0.0
 11
63.4380926767
 21
433.2679468263
 31
0.0
  0
LINE
  5
1C9
330
1F
100
AcDbEntity
  8
0
  6
Continuous
 62
     7
370
    15
100
AcDbLine
 10
63.4380926767
 20
433.2679468263
 30
0.0
 11
63.4380926767
 21
430.2679470331
 31
0.0
  0
LINE
  5
1CA
330
1F
100
AcDbEntity
  8
0
  6
Continuous
 62
     7
370
    15
100
AcDbLine
 10
63.4380926767
 20
392.267945461
 30
0.0
 11
63.4380926767
 21
199.2679454908
 31
0.0
  0
LINE
  5
1CB
330
1F
100
AcDbEntity
  8
0
  6
Continuous
 62
     7
370
    15
100
AcDbLine
 10
85.4380925575
 20
359.2679493651
 30
0.0
 11
85.4380925575
 21
392.267945461
 31
0.0
  0
LINE
  5
1CC
330
1F
100
AcDbEntity
  8
0
  6
Continuous
 62
     7
370
    15
100
AcDbLine
 10
85.4380925575
 20
430.2679470331
 30
0.0
 11
85.4380925575
 21
433.2679468263
 31
0.0
  0
LINE
  5
1CD
330
1F
100
AcDbEntity
  8
0
  6
Continuous
 62
     7
370
    15
100
AcDbLine
 10
85.4380925575
 20
290.2679510936
 30
0.0
 11
85.4380925575
 21
343.2679467425
 31
0.0
  0
LINE
  5
1CE
330
1F
100
AcDbEntity
  8
0
  6
Continuous
 62
     7
370
    15
100
AcDbLine
 10
85.4380925575
 20
235.2679439411
 30
0.0
 11
85.4380925575
 21
274.2781259641
 31
0.0
  0
LINE
  5
1CF
330
1F
100
AcDbEntity
  8
0
  6
Continuous
 62
     7
370
    15
100
AcDbLine
 10
85.4380925575
 20
199.2679454908
 30
0.0
 11
85.4380925575
 21
219.2781337127
 31
0.0
  0
LINE
  5
1D0
330
1F
100
AcDbEntity
  8
0
  6
Continuous
 62
     7
370
    15
100
AcDbLine
 10
63.4380926767
 20
199.2679454908
 30
0.0
 11
65.4380930046
 21
197.2679414377
 31
0.0
  0
LINE
  5
1D1
330
1F
100
AcDbEntity
  8
0
  6
Continuous
 62
     7
370
    15
100
AcDbLine
 10
83.4380922297
 20
197.2679414377
 30
0.0
 11
85.4380925575
 21
199.2679454908
 31
0.0
  0
LINE
  5
1D2
330
1F
100
AcDbEntity
  8
0
  6
Continuous
 62
     7
370
    15
100
AcDbLine
 10
118.4380923787
 20
426.2679473087
 30
0.0
 11
117.4380940775
 21
426.2679473087
 31
0.0
  0
LINE
  5
1D3
330
1F
100
AcDbEntity
  8
0
  6
Continuous
 62
     7
370
    15
100
AcDbLine
 10
117.4380940775
 20
396.2679461166
 30
0.0
 11
118.4380923787
 21
396.2679461166
 31
0.0
  0
LINE
  5
1D4
330
1F
100
AcDbEntity
  8
0
  6
Continuous
 62
     7
370
    15
100
AcDbLine
 10
118.4380923787
 20
396.2679461166
 30
0.0
 11
120.4380927065
 21
398.2679464445
 31
0.0
  0
LINE
  5
1D5
330
1F
100
AcDbEntity
  8
0
  6
Continuous
 62
     7
370
    15
100
AcDbLine
 10
120.4380927065
 20
424.2679469809
 30
0.0
 11
118.4380923787
 21
426.2679473087
 31
0.0
  0
LINE
  5
1D6
330
1F
100
AcDbEntity
  8
0
  6
Continuous
 62
     7
370
    15
100
AcDbLine
 10
116.5680935064
 20
420.8479470164
 30
0.0
 11
116.4380920509
 21
420.7179464922
 31
0.0
  0
LINE
  5
1D7
330
1F
100
AcDbEntity
  8
0
  6
Continuous
 62
     7
370
    15
100
AcDbLine
 10
116.4380920509
 20
401.8179469332
 30
0.0
 11
116.5680935064
 21
401.6879454777
 31
0.0
  0
LINE
  5
1D8
330
1F
100
AcDbEntity
  8
0
  6
Continuous
 62
     7
370
    15
100
AcDbLine
 10
117.4380940775
 20
421.0179469139
 30
0.0
 11
117.0680907944
 21
421.0179469139
 31
0.0
  0
LINE
  5
1D9
330
1F
100
AcDbEntity
  8
0
  6
Continuous
 62
     7
370
    15
100
AcDbLine
 10
117.0680907944
 20
401.5179455802
 30
0.0
 11
117.4380940775
 21
401.5179455802
 31
0.0
  0
LINE
  5
1DA
330
1F
100
AcDbEntity
  8
0
  6
Continuous
 62
     7
370
    15
100
AcDbLine
 10
117.0680907944
 20
440.2179468945
 30
0.0
 11
116.5680935064
 21
440.2179468945
 31
0.0
  0
LINE
  5
1DB
330
1F
100
AcDbEntity
  8
0
  6
Continuous
 62
     7
370
    15
100
AcDbLine
 10
116.5680935064
 20
382.3179483935
 30
0.0
 11
117.0680907944
 21
382.3179483935
 31
0.0
  0
LINE
  5
1DC
330
1F
100
AcDbEntity
  8
0
  6
Continuous
 62
     7
370
    15
100
AcDbLine
 10
97.8080922196
 20
382.3179483935
 30
0.0
 11
98.3080932329
 21
382.3179483935
 31
0.0
  0
LINE
  5
1DD
330
1F
100
AcDbEntity
  8
0
  6
Continuous
 62
     7
370
    15
100
AcDbLine
 10
98.3080932329
 20
440.2179468945
 30
0.0
 11
97.8080922196
 21
440.2179468945
 31
0.0
  0
ARC
  5
1DE
330
1F
100
AcDbEntity
  8
0
  6
Continuous
 62
     7
370
    15
100
AcDbCircle
 10
107.4120411939
 20
372.6679469213
 30
0.0
 40
12.50000000000002
100
AcDbArc
 50
50.1746287392
 51
129.8253712608
  0
ARC
  5
1DF
330
1F
100
AcDbEntity
  8
0
  6
Continuous
 62
     7
370
    15
100
AcDbCircle
 10
107.4120411939
 20
449.8679469213
 30
0.0
 40
12.49999999999998
100
AcDbArc
 50
230.1746287392
 51
309.8253712608
  0
LINE
  5
1E0
330
1F
100
AcDbEntity
  8
0
  6
Continuous
 62
     7
370
    15
100
AcDbLine
 10
115.4176642576
 20
382.2679475472
 30
0.0
 11
116.4380920509
 21
382.2679475472
 31
0.0
  0
LINE
  5
1E1
330
1F
100
AcDbEntity
  8
0
  6
Continuous
 62
     7
370
    15
100
AcDbLine
 10
116.4380920509
 20
440.2679468095
 30
0.0
 11
115.4176642576
 21
440.2679468095
 31
0.0
  0
LINE
  5
1E2
330
1F
100
AcDbEntity
  8
0
  6
Continuous
 62
     7
370
    15
100
AcDbLine
 10
98.4380928258
 20
382.2679475472
 30
0.0
 11
99.4064187089
 21
382.2679475472
 31
0.0
  0
LINE
  5
1E3
330
1F
100
AcDbEntity
  8
0
  6
Continuous
 62
     7
370
    15
100
AcDbLine
 10
99.4064187089
 20
440.2679468095
 30
0.0
 11
98.4380928258
 21
440.2679468095
 31
0.0
  0
LINE
  5
1E4
330
1F
100
AcDbEntity
  8
0
  6
Continuous
 62
     7
370
    15
100
AcDbLine
 10
85.4380925575
 20
343.2679467425
 30
0.0
 11
112.538093088
 21
343.2679467425
 31
0.0
  0
LINE
  5
1E5
330
1F
100
AcDbEntity
  8
0
  6
Continuous
 62
     7
370
    15
100
AcDbLine
 10
112.538093088
 20
359.2679493651
 30
0.0
 11
85.4380925575
 21
359.2679493651
 31
0.0
  0
LINE
  5
1E6
330
1F
100
AcDbEntity
  8
0
  6
Continuous
 62
     7
370
    15
100
AcDbLine
 10
112.538093088
 20
343.2679467425
 30
0.0
 11
112.7380927483
 21
343.467950128
 31
0.0
  0
LINE
  5
1E7
330
1F
100
AcDbEntity
  8
0
  6
Continuous
 62
     7
370
    15
100
AcDbLine
 10
112.7380927483
 20
359.0679459796
 30
0.0
 11
112.538093088
 21
359.2679493651
 31
0.0
  0
LINE
  5
1E8
330
1F
100
AcDbEntity
  8
0
  6
Continuous
 62
     7
370
    15
100
AcDbLine
 10
85.4380925575
 20
392.267945461
 30
0.0
 11
96.9380935112
 21
392.267945461
 31
0.0
  0
LINE
  5
1E9
330
1F
100
AcDbEntity
  8
0
  6
Continuous
 62
     7
370
    15
100
AcDbLine
 10
59.9380930344
 20
392.267945461
 30
0.0
 11
63.4380926767
 21
392.267945461
 31
0.0
  0
LINE
  5
1EA
330
1F
100
AcDbEntity
  8
0
  6
Continuous
 62
     7
370
    15
100
AcDbLine
 10
63.4380926767
 20
430.2679470331
 30
0.0
 11
59.9380930344
 21
430.2679470331
 31
0.0
  0
LINE
  5
1EB
330
1F
100
AcDbEntity
  8
0
  6
Continuous
 62
     7
370
    15
100
AcDbLine
 10
96.9380935112
 20
430.2679470331
 30
0.0
 11
85.4380925575
 21
430.2679470331
 31
0.0
  0
LINE
  5
1EC
330
1F
100
AcDbEntity
  8
0
  6
Continuous
 62
     7
370
    15
100
AcDbLine
 10
59.9380930344
 20
430.2679470331
 30
0.0
 11
57.9380927065
 21
428.2679467052
 31
0.0
  0
LINE
  5
1ED
330
1F
100
AcDbEntity
  8
0
  6
Continuous
 62
     7
370
    15
100
AcDbLine
 10
57.9380927065
 20
394.2679457888
 30
0.0
 11
59.9380930344
 21
392.267945461
 31
0.0
  0
LINE
  5
1EE
330
1F
100
AcDbEntity
  8
0
  6
Continuous
 62
     7
370
    15
100
AcDbLine
 10
96.9380935112
 20
392.267945461
 30
0.0
 11
97.4380926618
 21
392.7679464743
 31
0.0
  0
LINE
  5
1EF
330
1F
100
AcDbEntity
  8
0
  6
Continuous
 62
     7
370
    15
100
AcDbLine
 10
97.4380926618
 20
429.7679469511
 30
0.0
 11
96.9380935112
 21
430.2679470331
 31
0.0
  0
LINE
  5
1F0
330
1F
100
AcDbEntity
  8
0
  6
Continuous
 62
     7
370
    15
100
AcDbLine
 10
97.8080922196
 20
421.0179469139
 30
0.0
 11
97.4380926618
 21
421.0179469139
 31
0.0
  0
LINE
  5
1F1
330
1F
100
AcDbEntity
  8
0
  6
Continuous
 62
     7
370
    15
100
AcDbLine
 10
97.4380926618
 20
401.5179455802
 30
0.0
 11
97.8080922196
 21
401.5179455802
 31
0.0
  0
LINE
  5
1F2
330
1F
100
AcDbEntity
  8
0
  6
Continuous
 62
     7
370
    15
100
AcDbLine
 10
98.3080932329
 20
401.6879454777
 30
0.0
 11
98.4380928258
 21
401.8179469332
 31
0.0
  0
LINE
  5
1F3
330
1F
100
AcDbEntity
  8
0
  6
Continuous
 62
     7
370
    15
100
AcDbLine
 10
98.4380928258
 20
420.7179464922
 30
0.0
 11
98.3080932329
 21
420.8479470164
 31
0.0
  0
LINE
  5
1F4
330
1F
100
AcDbEntity
  8
0
  6
Continuous
 62
     7
370
    15
100
AcDbLine
 10
120.400370417
 20
359.2679493651
 30
0.0
 11
120.400370417
 21
343.2679467425
 31
0.0
  0
LINE
  5
1F5
330
1F
100
AcDbEntity
  8
0
  6
Continuous
 62
     7
370
    15
100
AcDbLine
 10
121.7380923608
 20
359.2679493651
 30
0.0
 11
121.7380923608
 21
343.2679467425
 31
0.0
  0
LINE
  5
1F6
330
1F
100
AcDbEntity
  8
0
  6
Continuous
 62
     7
370
    15
100
AcDbLine
 10
114.0758146921
 20
359.2679493651
 30
0.0
 11
114.0758146921
 21
343.2679467425
 31
0.0
  0
LINE
  5
1F7
330
1F
100
AcDbEntity
  8
0
  6
Continuous
 62
     7
370
    15
100
AcDbLine
 10
112.7380927483
 20
359.2679493651
 30
0.0
 11
112.7380927483
 21
343.2679467425
 31
0.0
  0
LINE
  5
1F8
330
1F
100
AcDbEntity
  8
0
  6
Continuous
 62
     7
370
    15
100
AcDbLine
 10
136.9380926171
 20
218.7767692432
 30
0.0
 11
136.9380926171
 21
242.2679432258
 31
0.0
  0
LINE
  5
1F9
330
1F
100
AcDbEntity
  8
0
  6
Continuous
 62
     7
370
    15
100
AcDbLine
 10
136.9380926171
 20
212.2679420337
 30
0.0
 11
136.9380926171
 21
218.7767692432
 31
0.0
  0
LINE
  5
1FA
330
1F
100
AcDbEntity
  8
0
  6
Continuous
 62
     7
370
    15
100
AcDbLine
 10
138.9380892197
 20
218.7767692432
 30
0.0
 11
138.9380892197
 21
242.2679432258
 31
0.0
  0
LINE
  5
1FB
330
1F
100
AcDbEntity
  8
0
  6
Continuous
 62
     7
370
    15
100
AcDbLine
 10
138.9380892197
 20
212.2679420337
 30
0.0
 11
138.9380892197
 21
218.7767692432
 31
0.0
  0
LINE
  5
1FC
330
1F
100
AcDbEntity
  8
0
  6
Continuous
 62
     7
370
    15
100
AcDbLine
 10
140.9380932728
 20
219.9089296684
 30
0.0
 11
140.9380932728
 21
214.2679460868
 31
0.0
  0
LINE
  5
1FD
330
1F
100
AcDbEntity
  8
0
  6
Continuous
 62
     7
370
    15
100
AcDbLine
 10
140.9380932728
 20
240.2679540739
 30
0.0
 11
140.9380932728
 21
219.9089296684
 31
0.0
  0
LINE
  5
1FE
330
1F
100
AcDbEntity
  8
0
  6
Continuous
 62
     7
370
    15
100
AcDbLine
 10
129.4380923191
 20
224.437556468
 30
0.0
 11
129.4380923191
 21
232.2679527626
 31
0.0
  0
LINE
  5
1FF
330
1F
100
AcDbEntity
  8
0
  6
Continuous
 62
     7
370
    15
100
AcDbLine
 10
129.4380923191
 20
222.2679473981
 30
0.0
 11
129.4380923191
 21
224.437556468
 31
0.0
  0
LINE
  5
200
330
1F
100
AcDbEntity
  8
0
  6
Continuous
 62
     7
370
    15
100
AcDbLine
 10
136.9380926171
 20
283.9312620983
 30
0.0
 11
136.9380926171
 21
297.2679503784
 31
0.0
  0
LINE
  5
201
330
1F
100
AcDbEntity
  8
0
  6
Continuous
 62
     7
370
    15
100
AcDbLine
 10
136.9380926171
 20
267.2679491863
 30
0.0
 11
136.9380926171
 21
283.9312620983
 31
0.0
  0
LINE
  5
202
330
1F
100
AcDbEntity
  8
0
  6
Continuous
 62
     7
370
    15
100
AcDbLine
 10
138.9380892197
 20
283.9312620983
 30
0.0
 11
138.9380892197
 21
297.2679503784
 31
0.0
  0
LINE
  5
203
330
1F
100
AcDbEntity
  8
0
  6
Continuous
 62
     7
370
    15
100
AcDbLine
 10
138.9380892197
 20
267.2679491863
 30
0.0
 11
138.9380892197
 21
283.9312620983
 31
0.0
  0
LINE
  5
204
330
1F
100
AcDbEntity
  8
0
  6
Continuous
 62
     7
370
    15
100
AcDbLine
 10
140.9380932728
 20
283.7094881162
 30
0.0
 11
140.9380932728
 21
269.2679532394
 31
0.0
  0
LINE
  5
205
330
1F
100
AcDbEntity
  8
0
  6
Continuous
 62
     7
370
    15
100
AcDbLine
 10
140.9380932728
 20
295.2679463253
 30
0.0
 11
140.9380932728
 21
283.7094881162
 31
0.0
  0
LINE
  5
206
330
1F
100
AcDbEntity
  8
0
  6
Continuous
 62
     7
370
    15
100
AcDbLine
 10
129.4380923191
 20
282.822392188
 30
0.0
 11
129.4380923191
 21
287.267945014
 31
0.0
  0
LINE
  5
207
330
1F
100
AcDbEntity
  8
0
  6
Continuous
 62
     7
370
    15
100
AcDbLine
 10
129.4380923191
 20
277.2679396495
 30
0.0
 11
129.4380923191
 21
282.822392188
 31
0.0
  0
LINE
  5
208
330
1F
100
AcDbEntity
  8
0
  6
Continuous
 62
     7
370
    15
100
AcDbLine
 10
89.5367770845
 20
268.6692692861
 30
0.0
 11
89.5367770845
 21
295.8666302785
 31
0.0
  0
LINE
  5
209
330
1F
100
AcDbEntity
  8
0
  6
Continuous
 62
     7
370
    15
100
AcDbLine
 10
90.9380925277
 20
297.2679503784
 30
0.0
 11
90.9380925277
 21
267.2679491863
 31
0.0
  0
LINE
  5
20A
330
1F
100
AcDbEntity
  8
0
  6
Continuous
 62
     7
370
    15
100
AcDbLine
 10
91.9380926916
 20
297.2647615299
 30
0.0
 11
91.9380926916
 21
297.2679503784
 31
0.0
  0
LINE
  5
20B
330
1F
100
AcDbEntity
  8
0
  6
Continuous
 62
     7
370
    15
100
AcDbLine
 10
91.9380926916
 20
267.2679491863
 30
0.0
 11
91.9380926916
 21
297.2647615299
 31
0.0
  0
LINE
  5
20C
330
1F
100
AcDbEntity
  8
0
  6
Continuous
 62
     7
370
    15
100
AcDbLine
 10
91.9380926916
 20
212.2679420337
 30
0.0
 11
91.9380926916
 21
242.2679432258
 31
0.0
  0
LINE
  5
20D
330
1F
100
AcDbEntity
  8
0
  6
Continuous
 62
     7
370
    15
100
AcDbLine
 10
90.9380925277
 20
242.2679432258
 30
0.0
 11
90.9380925277
 21
212.2679420337
 31
0.0
  0
LINE
  5
20E
330
1F
100
AcDbEntity
  8
0
  6
Continuous
 62
     7
370
    15
100
AcDbLine
 10
89.5367770845
 20
216.4406545982
 30
0.0
 11
89.5367770845
 21
240.8666380271
 31
0.0
  0
LINE
  5
20F
330
1F
100
AcDbEntity
  8
0
  6
Continuous
 62
     7
370
    15
100
AcDbLine
 10
89.5367770845
 20
213.6692621336
 30
0.0
 11
89.5367770845
 21
216.4406545982
 31
0.0
  0
LINE
  5
210
330
1F
100
AcDbEntity
  8
0
  6
Continuous
 62
     7
370
    15
100
AcDbLine
 10
98.9932057837
 20
231.877512537
 30
0.0
 11
98.9932057837
 21
222.2679473981
 31
0.0
  0
LINE
  5
211
330
1F
100
AcDbEntity
  8
0
  6
Continuous
 62
     7
370
    15
100
AcDbLine
 10
98.9932057837
 20
232.2679527626
 30
0.0
 11
98.9932057837
 21
231.877512537
 31
0.0
  0
LINE
  5
212
330
1F
100
AcDbEntity
  8
0
  6
Continuous
 62
     7
370
    15
100
AcDbLine
 10
118.9932053367
 20
231.877512537
 30
0.0
 11
118.9932053367
 21
222.2679473981
 31
0.0
  0
LINE
  5
213
330
1F
100
AcDbEntity
  8
0
  6
Continuous
 62
     7
370
    15
100
AcDbLine
 10
118.9932053367
 20
232.2679527626
 30
0.0
 11
118.9932053367
 21
231.877512537
 31
0.0
  0
LINE
  5
214
330
1F
100
AcDbEntity
  8
0
  6
Continuous
 62
     7
370
    15
100
AcDbLine
 10
98.4988336841
 20
279.510355793
 30
0.0
 11
98.4988336841
 21
277.2679396495
 31
0.0
  0
LINE
  5
215
330
1F
100
AcDbEntity
  8
0
  6
Continuous
 62
     7
370
    15
100
AcDbLine
 10
98.4988336841
 20
287.267945014
 30
0.0
 11
98.4988336841
 21
279.510355793
 31
0.0
  0
LINE
  5
216
330
1F
100
AcDbEntity
  8
0
  6
Continuous
 62
     7
370
    15
100
AcDbLine
 10
118.498833237
 20
279.510355793
 30
0.0
 11
118.498833237
 21
277.2679396495
 31
0.0
  0
LINE
  5
217
330
1F
100
AcDbEntity
  8
0
  6
Continuous
 62
     7
370
    15
100
AcDbLine
 10
118.498833237
 20
287.267945014
 30
0.0
 11
118.498833237
 21
279.510355793
 31
0.0
  0
LINE
  5
218
330
1F
100
AcDbEntity
  8
0
  6
Continuous
 62
     7
370
    15
100
AcDbLine
 10
85.4380925575
 20
433.2679468263
 30
0.0
 11
63.4380926767
 21
433.2679468263
 31
0.0
  0
LINE
  5
219
330
1F
100
AcDbEntity
  8
0
  6
Continuous
 62
     7
370
    15
100
AcDbLine
 10
65.4380930046
 20
435.2679469213
 30
0.0
 11
83.4380922297
 21
435.2679469213
 31
0.0
  0
SPLINE
  5
21A
330
1F
100
AcDbEntity
  8
0
  6
Continuous
 62
     7
370
    15
100
AcDbSpline
210
0.0
220
0.0
230
1.0
 70
     8
 71
     3
 72
    24
 73
    20
 74
     0
 42
0.000000001
 43
0.00000001
 40
0.0
 40
0.0
 40
0.0
 40
0.0
 40
0.0063814459679088
 40
0.0514231968858077
 40
0.1348493854001794
 40
0.2253260273003004
 40
0.278406983427158
 40
0.3326912654696836
 40
0.379315659372768
 40
0.4270732420554775
 40
0.5007307035007809
 40
0.5745042122848801
 40
0.6222071956138849
 40
0.6712589749096947
 40
0.7707196485572098
 40
0.8302699060457235
 40
0.8920251661080583
 40
0.9783404130817588
 40
0.9999999999999999
 40
0.9999999999999999
 40
0.9999999999999999
 40
0.9999999999999999
 10
85.43069785629578
 20
343.2781316861678
 30
0.0
 10
85.43305766759448
 20
343.2748802341233
 30
0.0
 10
85.45207358367955
 20
343.2486792665861
 30
0.0
 10
85.33946910135765
 20
343.4035262868797
 30
0.0
 10
84.945567221975
 20
343.9508545653316
 30
0.0
 10
84.23965356232105
 20
344.9947675338211
 30
0.0
 10
83.55725668690461
 20
346.1318144987378
 30
0.0
 10
83.0230305333079
 20
347.1458631952306
 30
0.0
 10
82.55423763565946
 20
348.2343488218057
 30
0.0
 10
82.12830667799508
 20
349.5749372911316
 30
0.0
 10
81.90029686836436
 20
351.2868515482026
 30
0.0
 10
82.13640516808893
 20
352.9960122162367
 30
0.0
 10
82.57277647126713
 20
354.3533255346161
 30
0.0
 10
83.19715218011966
 20
355.7818608949583
 30
0.0
 10
83.94793529504753
 20
357.0775015018519
 30
0.0
 10
84.65085698383163
 20
358.1536183970716
 30
0.0
 10
85.17966541701976
 20
358.9133925416347
 30
0.0
 10
85.42000297009041
 20
359.2429954466358
 30
0.0
 10
85.43507011188535
 20
359.2637800128326
 30
0.0
 10
85.43809255753823
 20
359.2679493650962
 30
0.0
  0
LINE
  5
21B
330
1F
100
AcDbEntity
  8
0
  6
Continuous
 62
     7
370
    15
100
AcDbLine
 10
63.4380926767
 20
199.2679454908
 30
0.0
 11
85.4380925575
 21
199.2679454908
 31
0.0
  0
SPLINE
  5
21C
330
1F
100
AcDbEntity
  8
0
  6
Continuous
 62
     7
370
    15
100
AcDbSpline
210
0.0
220
0.0
230
1.0
 70
     8
 71
     3
 72
    24
 73
    20
 74
     0
 42
0.000000001
 43
0.00000001
 40
0.0
 40
0.0
 40
0.0
 40
0.0
 40
0.0063814322837328
 40
0.051423187952182
 40
0.134849468102763
 40
0.2253258279223562
 40
0.2784067896476585
 40
0.3326912916286735
 40
0.3793156904492296
 40
0.427073278168928
 40
0.5007304669684809
 40
0.5745042636449711
 40
0.6222072520052062
 40
0.6712592735943712
 40
0.7707195550910677
 40
0.830269818860343
 40
0.8920252035804445
 40
0.9783404007144572
 40
1.0
 40
1.0
 40
1.0
 40
1.0
 10
85.43069785629578
 20
274.2781259641218
 30
0.0
 10
85.43305766706722
 20
274.2748771690984
 30
0.0
 10
85.45207361637698
 20
274.2486975608728
 30
0.0
 10
85.3394687615725
 20
274.4035129662217
 30
0.0
 10
84.9455691173385
 20
274.9508743439503
 30
0.0
 10
84.2396523938458
 20
275.9947604059413
 30
0.0
 10
83.55725528256283
 20
277.1318096757612
 30
0.0
 10
83.02303187522034
 20
278.1458642273056
 30
0.0
 10
82.55423746806346
 20
279.2343503201017
 30
0.0
 10
82.12830745482746
 20
280.5749369250139
 30
0.0
 10
81.90029698868096
 20
282.2868503717286
 30
0.0
 10
82.13640405160757
 20
283.9960121746914
 30
0.0
 10
82.57277796964982
 20
285.3533281454102
 30
0.0
 10
83.19714758392752
 20
286.781868577665
 30
0.0
 10
83.9479377529727
 20
288.077497283168
 30
0.0
 10
84.65085735847295
 20
289.1536105576893
 30
0.0
 10
85.17966463364989
 20
289.9134015412875
 30
0.0
 10
85.42000304239264
 20
290.2429799397351
 30
0.0
 10
85.43507012165466
 20
290.2637788584448
 30
0.0
 10
85.43809255753823
 20
290.2679510936309
 30
0.0
  0
SPLINE
  5
21D
330
1F
100
AcDbEntity
  8
0
  6
Continuous
 62
     7
370
    15
100
AcDbSpline
210
0.0
220
0.0
230
1.0
 70
     8
 71
     3
 72
    24
 73
    20
 74
     0
 42
0.000000001
 43
0.00000001
 40
0.0
 40
0.0
 40
0.0
 40
0.0
 40
0.0063814315295557
 40
0.0514231283108749
 40
0.1348493986018843
 40
0.2253260393517646
 40
0.2784069948037975
 40
0.3326910619437408
 40
0.3793154552540836
 40
0.427073037329645
 40
0.5007307782529272
 40
0.574504005987697
 40
0.6222075068143875
 40
0.6712590483672595
 40
0.7707197207503189
 40
0.8302699774817628
 40
0.8920251186156495
 40
0.9783404234362547
 40
1.0
 40
1.0
 40
1.0
 40
1.0
 10
85.43069785629578
 20
219.2781337127257
 30
0.0
 10
85.4330576675571
 20
219.2748849724686
 30
0.0
 10
85.45207360100696
 20
219.2487058328327
 30
0.0
 10
85.33946872025649
 20
219.403494123903
 30
0.0
 10
84.9455677927542
 20
219.9508689147803
 30
0.0
 10
84.23965315760131
 20
220.9947671071684
 30
0.0
 10
83.55725820986947
 20
222.1318168052611
 30
0.0
 10
83.02302917235079
 20
223.145858193912
 30
0.0
 10
82.55423778311786
 20
224.2343437132148
 30
0.0
 10
82.12830602665383
 20
225.5749338510855
 30
0.0
 10
81.90029597198287
 20
227.2868495273021
 30
0.0
 10
82.13640934636143
 20
228.9960115676891
 30
0.0
 10
82.57277224715361
 20
230.3533308676032
 30
0.0
 10
83.19715544197429
 20
231.7818624733762
 30
0.0
 10
83.94793495549874
 20
233.0775024731178
 30
0.0
 10
84.65085642863338
 20
234.1536228679588
 30
0.0
 10
85.17966627367021
 20
234.9133797137843
 30
0.0
 10
85.42000289355094
 20
235.2430072657627
 30
0.0
 10
85.43507010140776
 20
235.2637774730164
 30
0.0
 10
85.43809255753823
 20
235.2679439410735
 30
0.0
  0
LINE
  5
21E
330
1F
100
AcDbEntity
  8
0
  6
Continuous
 62
     7
370
    15
100
AcDbLine
 10
83.4380922297
 20
197.2679414377
 30
0.0
 11
65.4380930046
 21
197.2679414377
 31
0.0
  0
LINE
  5
21F
330
1F
100
AcDbEntity
  8
0
  6
Continuous
 62
     7
370
    15
100
AcDbLine
 10
117.4380940775
 20
426.2679473087
 30
0.0
 11
117.4380940775
 21
396.2679461166
 31
0.0
  0
LINE
  5
220
330
1F
100
AcDbEntity
  8
0
  6
Continuous
 62
     7
370
    15
100
AcDbLine
 10
118.4380923787
 20
425.3960235566
 30
0.0
 11
118.4380923787
 21
426.2679473087
 31
0.0
  0
LINE
  5
221
330
1F
100
AcDbEntity
  8
0
  6
Continuous
 62
     7
370
    15
100
AcDbLine
 10
118.4380923787
 20
396.2679461166
 30
0.0
 11
118.4380923787
 21
425.3960235566
 31
0.0
  0
LINE
  5
222
330
1F
100
AcDbEntity
  8
0
  6
Continuous
 62
     7
370
    15
100
AcDbLine
 10
120.4380927065
 20
423.5122802258
 30
0.0
 11
120.4380927065
 21
398.2679464445
 31
0.0
  0
LINE
  5
223
330
1F
100
AcDbEntity
  8
0
  6
Continuous
 62
     7
370
    15
100
AcDbLine
 10
120.4380927065
 20
424.2679469809
 30
0.0
 11
120.4380927065
 21
423.5122802258
 31
0.0
  0
LINE
  5
224
330
1F
100
AcDbEntity
  8
0
  6
Continuous
 62
     7
370
    15
100
AcDbLine
 10
117.0680907944
 20
382.3179483935
 30
0.0
 11
117.0680907944
 21
440.2179468945
 31
0.0
  0
LINE
  5
225
330
1F
100
AcDbEntity
  8
0
  6
Continuous
 62
     7
370
    15
100
AcDbLine
 10
116.5680935064
 20
382.3179483935
 30
0.0
 11
116.5680935064
 21
440.2179468945
 31
0.0
  0
LINE
  5
226
330
1F
100
AcDbEntity
  8
0
  6
Continuous
 62
     7
370
    15
100
AcDbLine
 10
97.8080922196
 20
440.2179468945
 30
0.0
 11
97.8080922196
 21
382.3179483935
 31
0.0
  0
LINE
  5
227
330
1F
100
AcDbEntity
  8
0
  6
Continuous
 62
     7
370
    15
100
AcDbLine
 10
98.3080932329
 20
440.2179468945
 30
0.0
 11
98.3080932329
 21
382.3179483935
 31
0.0
  0
LINE
  5
228
330
1F
100
AcDbEntity
  8
0
  6
Continuous
 62
     7
370
    15
100
AcDbLine
 10
99.4064187089
 20
382.2679475472
 30
0.0
 11
99.4064187089
 21
440.2679468095
 31
0.0
  0
LINE
  5
229
330
1F
100
AcDbEntity
  8
0
  6
Continuous
 62
     7
370
    15
100
AcDbLine
 10
115.4176642576
 20
398.4273627922
 30
0.0
 11
115.4176642576
 21
382.2679475472
 31
0.0
  0
LINE
  5
22A
330
1F
100
AcDbEntity
  8
0
  6
Continuous
 62
     7
370
    15
100
AcDbLine
 10
115.4176642576
 20
440.2679468095
 30
0.0
 11
115.4176642576
 21
398.4273627922
 31
0.0
  0
LINE
  5
22B
330
1F
100
AcDbEntity
  8
0
  6
Continuous
 62
     7
370
    15
100
AcDbLine
 10
116.4380920509
 20
440.2679468095
 30
0.0
 11
116.4380920509
 21
382.2679475472
 31
0.0
  0
LINE
  5
22C
330
1F
100
AcDbEntity
  8
0
  6
Continuous
 62
     7
370
    15
100
AcDbLine
 10
98.4380928258
 20
440.2679468095
 30
0.0
 11
98.4380928258
 21
382.2679475472
 31
0.0
  0
LINE
  5
22D
330
1F
100
AcDbEntity
  8
0
  6
Continuous
 62
     7
370
    15
100
AcDbLine
 10
75.0706104136
 20
413.4890392944
 30
0.0
 11
72.8308284579
 21
412.9262708649
 31
0.0
  0
LINE
  5
22E
330
1F
100
AcDbEntity
  8
0
  6
Continuous
 62
     7
370
    15
100
AcDbLine
 10
72.8308284579
 20
412.9262708649
 30
0.0
 11
72.1983107196
 21
410.7051764205
 31
0.0
  0
LINE
  5
22F
330
1F
100
AcDbEntity
  8
0
  6
Continuous
 62
     7
370
    15
100
AcDbLine
 10
76.0453567764
 20
409.6096244231
 30
0.0
 11
76.6778745147
 21
411.8307170049
 31
0.0
  0
LINE
  5
230
330
1F
100
AcDbEntity
  8
0
  6
Continuous
 62
     7
370
    15
100
AcDbLine
 10
76.6778745147
 20
411.8307170049
 30
0.0
 11
75.0706104136
 21
413.4890392944
 31
0.0
  0
CIRCLE
  5
231
330
1F
100
AcDbEntity
  8
0
  6
Continuous
 62
     7
370
    15
100
AcDbCircle
 10
74.4380926171
 20
411.2679469213
 30
0.0
 40
3.000000000000001
  0
LINE
  5
232
330
1F
100
AcDbEntity
  8
0
  6
Continuous
 62
     7
370
    15
100
AcDbLine
 10
72.1983107196
 20
410.7051764205
 30
0.0
 11
73.8055748207
 21
409.0468541309
 31
0.0
  0
LINE
  5
233
330
1F
100
AcDbEntity
  8
0
  6
Continuous
 62
     7
370
    15
100
AcDbLine
 10
73.8055748207
 20
409.0468541309
 30
0.0
 11
76.0453567764
 21
409.6096244231
 31
0.0
  0
LINE
  5
234
330
1F
100
AcDbEntity
  8
0
  6
Continuous
 62
     7
370
    15
100
AcDbLine
 10
73.1646823388
 20
352.4420105443
 30
0.0
 11
74.8181566578
 21
352.9577844367
 31
0.0
  0
LINE
  5
235
330
1F
100
AcDbEntity
  8
0
  6
Continuous
 62
     7
370
    15
100
AcDbLine
 10
72.7846182108
 20
350.7521741614
 30
0.0
 11
73.1646823388
 21
352.4420105443
 31
0.0
  0
LINE
  5
236
330
1F
100
AcDbEntity
  8
0
  6
Continuous
 62
     7
370
    15
100
AcDbLine
 10
72.7846182108
 20
350.7521741614
 30
0.0
 11
74.0580285765
 21
349.5781116709
 31
0.0
  0
LINE
  5
237
330
1F
100
AcDbEntity
  8
0
  6
Continuous
 62
     7
370
    15
100
AcDbLine
 10
75.7115028955
 20
350.0938855633
 30
0.0
 11
74.0580285765
 21
349.5781116709
 31
0.0
  0
LINE
  5
238
330
1F
100
AcDbEntity
  8
0
  6
Continuous
 62
     7
370
    15
100
AcDbLine
 10
75.7115028955
 20
350.0938855633
 30
0.0
 11
76.0915670235
 21
351.7837219462
 31
0.0
  0
CIRCLE
  5
239
330
1F
100
AcDbEntity
  8
0
  6
Continuous
 62
     7
370
    15
100
AcDbCircle
 10
74.4380926171
 20
351.2679469213
 30
0.0
 40
2.445499999999983
  0
LINE
  5
23A
330
1F
100
AcDbEntity
  8
0
  6
Continuous
 62
     7
370
    15
100
AcDbLine
 10
76.0915670235
 20
351.7837219462
 30
0.0
 11
74.8181566578
 21
352.9577844367
 31
0.0
  0
ARC
  5
23B
330
1F
100
AcDbEntity
  8
0
  6
Continuous
 62
     7
370
    15
100
AcDbCircle
 10
74.4380926171
 20
351.2679469213
 30
0.0
 40
3.000000000000031
100
AcDbArc
 50
331.4221124016
 51
28.5778875984
  0
ARC
  5
23C
330
1F
100
AcDbEntity
  8
0
  6
Continuous
 62
     7
370
    15
100
AcDbCircle
 10
74.4380926171
 20
351.2679469213
 30
0.0
 40
3.000000000000016
100
AcDbArc
 50
151.4221124015
 51
208.5778875985
  0
LINE
  5
23D
330
1F
100
AcDbEntity
  8
0
  6
Continuous
 62
     7
370
    15
100
AcDbLine
 10
112.538093088
 20
357.5129427537
 30
0.0
 11
112.538093088
 21
359.2679493651
 31
0.0
  0
LINE
  5
23E
330
1F
100
AcDbEntity
  8
0
  6
Continuous
 62
     7
370
    15
100
AcDbLine
 10
112.538093088
 20
343.2679467425
 30
0.0
 11
112.538093088
 21
345.0229459033
 31
0.0
  0
LINE
  5
23F
330
1F
100
AcDbEntity
  8
0
  6
Continuous
 62
     7
370
    15
100
AcDbLine
 10
112.538093088
 20
357.5129427537
 30
0.0
 11
92.4380918423
 21
357.5129427537
 31
0.0
  0
LINE
  5
240
330
1F
100
AcDbEntity
  8
0
  6
Continuous
 62
     7
370
    15
100
AcDbLine
 10
92.4380918423
 20
345.0229459033
 30
0.0
 11
92.4380918423
 21
357.5129427537
 31
0.0
  0
LINE
  5
241
330
1F
100
AcDbEntity
  8
0
  6
Continuous
 62
     7
370
    15
100
AcDbLine
 10
92.4380918423
 20
345.0229459033
 30
0.0
 11
112.538093088
 21
345.0229459033
 31
0.0
  0
LINE
  5
242
330
1F
100
AcDbEntity
  8
0
  6
Continuous
 62
     7
370
    15
100
AcDbLine
 10
112.7380927483
 20
345.2812947855
 30
0.0
 11
112.538093088
 21
345.0229459033
 31
0.0
  0
LINE
  5
243
330
1F
100
AcDbEntity
  8
0
  6
Continuous
 62
     7
370
    15
100
AcDbLine
 10
112.538093088
 20
357.5129427537
 30
0.0
 11
112.7380927483
 21
357.2546013221
 31
0.0
  0
LINE
  5
244
330
1F
100
AcDbEntity
  8
0
  6
Continuous
 62
     7
370
    15
100
AcDbLine
 10
96.9380935112
 20
392.267945461
 30
0.0
 11
96.9380935112
 21
430.2679470331
 31
0.0
  0
LINE
  5
245
330
1F
100
AcDbEntity
  8
0
  6
Continuous
 62
     7
370
    15
100
AcDbLine
 10
59.9380930344
 20
430.2679470331
 30
0.0
 11
59.9380930344
 21
392.267945461
 31
0.0
  0
SPLINE
  5
246
330
1F
100
AcDbEntity
  8
0
  6
Continuous
 62
     7
370
    15
100
AcDbSpline
210
0.0
220
0.0
230
1.0
 70
     8
 71
     3
 72
    28
 73
    24
 74
     0
 42
0.000000001
 43
0.00000001
 40
0.0
 40
0.0
 40
0.0
 40
0.0
 40
0.047293560695395
 40
0.0960825410841814
 40
0.1433479935500718
 40
0.1918155875767087
 40
0.2426217239651454
 40
0.2946220721009561
 40
0.3508717334500149
 40
0.4089498744924941
 40
0.4524918948619379
 40
0.497258427861498
 40
0.5408239062395982
 40
0.5856821568251701
 40
0.6291807799326334
 40
0.6736206078746015
 40
0.7242555169397896
 40
0.7760582711801485
 40
0.8325105010972789
 40
0.8908255993208469
 40
0.9432771123835206
 40
0.9977114604821045
 40
1.0
 40
1.0
 40
1.0
 40
1.0
 10
63.43809267674752
 20
392.2679454609919
 30
0.0
 10
63.46280426542877
 20
392.2823069441871
 30
0.0
 10
63.51300882181682
 20
392.3114840198575
 30
0.0
 10
63.91347614612819
 20
392.5407496663373
 30
0.0
 10
64.5365402426337
 20
392.8853993763378
 30
0.0
 10
65.3897795449306
 20
393.3335558073023
 30
0.0
 10
66.4745822676912
 20
393.8599278795928
 30
0.0
 10
67.81405898314293
 20
394.436928612735
 30
0.0
 10
69.410637582951
 20
395.008706998173
 30
0.0
 10
71.09936368335079
 20
395.4499098806508
 30
0.0
 10
72.77050342785255
 20
395.7117473412243
 30
0.0
 10
74.3261079205805
 20
395.8022857162719
 30
0.0
 10
75.89996734730137
 20
395.7328629278715
 30
0.0
 10
77.41583057787612
 20
395.5149422330659
 30
0.0
 10
78.86072914781025
 20
395.1754934713696
 30
0.0
 10
80.26071247273391
 20
394.7348161878701
 30
0.0
 10
81.60336750074605
 20
394.2131779868513
 30
0.0
 10
82.87219639914078
 20
393.6392818703744
 30
0.0
 10
83.97210823010762
 20
393.0840232138842
 30
0.0
 10
84.80694710950642
 20
392.628694555536
 30
0.0
 10
85.29289885348321
 20
392.3522964281892
 30
0.0
 10
85.48076766787236
 20
392.2433273597154
 30
0.0
 10
85.43427874815873
 20
392.2701490212737
 30
0.0
 10
85.4324031079299
 20
392.2712311670352
 30
0.0
  0
SPLINE
  5
247
330
1F
100
AcDbEntity
  8
0
  6
Continuous
 62
     7
370
    15
100
AcDbSpline
210
0.0
220
0.0
230
1.0
 70
     8
 71
     3
 72
    28
 73
    24
 74
     0
 42
0.000000001
 43
0.00000001
 40
0.0
 40
0.0
 40
0.0
 40
0.0
 40
0.0472935594565559
 40
0.0960825414449537
 40
0.1433479806162075
 40
0.1918155980963238
 40
0.2426217037462089
 40
0.2946220677356864
 40
0.3508717440058316
 40
0.4089498698076836
 40
0.4524918979160604
 40
0.4972584278481622
 40
0.5408239038770882
 40
0.5856821543806942
 40
0.6291807886176495
 40
0.673620626968623
 40
0.7242555125322347
 40
0.7760582627074591
 40
0.8325105108361573
 40
0.890825594208269
 40
0.9432771071751023
 40
0.9977114594747482
 40
1.0
 40
1.0
 40
1.0
 40
1.0
 10
85.43809255753823
 20
430.2679470330644
 30
0.0
 10
85.41338095554151
 20
430.253586089616
 30
0.0
 10
85.36317637059796
 20
430.2244101096321
 30
0.0
 10
84.9627092678047
 20
429.9951418721333
 30
0.0
 10
84.33964453208593
 20
429.6504981115925
 30
0.0
 10
83.48640646505126
 20
429.2023336860152
 30
0.0
 10
82.4016022167856
 20
428.6759697762718
 30
0.0
 10
81.06212630994749
 20
428.0989649643112
 30
0.0
 10
79.46554827531139
 20
427.527183637747
 30
0.0
 10
77.77682100287318
 20
427.0859862931587
 30
0.0
 10
76.10568209505031
 20
426.8241435180006
 30
0.0
 10
74.55007725686505
 20
426.7336101792829
 30
0.0
 10
72.97621787462602
 20
426.8030287589297
 30
0.0
 10
71.46035443733446
 20
427.0209500320983
 30
0.0
 10
70.01545606955042
 20
427.3604008405939
 30
0.0
 10
68.61547336963949
 20
427.8010805405771
 30
0.0
 10
67.27281736832786
 20
428.32271432638
 30
0.0
 10
66.00398857660456
 20
428.8966100274971
 30
0.0
 10
64.9040773982299
 20
429.451872740006
 30
0.0
 10
64.06923797250019
 20
429.9071983398409
 30
0.0
 10
63.58328638636673
 20
430.1835919893696
 30
0.0
 10
63.39541758142109
 20
430.2925752066577
 30
0.0
 10
63.44190648608099
 20
430.2657456541719
 30
0.0
 10
63.44378212635585
 20
430.2646631896664
 30
0.0
  0
SPLINE
  5
248
330
1F
100
AcDbEntity
  8
0
  6
Continuous
 62
     7
370
    15
100
AcDbSpline
210
0.0
220
0.0
230
1.0
 70
    11
 71
     3
 72
    26
 73
    22
 74
     0
 42
0.000000001
 43
0.00000001
 40
0.0
 40
0.0
 40
0.0
 40
0.0
 40
0.0531086501405183
 40
0.1061974501719737
 40
0.1598050568530655
 40
0.2137892196066163
 40
0.2671981102742428
 40
0.3199745935499387
 40
0.3730478282213538
 40
0.4268789421739572
 40
0.4807590522565268
 40
0.5339113247078756
 40
0.5866959740878374
 40
0.6400158776535072
 40
0.6939719591609796
 40
0.7476722902230689
 40
0.8006000686177778
 40
0.8534533265156038
 40
0.9070337708302643
 40
0.9610208622992341
 40
1.0
 40
1.0
 40
1.0
 40
1.0
 10
77.83809266221888
 20
411.2679467126895
 30
0.0
 10
77.80111003506111
 20
410.8889934584482
 30
0.0
 10
77.7271586035255
 20
410.1312285891036
 30
0.0
 10
77.15140185266556
 20
409.12046201106
 30
0.0
 10
76.298828880742
 20
408.3439767891602
 30
0.0
 10
75.22489339522394
 20
407.8931535927784
 30
0.0
 10
74.06742874469698
 20
407.82387253447
 30
0.0
 10
72.95942642787294
 20
408.1363201291572
 30
0.0
 10
72.01449884825334
 20
408.7927398119991
 30
0.0
 10
71.3325915348202
 20
409.7300244122428
 30
0.0
 10
70.99901223359275
 20
410.8447543781537
 30
0.0
 10
71.05291002808153
 20
412.0006755224759
 30
0.0
 10
71.47956911959763
 20
413.0684720394875
 30
0.0
 10
72.23353523295832
 20
413.9407226779317
 30
0.0
 10
73.24031758001405
 20
414.519914077308
 30
0.0
 10
74.38336718214266
 20
414.7320674418465
 30
0.0
 10
75.52362892539377
 20
414.5565950047594
 30
0.0
 10
76.5415759176645
 20
414.02042967958
 30
0.0
 10
77.32618803226954
 20
413.1768786607974
 30
0.0
 10
77.77003215665927
 20
412.2070280125742
 30
0.0
 10
77.81798631152908
 20
411.5453689531865
 30
0.0
 10
77.83809266221888
 20
411.2679467126895
 30
0.0
  0
LINE
  5
249
330
1F
100
AcDbEntity
  8
0
  6
Continuous
 62
     7
370
    15
100
AcDbLine
 10
57.9380927065
 20
394.2679457888
 30
0.0
 11
57.9380927065
 21
428.2679467052
 31
0.0
  0
LINE
  5
24A
330
1F
100
AcDbEntity
  8
0
  6
Continuous
 62
     7
370
    15
100
AcDbLine
 10
97.4380926618
 20
429.7679469511
 30
0.0
 11
97.4380926618
 21
392.7679464743
 31
0.0
  0
LINE
  5
24B
330
1F
100
AcDbEntity
  8
0
  6
Continuous
 62
     7
370
    15
100
AcDbLine
 10
230.2052057457
 20
134.4798914923
 30
0.0
 11
230.2052057457
 21
133.179891838
 31
0.0
  0
LINE
  5
24C
330
1F
100
AcDbEntity
  8
0
  6
Continuous
 62
     7
370
    15
100
AcDbLine
 10
246.2052065057
 20
133.179891838
 30
0.0
 11
246.2052065057
 21
134.4798914923
 31
0.0
  0
LINE
  5
24D
330
1F
100
AcDbEntity
  8
0
  6
Continuous
 62
     7
370
    15
100
AcDbLine
 10
223.205206461
 20
151.6798883511
 30
0.0
 11
223.205206461
 21
149.6798917486
 31
0.0
  0
LINE
  5
24E
330
1F
100
AcDbEntity
  8
0
  6
Continuous
 62
     7
370
    15
100
AcDbLine
 10
253.2052057904
 20
149.6798917486
 30
0.0
 11
253.2052057904
 21
151.6798883511
 31
0.0
  0
LINE
  5
24F
330
1F
100
AcDbEntity
  8
0
  6
Continuous
 62
     7
370
    15
100
AcDbLine
 10
253.2052057904
 20
151.6798883511
 30
0.0
 11
251.2052063939
 21
153.6798924042
 31
0.0
  0
LINE
  5
250
330
1F
100
AcDbEntity
  8
0
  6
Continuous
 62
     7
370
    15
100
AcDbLine
 10
225.2052058575
 20
153.6798924042
 30
0.0
 11
223.205206461
 21
151.6798883511
 31
0.0
  0
LINE
  5
251
330
1F
100
AcDbEntity
  8
0
  6
Continuous
 62
     7
370
    15
100
AcDbLine
 10
233.2052062375
 20
149.6798917486
 30
0.0
 11
233.2052062375
 21
142.1798914505
 31
0.0
  0
LINE
  5
252
330
1F
100
AcDbEntity
  8
0
  6
Continuous
 62
     7
370
    15
100
AcDbLine
 10
243.205206014
 20
142.1798914505
 30
0.0
 11
243.205206014
 21
149.6798917486
 31
0.0
  0
LINE
  5
253
330
1F
100
AcDbEntity
  8
0
  6
Continuous
 62
     7
370
    15
100
AcDbLine
 10
234.2052059357
 20
142.1798914505
 30
0.0
 11
234.2052059357
 21
134.4798914923
 31
0.0
  0
LINE
  5
254
330
1F
100
AcDbEntity
  8
0
  6
Continuous
 62
     7
370
    15
100
AcDbLine
 10
242.2052063157
 20
134.4798914923
 30
0.0
 11
242.2052063157
 21
142.1798914505
 31
0.0
  0
LINE
  5
255
330
1F
100
AcDbEntity
  8
0
  6
Continuous
 62
     7
370
    15
100
AcDbLine
 10
253.2052057904
 20
131.1798915102
 30
0.0
 11
251.2052063939
 21
133.179891838
 31
0.0
  0
LINE
  5
256
330
1F
100
AcDbEntity
  8
0
  6
Continuous
 62
     7
370
    15
100
AcDbLine
 10
225.2052058575
 20
133.179891838
 30
0.0
 11
223.205206461
 21
131.1798915102
 31
0.0
  0
LINE
  5
257
330
1F
100
AcDbEntity
  8
0
  6
Continuous
 62
     7
370
    15
100
AcDbLine
 10
223.205206461
 20
131.1798915102
 30
0.0
 11
223.205206461
 21
130.1798932089
 31
0.0
  0
LINE
  5
258
330
1F
100
AcDbEntity
  8
0
  6
Continuous
 62
     7
370
    15
100
AcDbLine
 10
253.2052057904
 20
130.1798932089
 30
0.0
 11
253.2052057904
 21
131.1798915102
 31
0.0
  0
LINE
  5
259
330
1F
100
AcDbEntity
  8
0
  6
Continuous
 62
     7
370
    15
100
AcDbLine
 10
228.4552059245
 20
130.1798932089
 30
0.0
 11
228.4552059245
 21
129.8098899259
 31
0.0
  0
LINE
  5
25A
330
1F
100
AcDbEntity
  8
0
  6
Continuous
 62
     7
370
    15
100
AcDbLine
 10
247.9552063269
 20
129.8098899259
 30
0.0
 11
247.9552063269
 21
130.1798932089
 31
0.0
  0
LINE
  5
25B
330
1F
100
AcDbEntity
  8
0
  6
Continuous
 62
     7
370
    15
100
AcDbLine
 10
228.625205822
 20
129.3098926379
 30
0.0
 11
228.7552063463
 21
129.1798911823
 31
0.0
  0
LINE
  5
25C
330
1F
100
AcDbEntity
  8
0
  6
Continuous
 62
     7
370
    15
100
AcDbLine
 10
247.6552059052
 20
129.1798911823
 30
0.0
 11
247.7852064294
 21
129.3098926379
 31
0.0
  0
LINE
  5
25D
330
1F
100
AcDbEntity
  8
0
  6
Continuous
 62
     7
370
    15
100
AcDbLine
 10
209.2552059439
 20
129.8098899259
 30
0.0
 11
209.2552059439
 21
129.3098926379
 31
0.0
  0
LINE
  5
25E
330
1F
100
AcDbEntity
  8
0
  6
Continuous
 62
     7
370
    15
100
AcDbLine
 10
267.1552063075
 20
129.3098926379
 30
0.0
 11
267.1552063075
 21
129.8098899259
 31
0.0
  0
LINE
  5
25F
330
1F
100
AcDbEntity
  8
0
  6
Continuous
 62
     7
370
    15
100
AcDbLine
 10
267.1552063075
 20
110.549891351
 30
0.0
 11
267.1552063075
 21
111.0498923643
 31
0.0
  0
LINE
  5
260
330
1F
100
AcDbEntity
  8
0
  6
Continuous
 62
     7
370
    15
100
AcDbLine
 10
209.2552059439
 20
111.0498923643
 30
0.0
 11
209.2552059439
 21
110.549891351
 31
0.0
  0
LINE
  5
261
330
1F
100
AcDbEntity
  8
0
  6
Continuous
 62
     7
370
    15
100
AcDbLine
 10
267.2052052912
 20
128.1594633891
 30
0.0
 11
267.2052052912
 21
129.1798911823
 31
0.0
  0
LINE
  5
262
330
1F
100
AcDbEntity
  8
0
  6
Continuous
 62
     7
370
    15
100
AcDbLine
 10
209.2052069602
 20
129.1798911823
 30
0.0
 11
209.2052069602
 21
128.1594633891
 31
0.0
  0
ARC
  5
263
330
1F
100
AcDbEntity
  8
0
  6
Continuous
 62
     7
370
    15
100
AcDbCircle
 10
276.8052061257
 20
120.1538403253
 30
0.0
 40
12.49999999999998
100
AcDbArc
 50
140.1746287392
 51
219.8253712608
  0
ARC
  5
264
330
1F
100
AcDbEntity
  8
0
  6
Continuous
 62
     7
370
    15
100
AcDbCircle
 10
199.6052061257
 20
120.1538403253
 30
0.0
 40
12.50000000000002
100
AcDbArc
 50
320.1746287392
 51
39.8253712608
  0
LINE
  5
265
330
1F
100
AcDbEntity
  8
0
  6
Continuous
 62
     7
370
    15
100
AcDbLine
 10
267.2052052912
 20
111.1798919572
 30
0.0
 11
267.2052052912
 21
112.1482178403
 31
0.0
  0
LINE
  5
266
330
1F
100
AcDbEntity
  8
0
  6
Continuous
 62
     7
370
    15
100
AcDbLine
 10
209.2052069602
 20
112.1482178403
 30
0.0
 11
209.2052069602
 21
111.1798919572
 31
0.0
  0
LINE
  5
267
330
1F
100
AcDbEntity
  8
0
  6
Continuous
 62
     7
370
    15
100
AcDbLine
 10
257.2052055148
 20
109.6798926426
 30
0.0
 11
256.7052063641
 21
110.1798917933
 31
0.0
  0
LINE
  5
268
330
1F
100
AcDbEntity
  8
0
  6
Continuous
 62
     7
370
    15
100
AcDbLine
 10
219.7052058873
 20
110.1798917933
 30
0.0
 11
219.2052067367
 21
109.6798926426
 31
0.0
  0
LINE
  5
269
330
1F
100
AcDbEntity
  8
0
  6
Continuous
 62
     7
370
    15
100
AcDbLine
 10
257.2052055148
 20
90.5798917936
 30
0.0
 11
257.2052055148
 21
109.6798926426
 31
0.0
  0
LINE
  5
26A
330
1F
100
AcDbEntity
  8
0
  6
Continuous
 62
     7
370
    15
100
AcDbLine
 10
257.2052055148
 20
72.6798921658
 30
0.0
 11
257.2052055148
 21
83.8237488477
 31
0.0
  0
LINE
  5
26B
330
1F
100
AcDbEntity
  8
0
  6
Continuous
 62
     7
370
    15
100
AcDbLine
 10
219.2052067367
 20
83.8237488477
 30
0.0
 11
219.2052067367
 21
72.6798921658
 31
0.0
  0
LINE
  5
26C
330
1F
100
AcDbEntity
  8
0
  6
Continuous
 62
     7
370
    15
100
AcDbLine
 10
219.2052067367
 20
109.6798926426
 30
0.0
 11
219.2052067367
 21
90.5798917936
 31
0.0
  0
LINE
  5
26D
330
1F
100
AcDbEntity
  8
0
  6
Continuous
 62
     7
370
    15
100
AcDbLine
 10
219.2052067367
 20
72.6798921658
 30
0.0
 11
221.2052052018
 21
70.679891838
 31
0.0
  0
LINE
  5
26E
330
1F
100
AcDbEntity
  8
0
  6
Continuous
 62
     7
370
    15
100
AcDbLine
 10
255.2052070496
 20
70.679891838
 30
0.0
 11
257.2052055148
 21
72.6798921658
 31
0.0
  0
LINE
  5
26F
330
1F
100
AcDbEntity
  8
0
  6
Continuous
 62
     7
370
    15
100
AcDbLine
 10
228.4552059245
 20
110.549891351
 30
0.0
 11
228.4552059245
 21
110.1798917933
 31
0.0
  0
LINE
  5
270
330
1F
100
AcDbEntity
  8
0
  6
Continuous
 62
     7
370
    15
100
AcDbLine
 10
247.9552063269
 20
110.1798917933
 30
0.0
 11
247.9552063269
 21
110.549891351
 31
0.0
  0
LINE
  5
271
330
1F
100
AcDbEntity
  8
0
  6
Continuous
 62
     7
370
    15
100
AcDbLine
 10
247.7852064294
 20
111.0498923643
 30
0.0
 11
247.6552059052
 21
111.1798919572
 31
0.0
  0
LINE
  5
272
330
1F
100
AcDbEntity
  8
0
  6
Continuous
 62
     7
370
    15
100
AcDbLine
 10
228.7552063463
 20
111.1798919572
 30
0.0
 11
228.625205822
 21
111.0498923643
 31
0.0
  0
LINE
  5
273
330
1F
100
AcDbEntity
  8
0
  6
Continuous
 62
     7
370
    15
100
AcDbLine
 10
238.2052061257
 20
134.4798914923
 30
0.0
 11
246.2052065057
 21
134.4798914923
 31
0.0
  0
LINE
  5
274
330
1F
100
AcDbEntity
  8
0
  6
Continuous
 62
     7
370
    15
100
AcDbLine
 10
230.2052057457
 20
134.4798914923
 30
0.0
 11
238.2052061257
 21
134.4798914923
 31
0.0
  0
LINE
  5
275
330
1F
100
AcDbEntity
  8
0
  6
Continuous
 62
     7
370
    15
100
AcDbLine
 10
253.2052057904
 20
149.6798917486
 30
0.0
 11
223.205206461
 21
149.6798917486
 31
0.0
  0
LINE
  5
276
330
1F
100
AcDbEntity
  8
0
  6
Continuous
 62
     7
370
    15
100
AcDbLine
 10
253.2052057904
 20
151.6798883511
 30
0.0
 11
223.205206461
 21
151.6798883511
 31
0.0
  0
LINE
  5
277
330
1F
100
AcDbEntity
  8
0
  6
Continuous
 62
     7
370
    15
100
AcDbLine
 10
251.1250344214
 20
153.6798924042
 30
0.0
 11
251.2052063939
 21
153.6798924042
 31
0.0
  0
LINE
  5
278
330
1F
100
AcDbEntity
  8
0
  6
Continuous
 62
     7
370
    15
100
AcDbLine
 10
225.2052058575
 20
153.6798924042
 30
0.0
 11
251.1250344214
 21
153.6798924042
 31
0.0
  0
LINE
  5
279
330
1F
100
AcDbEntity
  8
0
  6
Continuous
 62
     7
370
    15
100
AcDbLine
 10
243.205206014
 20
142.1798914505
 30
0.0
 11
233.2052062375
 21
142.1798914505
 31
0.0
  0
CIRCLE
  5
27A
330
1F
100
AcDbEntity
  8
0
  6
Continuous
 62
     7
370
    15
100
AcDbCircle
 10
238.2052061257
 20
87.1798917486
 30
0.0
 40
11.0
  0
CIRCLE
  5
27B
330
1F
100
AcDbEntity
  8
0
  6
Continuous
 62
     7
370
    15
100
AcDbCircle
 10
238.2052061257
 20
87.1798917486
 30
0.0
 40
9.000000000000014
  0
LINE
  5
27C
330
1F
100
AcDbEntity
  8
0
  6
Continuous
 62
     7
370
    15
100
AcDbLine
 10
242.5728496273
 20
133.179891838
 30
0.0
 11
251.2052063939
 21
133.179891838
 31
0.0
  0
LINE
  5
27D
330
1F
100
AcDbEntity
  8
0
  6
Continuous
 62
     7
370
    15
100
AcDbLine
 10
225.2052058575
 20
133.179891838
 30
0.0
 11
242.5728496273
 21
133.179891838
 31
0.0
  0
LINE
  5
27E
330
1F
100
AcDbEntity
  8
0
  6
Continuous
 62
     7
370
    15
100
AcDbLine
 10
243.244794674
 20
131.1798915102
 30
0.0
 11
223.205206461
 21
131.1798915102
 31
0.0
  0
LINE
  5
27F
330
1F
100
AcDbEntity
  8
0
  6
Continuous
 62
     7
370
    15
100
AcDbLine
 10
253.2052057904
 20
131.1798915102
 30
0.0
 11
243.244794674
 21
131.1798915102
 31
0.0
  0
LINE
  5
280
330
1F
100
AcDbEntity
  8
0
  6
Continuous
 62
     7
370
    15
100
AcDbLine
 10
223.205206461
 20
130.1798932089
 30
0.0
 11
253.2052057904
 21
130.1798932089
 31
0.0
  0
LINE
  5
281
330
1F
100
AcDbEntity
  8
0
  6
Continuous
 62
     7
370
    15
100
AcDbLine
 10
211.1773141769
 20
129.8098899259
 30
0.0
 11
209.2552059439
 21
129.8098899259
 31
0.0
  0
LINE
  5
282
330
1F
100
AcDbEntity
  8
0
  6
Continuous
 62
     7
370
    15
100
AcDbLine
 10
267.1552063075
 20
129.8098899259
 30
0.0
 11
211.1773141769
 21
129.8098899259
 31
0.0
  0
LINE
  5
283
330
1F
100
AcDbEntity
  8
0
  6
Continuous
 62
     7
370
    15
100
AcDbLine
 10
211.1773141769
 20
129.3098926379
 30
0.0
 11
209.2552059439
 21
129.3098926379
 31
0.0
  0
LINE
  5
284
330
1F
100
AcDbEntity
  8
0
  6
Continuous
 62
     7
370
    15
100
AcDbLine
 10
267.1552063075
 20
129.3098926379
 30
0.0
 11
211.1773141769
 21
129.3098926379
 31
0.0
  0
LINE
  5
285
330
1F
100
AcDbEntity
  8
0
  6
Continuous
 62
     7
370
    15
100
AcDbLine
 10
211.4213653949
 20
110.549891351
 30
0.0
 11
267.1552063075
 21
110.549891351
 31
0.0
  0
LINE
  5
286
330
1F
100
AcDbEntity
  8
0
  6
Continuous
 62
     7
370
    15
100
AcDbLine
 10
209.2552059439
 20
110.549891351
 30
0.0
 11
211.4213653949
 21
110.549891351
 31
0.0
  0
LINE
  5
287
330
1F
100
AcDbEntity
  8
0
  6
Continuous
 62
     7
370
    15
100
AcDbLine
 10
211.4213653949
 20
111.0498923643
 30
0.0
 11
267.1552063075
 21
111.0498923643
 31
0.0
  0
LINE
  5
288
330
1F
100
AcDbEntity
  8
0
  6
Continuous
 62
     7
370
    15
100
AcDbLine
 10
209.2552059439
 20
111.0498923643
 30
0.0
 11
211.4213653949
 21
111.0498923643
 31
0.0
  0
LINE
  5
289
330
1F
100
AcDbEntity
  8
0
  6
Continuous
 62
     7
370
    15
100
AcDbLine
 10
209.2052069602
 20
128.1594633891
 30
0.0
 11
267.2052052912
 21
128.1594633891
 31
0.0
  0
LINE
  5
28A
330
1F
100
AcDbEntity
  8
0
  6
Continuous
 62
     7
370
    15
100
AcDbLine
 10
212.2029089478
 20
129.1798911823
 30
0.0
 11
267.2052052912
 21
129.1798911823
 31
0.0
  0
LINE
  5
28B
330
1F
100
AcDbEntity
  8
0
  6
Continuous
 62
     7
370
    15
100
AcDbLine
 10
209.2052069602
 20
129.1798911823
 30
0.0
 11
212.2029089478
 21
129.1798911823
 31
0.0
  0
LINE
  5
28C
330
1F
100
AcDbEntity
  8
0
  6
Continuous
 62
     7
370
    15
100
AcDbLine
 10
212.2029089478
 20
112.1482178403
 30
0.0
 11
209.2052069602
 21
112.1482178403
 31
0.0
  0
LINE
  5
28D
330
1F
100
AcDbEntity
  8
0
  6
Continuous
 62
     7
370
    15
100
AcDbLine
 10
267.2052052912
 20
112.1482178403
 30
0.0
 11
212.2029089478
 21
112.1482178403
 31
0.0
  0
LINE
  5
28E
330
1F
100
AcDbEntity
  8
0
  6
Continuous
 62
     7
370
    15
100
AcDbLine
 10
212.2029089478
 20
111.1798919572
 30
0.0
 11
267.2052052912
 21
111.1798919572
 31
0.0
  0
LINE
  5
28F
330
1F
100
AcDbEntity
  8
0
  6
Continuous
 62
     7
370
    15
100
AcDbLine
 10
209.2052069602
 20
111.1798919572
 30
0.0
 11
212.2029089478
 21
111.1798919572
 31
0.0
  0
LINE
  5
290
330
1F
100
AcDbEntity
  8
0
  6
Continuous
 62
     7
370
    15
100
AcDbLine
 10
257.2052055148
 20
90.1798917746
 30
0.0
 11
257.2052055148
 21
84.1798917225
 31
0.0
  0
LINE
  5
291
330
1F
100
AcDbEntity
  8
0
  6
Continuous
 62
     7
370
    15
100
AcDbLine
 10
219.2052067367
 20
84.1798917225
 30
0.0
 11
219.2052067367
 21
90.1798917746
 31
0.0
  0
LINE
  5
292
330
1F
100
AcDbEntity
  8
0
  6
Continuous
 62
     7
370
    15
100
AcDbLine
 10
219.7052058873
 20
110.1798917933
 30
0.0
 11
256.7052063641
 21
110.1798917933
 31
0.0
  0
LINE
  5
293
330
1F
100
AcDbEntity
  8
0
  6
Continuous
 62
     7
370
    15
100
AcDbLine
 10
257.2052055148
 20
109.6798926426
 30
0.0
 11
219.2052067367
 21
109.6798926426
 31
0.0
  0
LINE
  5
294
330
1F
100
AcDbEntity
  8
0
  6
Continuous
 62
     7
370
    15
100
AcDbLine
 10
219.2052067367
 20
72.6798921658
 30
0.0
 11
257.2052055148
 21
72.6798921658
 31
0.0
  0
SPLINE
  5
295
330
1F
100
AcDbEntity
  8
0
  6
Continuous
 62
     7
370
    15
100
AcDbSpline
210
0.0
220
0.0
230
1.0
 70
     8
 71
     3
 72
    17
 73
    13
 74
     0
 42
0.000000001
 43
0.00000001
 40
0.0
 40
0.0
 40
0.0
 40
0.0
 40
0.1062136975655499
 40
0.2123876962595399
 40
0.3195992730586726
 40
0.4275639364584022
 40
0.534378105138351
 40
0.6399275388300069
 40
0.746070407859819
 40
0.853728843125273
 40
0.9614854082416301
 40
1.0
 40
1.0
 40
1.0
 40
1.0
 10
219.205206736662
 20
90.57989179364723
 30
0.0
 10
219.2120043533063
 20
90.542908687838
 30
0.0
 10
219.2255970458895
 20
90.46895629917833
 30
0.0
 10
219.3204869801566
 20
89.89320674806578
 30
0.0
 10
219.4278702947594
 20
89.0406060961199
 30
0.0
 10
219.506977888959
 20
87.96677455371274
 30
0.0
 10
219.5199673623979
 20
86.80892658246368
 30
0.0
 10
219.4632334262707
 20
85.70233751413524
 30
0.0
 10
219.3605860633383
 20
84.75209669105872
 30
0.0
 10
219.26063719071
 20
84.0903251078264
 30
0.0
 10
219.2030671192312
 20
83.76775859584305
 30
0.0
 10
219.2109208941859
 20
83.81207889094978
 30
0.0
 10
219.2129888680955
 20
83.82374884768707
 30
0.0
  0
ARC
  5
296
330
1F
100
AcDbEntity
  8
0
  6
Continuous
 62
     7
370
    15
100
AcDbCircle
 10
276.0433778311
 20
87.1801168998
 30
0.0
 40
19.14249736965644
100
AcDbArc
 50
169.7697974312
 51
190.0982091835
  0
LINE
  5
297
330
1F
100
AcDbEntity
  8
0
  6
Continuous
 62
     7
370
    15
100
AcDbLine
 10
255.2052070496
 20
70.679891838
 30
0.0
 11
221.2052052018
 21
70.679891838
 31
0.0
  0
ARC
  5
298
330
1F
100
AcDbEntity
  8
0
  6
Continuous
 62
     7
370
    15
100
AcDbCircle
 10
247.7052061257
 20
524.2354361209
 30
0.0
 40
3.50000000000007
100
AcDbArc
 50
115.3769335252
 51
244.6230664748
  0
ARC
  5
299
330
1F
100
AcDbEntity
  8
0
  6
Continuous
 62
     7
370
    15
100
AcDbCircle
 10
228.7052061257
 20
524.2354361209
 30
0.0
 40
3.50000000000007
100
AcDbArc
 50
295.3769335252
 51
64.6230664748
  0
LINE
  5
29A
330
1F
100
AcDbEntity
  8
0
  6
Continuous
 62
     7
370
    15
100
AcDbLine
 10
246.2052065057
 20
519.7354363772
 30
0.0
 11
246.2052065057
 21
521.0731583211
 31
0.0
  0
LINE
  5
29B
330
1F
100
AcDbEntity
  8
0
  6
Continuous
 62
     7
370
    15
100
AcDbLine
 10
230.2052057457
 20
521.0731583211
 30
0.0
 11
230.2052057457
 21
519.7354363772
 31
0.0
  0
LINE
  5
29C
330
1F
100
AcDbEntity
  8
0
  6
Continuous
 62
     7
370
    15
100
AcDbLine
 10
246.2052065057
 20
527.3977140459
 30
0.0
 11
246.2052065057
 21
528.7354359898
 31
0.0
  0
LINE
  5
29D
330
1F
100
AcDbEntity
  8
0
  6
Continuous
 62
     7
370
    15
100
AcDbLine
 10
230.2052057457
 20
528.7354359898
 30
0.0
 11
230.2052057457
 21
527.3977140459
 31
0.0
  0
LINE
  5
29E
330
1F
100
AcDbEntity
  8
0
  6
Continuous
 62
     7
370
    15
100
AcDbLine
 10
253.2052057904
 20
502.5354395184
 30
0.0
 11
253.2052057904
 21
504.5354361209
 31
0.0
  0
LINE
  5
29F
330
1F
100
AcDbEntity
  8
0
  6
Continuous
 62
     7
370
    15
100
AcDbLine
 10
223.205206461
 20
504.5354361209
 30
0.0
 11
223.205206461
 21
502.5354395184
 31
0.0
  0
LINE
  5
2A0
330
1F
100
AcDbEntity
  8
0
  6
Continuous
 62
     7
370
    15
100
AcDbLine
 10
223.205206461
 20
502.5354395184
 30
0.0
 11
225.2052058575
 21
500.5354354653
 31
0.0
  0
LINE
  5
2A1
330
1F
100
AcDbEntity
  8
0
  6
Continuous
 62
     7
370
    15
100
AcDbLine
 10
251.2052063939
 20
500.5354354653
 30
0.0
 11
253.2052057904
 21
502.5354395184
 31
0.0
  0
LINE
  5
2A2
330
1F
100
AcDbEntity
  8
0
  6
Continuous
 62
     7
370
    15
100
AcDbLine
 10
243.205206014
 20
504.5354361209
 30
0.0
 11
243.205206014
 21
512.0354364189
 31
0.0
  0
LINE
  5
2A3
330
1F
100
AcDbEntity
  8
0
  6
Continuous
 62
     7
370
    15
100
AcDbLine
 10
233.2052062375
 20
512.0354364189
 30
0.0
 11
233.2052062375
 21
504.5354361209
 31
0.0
  0
LINE
  5
2A4
330
1F
100
AcDbEntity
  8
0
  6
Continuous
 62
     7
370
    15
100
AcDbLine
 10
253.2052057904
 20
550.5354362103
 30
0.0
 11
251.8038903472
 21
551.9367516535
 31
0.0
  0
LINE
  5
2A5
330
1F
100
AcDbEntity
  8
0
  6
Continuous
 62
     7
370
    15
100
AcDbLine
 10
224.6065219042
 20
551.9367516535
 30
0.0
 11
223.205206461
 21
550.5354362103
 31
0.0
  0
LINE
  5
2A6
330
1F
100
AcDbEntity
  8
0
  6
Continuous
 62
     7
370
    15
100
AcDbLine
 10
223.205206461
 20
550.5354362103
 30
0.0
 11
223.205206461
 21
549.5354360464
 31
0.0
  0
LINE
  5
2A7
330
1F
100
AcDbEntity
  8
0
  6
Continuous
 62
     7
370
    15
100
AcDbLine
 10
253.2052057904
 20
549.5354360464
 30
0.0
 11
253.2052057904
 21
550.5354362103
 31
0.0
  0
LINE
  5
2A8
330
1F
100
AcDbEntity
  8
0
  6
Continuous
 62
     7
370
    15
100
AcDbLine
 10
230.3052065072
 20
559.3810257996
 30
0.0
 11
230.3052065072
 21
551.9367516535
 31
0.0
  0
LINE
  5
2A9
330
1F
100
AcDbEntity
  8
0
  6
Continuous
 62
     7
370
    15
100
AcDbLine
 10
246.1052057442
 20
551.9367516535
 30
0.0
 11
246.1052057442
 21
559.3810257996
 31
0.0
  0
LINE
  5
2AA
330
1F
100
AcDbEntity
  8
0
  6
Continuous
 62
     7
370
    15
100
AcDbLine
 10
233.2052062375
 20
542.4803229543
 30
0.0
 11
233.2052062375
 21
522.4803234014
 31
0.0
  0
LINE
  5
2AB
330
1F
100
AcDbEntity
  8
0
  6
Continuous
 62
     7
370
    15
100
AcDbLine
 10
243.205206014
 20
522.4803234014
 30
0.0
 11
243.205206014
 21
542.4803229543
 31
0.0
  0
LINE
  5
2AC
330
1F
100
AcDbEntity
  8
0
  6
Continuous
 62
     7
370
    15
100
AcDbLine
 10
233.2052062375
 20
542.974695054
 30
0.0
 11
233.2052062375
 21
542.4803229543
 31
0.0
  0
LINE
  5
2AD
330
1F
100
AcDbEntity
  8
0
  6
Continuous
 62
     7
370
    15
100
AcDbLine
 10
243.205206014
 20
542.4803229543
 30
0.0
 11
243.205206014
 21
542.974695054
 31
0.0
  0
LINE
  5
2AE
330
1F
100
AcDbEntity
  8
0
  6
Continuous
 62
     7
370
    15
100
AcDbLine
 10
242.2052063157
 20
512.0354364189
 30
0.0
 11
242.2052063157
 21
522.4803234014
 31
0.0
  0
LINE
  5
2AF
330
1F
100
AcDbEntity
  8
0
  6
Continuous
 62
     7
370
    15
100
AcDbLine
 10
242.2052063157
 20
542.4803229543
 30
0.0
 11
242.2052063157
 21
549.5354360464
 31
0.0
  0
LINE
  5
2B0
330
1F
100
AcDbEntity
  8
0
  6
Continuous
 62
     7
370
    15
100
AcDbLine
 10
234.2052059357
 20
549.5354360464
 30
0.0
 11
234.2052059357
 21
542.4803229543
 31
0.0
  0
LINE
  5
2B1
330
1F
100
AcDbEntity
  8
0
  6
Continuous
 62
     7
370
    15
100
AcDbLine
 10
234.2052059357
 20
522.4803234014
 30
0.0
 11
234.2052059357
 21
512.0354364189
 31
0.0
  0
LINE
  5
2B2
330
1F
100
AcDbEntity
  8
0
  6
Continuous
 62
     7
370
    15
100
AcDbLine
 10
223.205206461
 20
523.0354363593
 30
0.0
 11
225.2052058575
 21
521.0354360315
 31
0.0
  0
LINE
  5
2B3
330
1F
100
AcDbEntity
  8
0
  6
Continuous
 62
     7
370
    15
100
AcDbLine
 10
251.2052063939
 20
521.0354360315
 30
0.0
 11
253.2052057904
 21
523.0354363593
 31
0.0
  0
LINE
  5
2B4
330
1F
100
AcDbEntity
  8
0
  6
Continuous
 62
     7
370
    15
100
AcDbLine
 10
253.2052057904
 20
523.0354363593
 30
0.0
 11
253.2052057904
 21
524.0354346606
 31
0.0
  0
LINE
  5
2B5
330
1F
100
AcDbEntity
  8
0
  6
Continuous
 62
     7
370
    15
100
AcDbLine
 10
223.205206461
 20
524.0354346606
 30
0.0
 11
223.205206461
 21
523.0354363593
 31
0.0
  0
LINE
  5
2B6
330
1F
100
AcDbEntity
  8
0
  6
Continuous
 62
     7
370
    15
100
AcDbLine
 10
247.9552063269
 20
524.0354346606
 30
0.0
 11
247.9552063269
 21
524.4054379436
 31
0.0
  0
LINE
  5
2B7
330
1F
100
AcDbEntity
  8
0
  6
Continuous
 62
     7
370
    15
100
AcDbLine
 10
228.4552059245
 20
524.4054379436
 30
0.0
 11
228.4552059245
 21
524.0354346606
 31
0.0
  0
LINE
  5
2B8
330
1F
100
AcDbEntity
  8
0
  6
Continuous
 62
     7
370
    15
100
AcDbLine
 10
247.7852064294
 20
524.9054352316
 30
0.0
 11
247.6552059052
 21
525.0354366872
 31
0.0
  0
LINE
  5
2B9
330
1F
100
AcDbEntity
  8
0
  6
Continuous
 62
     7
370
    15
100
AcDbLine
 10
228.7552063463
 20
525.0354366872
 30
0.0
 11
228.625205822
 21
524.9054352316
 31
0.0
  0
LINE
  5
2BA
330
1F
100
AcDbEntity
  8
0
  6
Continuous
 62
     7
370
    15
100
AcDbLine
 10
267.1552063075
 20
524.4054379436
 30
0.0
 11
267.1552063075
 21
524.9054352316
 31
0.0
  0
LINE
  5
2BB
330
1F
100
AcDbEntity
  8
0
  6
Continuous
 62
     7
370
    15
100
AcDbLine
 10
209.2552059439
 20
524.9054352316
 30
0.0
 11
209.2552059439
 21
524.4054379436
 31
0.0
  0
LINE
  5
2BC
330
1F
100
AcDbEntity
  8
0
  6
Continuous
 62
     7
370
    15
100
AcDbLine
 10
209.2552059439
 20
543.6654365185
 30
0.0
 11
209.2552059439
 21
543.1654355052
 31
0.0
  0
LINE
  5
2BD
330
1F
100
AcDbEntity
  8
0
  6
Continuous
 62
     7
370
    15
100
AcDbLine
 10
267.1552063075
 20
543.1654355052
 30
0.0
 11
267.1552063075
 21
543.6654365185
 31
0.0
  0
LINE
  5
2BE
330
1F
100
AcDbEntity
  8
0
  6
Continuous
 62
     7
370
    15
100
AcDbLine
 10
209.2052069602
 20
526.0558644804
 30
0.0
 11
209.2052069602
 21
525.0354366872
 31
0.0
  0
LINE
  5
2BF
330
1F
100
AcDbEntity
  8
0
  6
Continuous
 62
     7
370
    15
100
AcDbLine
 10
267.2052052912
 20
525.0354366872
 30
0.0
 11
267.2052052912
 21
526.0558644804
 31
0.0
  0
ARC
  5
2C0
330
1F
100
AcDbEntity
  8
0
  6
Continuous
 62
     7
370
    15
100
AcDbCircle
 10
199.6052061257
 20
534.0614875442
 30
0.0
 40
12.5
100
AcDbArc
 50
320.1746287392
 51
39.8253712608
  0
ARC
  5
2C1
330
1F
100
AcDbEntity
  8
0
  6
Continuous
 62
     7
370
    15
100
AcDbCircle
 10
276.8052061257
 20
534.0614875442
 30
0.0
 40
12.49999999999996
100
AcDbArc
 50
140.1746287392
 51
219.8253712608
  0
LINE
  5
2C2
330
1F
100
AcDbEntity
  8
0
  6
Continuous
 62
     7
370
    15
100
AcDbLine
 10
209.2052069602
 20
543.0354359123
 30
0.0
 11
209.2052069602
 21
542.0671100291
 31
0.0
  0
LINE
  5
2C3
330
1F
100
AcDbEntity
  8
0
  6
Continuous
 62
     7
370
    15
100
AcDbLine
 10
267.2052052912
 20
542.0671100291
 30
0.0
 11
267.2052052912
 21
543.0354359123
 31
0.0
  0
LINE
  5
2C4
330
1F
100
AcDbEntity
  8
0
  6
Continuous
 62
     7
370
    15
100
AcDbLine
 10
248.8850657937
 20
570.035436147
 30
0.0
 11
248.7882110399
 21
570.035436147
 31
0.0
  0
LINE
  5
2C5
330
1F
100
AcDbEntity
  8
0
  6
Continuous
 62
     7
370
    15
100
AcDbLine
 10
248.7882110399
 20
564.0354360948
 30
0.0
 11
248.8850657937
 21
564.0354360948
 31
0.0
  0
LINE
  5
2C6
330
1F
100
AcDbEntity
  8
0
  6
Continuous
 62
     7
370
    15
100
AcDbLine
 10
248.8850657937
 20
564.0354360948
 30
0.0
 11
249.2052060661
 21
564.5899360097
 31
0.0
  0
LINE
  5
2C7
330
1F
100
AcDbEntity
  8
0
  6
Continuous
 62
     7
370
    15
100
AcDbLine
 10
249.2052060661
 20
569.4809362321
 30
0.0
 11
248.8850657937
 21
570.035436147
 31
0.0
  0
LINE
  5
2C8
330
1F
100
AcDbEntity
  8
0
  6
Continuous
 62
     7
370
    15
100
AcDbLine
 10
230.2052057457
 20
528.93543565
 30
0.0
 11
230.4052063373
 21
528.7354359898
 31
0.0
  0
LINE
  5
2C9
330
1F
100
AcDbEntity
  8
0
  6
Continuous
 62
     7
370
    15
100
AcDbLine
 10
230.2052057457
 20
559.4856016832
 30
0.0
 11
230.2052057457
 21
551.9367516535
 31
0.0
  0
LINE
  5
2CA
330
1F
100
AcDbEntity
  8
0
  6
Continuous
 62
     7
370
    15
100
AcDbLine
 10
230.2052057457
 20
549.5354360464
 30
0.0
 11
230.2052057457
 21
528.93543565
 31
0.0
  0
LINE
  5
2CB
330
1F
100
AcDbEntity
  8
0
  6
Continuous
 62
     7
370
    15
100
AcDbLine
 10
246.2052065057
 20
549.0354368958
 30
0.0
 11
246.2052065057
 21
549.5354360464
 31
0.0
  0
LINE
  5
2CC
330
1F
100
AcDbEntity
  8
0
  6
Continuous
 62
     7
370
    15
100
AcDbLine
 10
246.2052065057
 20
551.9367516535
 30
0.0
 11
246.2052065057
 21
559.4856016832
 31
0.0
  0
LINE
  5
2CD
330
1F
100
AcDbEntity
  8
0
  6
Continuous
 62
     7
370
    15
100
AcDbLine
 10
219.2052067367
 20
544.5354352268
 30
0.0
 11
219.7052058873
 21
544.0354360762
 31
0.0
  0
LINE
  5
2CE
330
1F
100
AcDbEntity
  8
0
  6
Continuous
 62
     7
370
    15
100
AcDbLine
 10
256.7052063641
 20
544.0354360762
 30
0.0
 11
257.2052055148
 21
544.5354352268
 31
0.0
  0
LINE
  5
2CF
330
1F
100
AcDbEntity
  8
0
  6
Continuous
 62
     7
370
    15
100
AcDbLine
 10
219.2052067367
 20
563.6354360758
 30
0.0
 11
219.2052067367
 21
544.5354352268
 31
0.0
  0
LINE
  5
2D0
330
1F
100
AcDbEntity
  8
0
  6
Continuous
 62
     7
370
    15
100
AcDbLine
 10
219.2052067367
 20
581.5354357037
 30
0.0
 11
219.2052067367
 21
570.3915790218
 31
0.0
  0
LINE
  5
2D1
330
1F
100
AcDbEntity
  8
0
  6
Continuous
 62
     7
370
    15
100
AcDbLine
 10
257.2052055148
 20
570.3915790218
 30
0.0
 11
257.2052055148
 21
581.5354357037
 31
0.0
  0
LINE
  5
2D2
330
1F
100
AcDbEntity
  8
0
  6
Continuous
 62
     7
370
    15
100
AcDbLine
 10
257.2052055148
 20
544.5354352268
 30
0.0
 11
257.2052055148
 21
563.6354360758
 31
0.0
  0
LINE
  5
2D3
330
1F
100
AcDbEntity
  8
0
  6
Continuous
 62
     7
370
    15
100
AcDbLine
 10
257.2052055148
 20
581.5354357037
 30
0.0
 11
255.2052070496
 21
583.5354360315
 31
0.0
  0
LINE
  5
2D4
330
1F
100
AcDbEntity
  8
0
  6
Continuous
 62
     7
370
    15
100
AcDbLine
 10
221.2052052018
 20
583.5354360315
 30
0.0
 11
219.2052067367
 21
581.5354357037
 31
0.0
  0
LINE
  5
2D5
330
1F
100
AcDbEntity
  8
0
  6
Continuous
 62
     7
370
    15
100
AcDbLine
 10
228.625205822
 20
543.1654355052
 30
0.0
 11
228.7552063463
 21
543.0354359123
 31
0.0
  0
LINE
  5
2D6
330
1F
100
AcDbEntity
  8
0
  6
Continuous
 62
     7
370
    15
100
AcDbLine
 10
247.6552059052
 20
543.0354359123
 30
0.0
 11
247.7852064294
 21
543.1654355052
 31
0.0
  0
LINE
  5
2D7
330
1F
100
AcDbEntity
  8
0
  6
Continuous
 62
     7
370
    15
100
AcDbLine
 10
247.9552063269
 20
543.6654365185
 30
0.0
 11
247.9552063269
 21
544.0354360762
 31
0.0
  0
LINE
  5
2D8
330
1F
100
AcDbEntity
  8
0
  6
Continuous
 62
     7
370
    15
100
AcDbLine
 10
228.4552059245
 20
544.0354360762
 30
0.0
 11
228.4552059245
 21
543.6654365185
 31
0.0
  0
LINE
  5
2D9
330
1F
100
AcDbEntity
  8
0
  6
Continuous
 62
     7
370
    15
100
AcDbLine
 10
246.2052065057
 20
521.0731583211
 30
0.0
 11
242.2052063157
 21
521.0731583211
 31
0.0
  0
LINE
  5
2DA
330
1F
100
AcDbEntity
  8
0
  6
Continuous
 62
     7
370
    15
100
AcDbLine
 10
234.2052059357
 20
521.0731583211
 30
0.0
 11
230.2052057457
 21
521.0731583211
 31
0.0
  0
LINE
  5
2DB
330
1F
100
AcDbEntity
  8
0
  6
Continuous
 62
     7
370
    15
100
AcDbLine
 10
246.2052065057
 20
527.3977140459
 30
0.0
 11
243.205206014
 21
527.3977140459
 31
0.0
  0
LINE
  5
2DC
330
1F
100
AcDbEntity
  8
0
  6
Continuous
 62
     7
370
    15
100
AcDbLine
 10
233.2052062375
 20
527.3977140459
 30
0.0
 11
230.2052057457
 21
527.3977140459
 31
0.0
  0
LINE
  5
2DD
330
1F
100
AcDbEntity
  8
0
  6
Continuous
 62
     7
370
    15
100
AcDbLine
 10
246.2052065057
 20
519.7354363772
 30
0.0
 11
242.2052063157
 21
519.7354363772
 31
0.0
  0
LINE
  5
2DE
330
1F
100
AcDbEntity
  8
0
  6
Continuous
 62
     7
370
    15
100
AcDbLine
 10
234.2052059357
 20
519.7354363772
 30
0.0
 11
230.2052057457
 21
519.7354363772
 31
0.0
  0
LINE
  5
2DF
330
1F
100
AcDbEntity
  8
0
  6
Continuous
 62
     7
370
    15
100
AcDbLine
 10
246.2052065057
 20
528.7354359898
 30
0.0
 11
243.2659939041
 21
528.7354359898
 31
0.0
  0
LINE
  5
2E0
330
1F
100
AcDbEntity
  8
0
  6
Continuous
 62
     7
370
    15
100
AcDbLine
 10
233.2052062375
 20
528.7354359898
 30
0.0
 11
230.2052057457
 21
528.7354359898
 31
0.0
  0
LINE
  5
2E1
330
1F
100
AcDbEntity
  8
0
  6
Continuous
 62
     7
370
    15
100
AcDbLine
 10
250.5704756004
 20
504.5354361209
 30
0.0
 11
253.2052057904
 21
504.5354361209
 31
0.0
  0
LINE
  5
2E2
330
1F
100
AcDbEntity
  8
0
  6
Continuous
 62
     7
370
    15
100
AcDbLine
 10
223.205206461
 20
504.5354361209
 30
0.0
 11
250.5704756004
 21
504.5354361209
 31
0.0
  0
LINE
  5
2E3
330
1F
100
AcDbEntity
  8
0
  6
Continuous
 62
     7
370
    15
100
AcDbLine
 10
250.5704756004
 20
502.5354395184
 30
0.0
 11
253.2052057904
 21
502.5354395184
 31
0.0
  0
LINE
  5
2E4
330
1F
100
AcDbEntity
  8
0
  6
Continuous
 62
     7
370
    15
100
AcDbLine
 10
223.205206461
 20
502.5354395184
 30
0.0
 11
250.5704756004
 21
502.5354395184
 31
0.0
  0
LINE
  5
2E5
330
1F
100
AcDbEntity
  8
0
  6
Continuous
 62
     7
370
    15
100
AcDbLine
 10
248.9217729417
 20
500.5354354653
 30
0.0
 11
225.2052058575
 21
500.5354354653
 31
0.0
  0
LINE
  5
2E6
330
1F
100
AcDbEntity
  8
0
  6
Continuous
 62
     7
370
    15
100
AcDbLine
 10
251.2052063939
 20
500.5354354653
 30
0.0
 11
248.9217729417
 21
500.5354354653
 31
0.0
  0
LINE
  5
2E7
330
1F
100
AcDbEntity
  8
0
  6
Continuous
 62
     7
370
    15
100
AcDbLine
 10
242.3269627725
 20
512.0354364189
 30
0.0
 11
243.205206014
 21
512.0354364189
 31
0.0
  0
LINE
  5
2E8
330
1F
100
AcDbEntity
  8
0
  6
Continuous
 62
     7
370
    15
100
AcDbLine
 10
233.2052062375
 20
512.0354364189
 30
0.0
 11
242.3269627725
 21
512.0354364189
 31
0.0
  0
LINE
  5
2E9
330
1F
100
AcDbEntity
  8
0
  6
Continuous
 62
     7
370
    15
100
AcDbLine
 10
246.4328431633
 20
551.9367516535
 30
0.0
 11
251.8038903472
 21
551.9367516535
 31
0.0
  0
LINE
  5
2EA
330
1F
100
AcDbEntity
  8
0
  6
Continuous
 62
     7
370
    15
100
AcDbLine
 10
224.6065219042
 20
551.9367516535
 30
0.0
 11
246.4328431633
 21
551.9367516535
 31
0.0
  0
LINE
  5
2EB
330
1F
100
AcDbEntity
  8
0
  6
Continuous
 62
     7
370
    15
100
AcDbLine
 10
253.2052057904
 20
550.5354362103
 30
0.0
 11
223.205206461
 21
550.5354362103
 31
0.0
  0
LINE
  5
2EC
330
1F
100
AcDbEntity
  8
0
  6
Continuous
 62
     7
370
    15
100
AcDbLine
 10
223.205206461
 20
549.5354360464
 30
0.0
 11
253.2052057904
 21
549.5354360464
 31
0.0
  0
LINE
  5
2ED
330
1F
100
AcDbEntity
  8
0
  6
Continuous
 62
     7
370
    15
100
AcDbLine
 10
243.205206014
 20
542.4803229543
 30
0.0
 11
233.2052062375
 21
542.4803229543
 31
0.0
  0
LINE
  5
2EE
330
1F
100
AcDbEntity
  8
0
  6
Continuous
 62
     7
370
    15
100
AcDbLine
 10
243.205206014
 20
522.4803234014
 30
0.0
 11
233.2052062375
 21
522.4803234014
 31
0.0
  0
LINE
  5
2EF
330
1F
100
AcDbEntity
  8
0
  6
Continuous
 62
     7
370
    15
100
AcDbLine
 10
242.3760201891
 20
542.974695054
 30
0.0
 11
242.2052063157
 21
542.974695054
 31
0.0
  0
LINE
  5
2F0
330
1F
100
AcDbEntity
  8
0
  6
Continuous
 62
     7
370
    15
100
AcDbLine
 10
234.2052059357
 20
542.974695054
 30
0.0
 11
233.2052062375
 21
542.974695054
 31
0.0
  0
LINE
  5
2F1
330
1F
100
AcDbEntity
  8
0
  6
Continuous
 62
     7
370
    15
100
AcDbLine
 10
243.205206014
 20
542.974695054
 30
0.0
 11
242.3760201891
 21
542.974695054
 31
0.0
  0
CIRCLE
  5
2F2
330
1F
100
AcDbEntity
  8
0
  6
Continuous
 62
     7
370
    15
100
AcDbCircle
 10
238.2052061257
 20
567.0354361209
 30
0.0
 40
9.0
  0
CIRCLE
  5
2F3
330
1F
100
AcDbEntity
  8
0
  6
Continuous
 62
     7
370
    15
100
AcDbCircle
 10
238.2052061257
 20
567.0354361209
 30
0.0
 40
11.0
  0
LINE
  5
2F4
330
1F
100
AcDbEntity
  8
0
  6
Continuous
 62
     7
370
    15
100
AcDbLine
 10
251.2052063939
 20
521.0354360315
 30
0.0
 11
246.2052065057
 21
521.0354360315
 31
0.0
  0
LINE
  5
2F5
330
1F
100
AcDbEntity
  8
0
  6
Continuous
 62
     7
370
    15
100
AcDbLine
 10
230.2052057457
 20
521.0354360315
 30
0.0
 11
225.2052058575
 21
521.0354360315
 31
0.0
  0
LINE
  5
2F6
330
1F
100
AcDbEntity
  8
0
  6
Continuous
 62
     7
370
    15
100
AcDbLine
 10
223.205206461
 20
523.0354363593
 30
0.0
 11
231.9930624326
 21
523.0354363593
 31
0.0
  0
LINE
  5
2F7
330
1F
100
AcDbEntity
  8
0
  6
Continuous
 62
     7
370
    15
100
AcDbLine
 10
244.4173498188
 20
523.0354363593
 30
0.0
 11
253.2052057904
 21
523.0354363593
 31
0.0
  0
LINE
  5
2F8
330
1F
100
AcDbEntity
  8
0
  6
Continuous
 62
     7
370
    15
100
AcDbLine
 10
232.1994872873
 20
524.0354346606
 30
0.0
 11
223.205206461
 21
524.0354346606
 31
0.0
  0
LINE
  5
2F9
330
1F
100
AcDbEntity
  8
0
  6
Continuous
 62
     7
370
    15
100
AcDbLine
 10
253.2052057904
 20
524.0354346606
 30
0.0
 11
244.2109249641
 21
524.0354346606
 31
0.0
  0
LINE
  5
2FA
330
1F
100
AcDbEntity
  8
0
  6
Continuous
 62
     7
370
    15
100
AcDbLine
 10
209.2552059439
 20
524.4054379436
 30
0.0
 11
232.2010751923
 21
524.4054379436
 31
0.0
  0
LINE
  5
2FB
330
1F
100
AcDbEntity
  8
0
  6
Continuous
 62
     7
370
    15
100
AcDbLine
 10
244.2093370591
 20
524.4054379436
 30
0.0
 11
267.1552063075
 21
524.4054379436
 31
0.0
  0
LINE
  5
2FC
330
1F
100
AcDbEntity
  8
0
  6
Continuous
 62
     7
370
    15
100
AcDbLine
 10
209.2552059439
 20
524.9054352316
 30
0.0
 11
232.1404791546
 21
524.9054352316
 31
0.0
  0
LINE
  5
2FD
330
1F
100
AcDbEntity
  8
0
  6
Continuous
 62
     7
370
    15
100
AcDbLine
 10
244.2699330968
 20
524.9054352316
 30
0.0
 11
267.1552063075
 21
524.9054352316
 31
0.0
  0
LINE
  5
2FE
330
1F
100
AcDbEntity
  8
0
  6
Continuous
 62
     7
370
    15
100
AcDbLine
 10
267.1552063075
 20
543.6654365185
 30
0.0
 11
243.205206014
 21
543.6654365185
 31
0.0
  0
LINE
  5
2FF
330
1F
100
AcDbEntity
  8
0
  6
Continuous
 62
     7
370
    15
100
AcDbLine
 10
230.2052057457
 20
543.6654365185
 30
0.0
 11
209.2552059439
 21
543.6654365185
 31
0.0
  0
LINE
  5
300
330
1F
100
AcDbEntity
  8
0
  6
Continuous
 62
     7
370
    15
100
AcDbLine
 10
267.1552063075
 20
543.1654355052
 30
0.0
 11
243.205206014
 21
543.1654355052
 31
0.0
  0
LINE
  5
301
330
1F
100
AcDbEntity
  8
0
  6
Continuous
 62
     7
370
    15
100
AcDbLine
 10
230.2052057457
 20
543.1654355052
 30
0.0
 11
209.2552059439
 21
543.1654355052
 31
0.0
  0
LINE
  5
302
330
1F
100
AcDbEntity
  8
0
  6
Continuous
 62
     7
370
    15
100
AcDbLine
 10
267.2052052912
 20
525.0354366872
 30
0.0
 11
244.2978611325
 21
525.0354366872
 31
0.0
  0
LINE
  5
303
330
1F
100
AcDbEntity
  8
0
  6
Continuous
 62
     7
370
    15
100
AcDbLine
 10
232.1125511189
 20
525.0354366872
 30
0.0
 11
209.2052069602
 21
525.0354366872
 31
0.0
  0
LINE
  5
304
330
1F
100
AcDbEntity
  8
0
  6
Continuous
 62
     7
370
    15
100
AcDbLine
 10
264.2075033036
 20
526.0558644804
 30
0.0
 11
244.7158852701
 21
526.0558644804
 31
0.0
  0
LINE
  5
305
330
1F
100
AcDbEntity
  8
0
  6
Continuous
 62
     7
370
    15
100
AcDbLine
 10
231.6945269813
 20
526.0558644804
 30
0.0
 11
209.2052069602
 21
526.0558644804
 31
0.0
  0
LINE
  5
306
330
1F
100
AcDbEntity
  8
0
  6
Continuous
 62
     7
370
    15
100
AcDbLine
 10
267.2052052912
 20
526.0558644804
 30
0.0
 11
264.2075033036
 21
526.0558644804
 31
0.0
  0
LINE
  5
307
330
1F
100
AcDbEntity
  8
0
  6
Continuous
 62
     7
370
    15
100
AcDbLine
 10
209.2052069602
 20
542.0671100291
 30
0.0
 11
230.2052057457
 21
542.0671100291
 31
0.0
  0
LINE
  5
308
330
1F
100
AcDbEntity
  8
0
  6
Continuous
 62
     7
370
    15
100
AcDbLine
 10
243.205206014
 20
542.0671100291
 30
0.0
 11
267.2052052912
 21
542.0671100291
 31
0.0
  0
LINE
  5
309
330
1F
100
AcDbEntity
  8
0
  6
Continuous
 62
     7
370
    15
100
AcDbLine
 10
267.2052052912
 20
543.0354359123
 30
0.0
 11
243.205206014
 21
543.0354359123
 31
0.0
  0
LINE
  5
30A
330
1F
100
AcDbEntity
  8
0
  6
Continuous
 62
     7
370
    15
100
AcDbLine
 10
230.2052057457
 20
543.0354359123
 30
0.0
 11
209.2052069602
 21
543.0354359123
 31
0.0
  0
LINE
  5
30B
330
1F
100
AcDbEntity
  8
0
  6
Continuous
 62
     7
370
    15
100
AcDbLine
 10
257.2052055148
 20
564.1501515201
 30
0.0
 11
257.2052055148
 21
564.0354360948
 31
0.0
  0
LINE
  5
30C
330
1F
100
AcDbEntity
  8
0
  6
Continuous
 62
     7
370
    15
100
AcDbLine
 10
257.2052055148
 20
570.035436147
 30
0.0
 11
257.2052055148
 21
564.1501515201
 31
0.0
  0
LINE
  5
30D
330
1F
100
AcDbEntity
  8
0
  6
Continuous
 62
     7
370
    15
100
AcDbLine
 10
219.2052067367
 20
566.3441833603
 30
0.0
 11
219.2052067367
 21
570.035436147
 31
0.0
  0
LINE
  5
30E
330
1F
100
AcDbEntity
  8
0
  6
Continuous
 62
     7
370
    15
100
AcDbLine
 10
219.2052067367
 20
564.0354360948
 30
0.0
 11
219.2052067367
 21
566.3441833603
 31
0.0
  0
LINE
  5
30F
330
1F
100
AcDbEntity
  8
0
  6
Continuous
 62
     7
370
    15
100
AcDbLine
 10
248.8850657937
 20
564.4009331736
 30
0.0
 11
248.8850657937
 21
564.0354360948
 31
0.0
  0
LINE
  5
310
330
1F
100
AcDbEntity
  8
0
  6
Continuous
 62
     7
370
    15
100
AcDbLine
 10
248.8850657937
 20
570.035436147
 30
0.0
 11
248.8850657937
 21
569.6699390682
 31
0.0
  0
LINE
  5
311
330
1F
100
AcDbEntity
  8
0
  6
Continuous
 62
     7
370
    15
100
AcDbLine
 10
249.2052060661
 20
567.5720523723
 30
0.0
 11
249.2052060661
 21
564.5899360097
 31
0.0
  0
LINE
  5
312
330
1F
100
AcDbEntity
  8
0
  6
Continuous
 62
     7
370
    15
100
AcDbLine
 10
249.2052060661
 20
569.4809362321
 30
0.0
 11
249.2052060661
 21
567.5720523723
 31
0.0
  0
LINE
  5
313
330
1F
100
AcDbEntity
  8
0
  6
Continuous
 62
     7
370
    15
100
AcDbLine
 10
230.2052057457
 20
528.93543565
 30
0.0
 11
233.2052062375
 21
528.93543565
 31
0.0
  0
LINE
  5
314
330
1F
100
AcDbEntity
  8
0
  6
Continuous
 62
     7
370
    15
100
AcDbLine
 10
243.205206014
 20
549.0354368958
 30
0.0
 11
246.2052065057
 21
549.0354368958
 31
0.0
  0
LINE
  5
315
330
1F
100
AcDbEntity
  8
0
  6
Continuous
 62
     7
370
    15
100
AcDbLine
 10
243.205206014
 20
549.0354368958
 30
0.0
 11
243.205206014
 21
528.93543565
 31
0.0
  0
LINE
  5
316
330
1F
100
AcDbEntity
  8
0
  6
Continuous
 62
     7
370
    15
100
AcDbLine
 10
230.2052057457
 20
544.0354360762
 30
0.0
 11
219.7052058873
 21
544.0354360762
 31
0.0
  0
LINE
  5
317
330
1F
100
AcDbEntity
  8
0
  6
Continuous
 62
     7
370
    15
100
AcDbLine
 10
256.7052063641
 20
544.0354360762
 30
0.0
 11
243.205206014
 21
544.0354360762
 31
0.0
  0
LINE
  5
318
330
1F
100
AcDbEntity
  8
0
  6
Continuous
 62
     7
370
    15
100
AcDbLine
 10
243.205206014
 20
544.5354352268
 30
0.0
 11
257.2052055148
 21
544.5354352268
 31
0.0
  0
LINE
  5
319
330
1F
100
AcDbEntity
  8
0
  6
Continuous
 62
     7
370
    15
100
AcDbLine
 10
219.2052067367
 20
544.5354352268
 30
0.0
 11
230.2052057457
 21
544.5354352268
 31
0.0
  0
LINE
  5
31A
330
1F
100
AcDbEntity
  8
0
  6
Continuous
 62
     7
370
    15
100
AcDbLine
 10
238.2052061257
 20
581.5354357037
 30
0.0
 11
219.2052067367
 21
581.5354357037
 31
0.0
  0
LINE
  5
31B
330
1F
100
AcDbEntity
  8
0
  6
Continuous
 62
     7
370
    15
100
AcDbLine
 10
257.2052055148
 20
581.5354357037
 30
0.0
 11
238.2052061257
 21
581.5354357037
 31
0.0
  0
ARC
  5
31C
330
1F
100
AcDbEntity
  8
0
  6
Continuous
 62
     7
370
    15
100
AcDbCircle
 10
200.3670344204
 20
567.0352109697
 30
0.0
 40
19.14249736965647
100
AcDbArc
 50
349.7697974312
 51
10.0982091835
  0
SPLINE
  5
31D
330
1F
100
AcDbEntity
  8
0
  6
Continuous
 62
     7
370
    15
100
AcDbSpline
210
0.0
220
0.0
230
1.0
 70
     8
 71
     3
 72
    17
 73
    13
 74
     0
 42
0.000000001
 43
0.00000001
 40
0.0
 40
0.0
 40
0.0
 40
0.0
 40
0.1062137072816378
 40
0.2123877156880843
 40
0.3195993022945878
 40
0.4275639755705782
 40
0.5343781435940347
 40
0.6399275396183621
 40
0.7460704183577831
 40
0.8537290043862041
 40
0.9614855793597857
 40
1.0
 40
1.0
 40
1.0
 40
1.0
 10
257.2052055147668
 20
563.6354360758372
 30
0.0
 10
257.1984078981107
 20
563.6724191816439
 30
0.0
 10
257.1848152055039
 20
563.7463715702985
 30
0.0
 10
257.089925271414
 20
564.322121121449
 30
0.0
 10
256.9825419561303
 20
565.1747217732491
 30
0.0
 10
256.9034343670505
 20
566.2485532814283
 30
0.0
 10
256.8904448833384
 20
567.4064010375703
 30
0.0
 10
256.9471788342065
 20
568.512990590739
 30
0.0
 10
257.049826279647
 20
569.4632318494316
 30
0.0
 10
257.1497749658279
 20
570.1250021549956
 30
0.0
 10
257.2073451305668
 20
570.4475692711452
 30
0.0
 10
257.1994913514348
 20
570.4032489471564
 30
0.0
 10
257.1974233833333
 20
570.3915790217974
 30
0.0
  0
LINE
  5
31E
330
1F
100
AcDbEntity
  8
0
  6
Continuous
 62
     7
370
    15
100
AcDbLine
 10
238.2052061257
 20
583.5354360315
 30
0.0
 11
255.2052070496
 21
583.5354360315
 31
0.0
  0
LINE
  5
31F
330
1F
100
AcDbEntity
  8
0
  6
Continuous
 62
     7
370
    15
100
AcDbLine
 10
221.2052052018
 20
583.5354360315
 30
0.0
 11
238.2052061257
 21
583.5354360315
 31
0.0
  0
LINE
  5
320
330
1F
100
AcDbEntity
  8
0
  6
Continuous
 62
     7
370
    15
100
AcDbLine
 10
402.3509356782
 20
456.5693798073
 30
0.0
 11
401.4050234203
 21
456.0233162842
 31
0.0
  0
LINE
  5
321
330
1F
100
AcDbEntity
  8
0
  6
Continuous
 62
     7
370
    15
100
AcDbLine
 10
409.404373437
 20
442.1665322333
 30
0.0
 11
410.3502856948
 21
442.7125957565
 31
0.0
  0
LINE
  5
322
330
1F
100
AcDbEntity
  8
0
  6
Continuous
 62
     7
370
    15
100
AcDbLine
 10
407.768984177
 20
459.6971526292
 30
0.0
 11
406.8230719192
 21
459.151089106
 31
0.0
  0
LINE
  5
323
330
1F
100
AcDbEntity
  8
0
  6
Continuous
 62
     7
370
    15
100
AcDbLine
 10
414.8224219358
 20
445.2943050552
 30
0.0
 11
415.7683341937
 21
445.8403685784
 31
0.0
  0
LINE
  5
324
330
1F
100
AcDbEntity
  8
0
  6
Continuous
 62
     7
370
    15
100
AcDbLine
 10
416.4315033305
 20
371.5295388143
 30
0.0
 11
415.0172921705
 21
370.7131320893
 31
0.0
  0
LINE
  5
325
330
1F
100
AcDbEntity
  8
0
  6
Continuous
 62
     7
370
    15
100
AcDbLine
 10
430.0160727108
 20
344.7316624217
 30
0.0
 11
431.4302838708
 21
345.5480691467
 31
0.0
  0
LINE
  5
326
330
1F
100
AcDbEntity
  8
0
  6
Continuous
 62
     7
370
    15
100
AcDbLine
 10
434.5374950814
 20
352.4157432787
 30
0.0
 11
434.5374983741
 21
354.0485609105
 31
0.0
  0
LINE
  5
327
330
1F
100
AcDbEntity
  8
0
  6
Continuous
 62
     7
370
    15
100
AcDbLine
 10
425.3466040506
 20
369.9693911656
 30
0.0
 11
423.9326174718
 21
370.7859214758
 31
0.0
  0
LINE
  5
328
330
1F
100
AcDbEntity
  8
0
  6
Continuous
 62
     7
370
    15
100
AcDbLine
 10
420.0168856839
 20
362.0526422001
 30
0.0
 11
414.7135846143
 21
358.9911116591
 31
0.0
  0
LINE
  5
329
330
1F
100
AcDbEntity
  8
0
  6
Continuous
 62
     7
370
    15
100
AcDbLine
 10
419.7131781277
 20
350.3306217699
 30
0.0
 11
425.0164791974
 21
353.3921523109
 31
0.0
  0
LINE
  5
32A
330
1F
100
AcDbEntity
  8
0
  6
Continuous
 62
     7
370
    15
100
AcDbLine
 10
416.4315033305
 20
416.4392893083
 30
0.0
 11
415.0172921705
 21
415.6228825834
 31
0.0
  0
LINE
  5
32B
330
1F
100
AcDbEntity
  8
0
  6
Continuous
 62
     7
370
    15
100
AcDbLine
 10
430.0160727108
 20
389.6414129158
 30
0.0
 11
431.4302838708
 21
390.4578196408
 31
0.0
  0
LINE
  5
32C
330
1F
100
AcDbEntity
  8
0
  6
Continuous
 62
     7
370
    15
100
AcDbLine
 10
434.5374950814
 20
397.3254937727
 30
0.0
 11
434.5374983741
 21
398.9583114045
 31
0.0
  0
LINE
  5
32D
330
1F
100
AcDbEntity
  8
0
  6
Continuous
 62
     7
370
    15
100
AcDbLine
 10
425.3466040506
 20
414.8791294923
 30
0.0
 11
423.9326174718
 21
415.6956719699
 31
0.0
  0
LINE
  5
32E
330
1F
100
AcDbEntity
  8
0
  6
Continuous
 62
     7
370
    15
100
AcDbLine
 10
420.0168856839
 20
406.9623926942
 30
0.0
 11
414.7135846143
 21
403.9008621532
 31
0.0
  0
LINE
  5
32F
330
1F
100
AcDbEntity
  8
0
  6
Continuous
 62
     7
370
    15
100
AcDbLine
 10
419.7131781277
 20
395.240372264
 30
0.0
 11
425.0164791974
 21
398.301902805
 31
0.0
  0
LINE
  5
330
330
1F
100
AcDbEntity
  8
0
  6
Continuous
 62
     7
370
    15
100
AcDbLine
 10
389.3225085061
 20
371.9919755123
 30
0.0
 11
389.9880465717
 21
371.6076436458
 31
0.0
  0
LINE
  5
331
330
1F
100
AcDbEntity
  8
0
  6
Continuous
 62
     7
370
    15
100
AcDbLine
 10
389.3225084519
 20
374.3476744428
 30
0.0
 11
393.2323425136
 21
376.6047736029
 31
0.0
  0
LINE
  5
332
330
1F
100
AcDbEntity
  8
0
  6
Continuous
 62
     7
370
    15
100
AcDbLine
 10
397.489160713
 20
370.8640263074
 30
0.0
 11
398.1962676101
 21
371.2722304302
 31
0.0
  0
LINE
  5
333
330
1F
100
AcDbEntity
  8
0
  6
Continuous
 62
     7
370
    15
100
AcDbLine
 10
389.3225084519
 20
329.4379239487
 30
0.0
 11
393.2323425136
 21
331.6950231088
 31
0.0
  0
LINE
  5
334
330
1F
100
AcDbEntity
  8
0
  6
Continuous
 62
     7
370
    15
100
AcDbLine
 10
389.3225085061
 20
327.0822250182
 30
0.0
 11
389.9880465717
 21
326.6978931517
 31
0.0
  0
LINE
  5
335
330
1F
100
AcDbEntity
  8
0
  6
Continuous
 62
     7
370
    15
100
AcDbLine
 10
397.489160713
 20
325.9542758133
 30
0.0
 11
398.1962676101
 21
326.3624799361
 31
0.0
  0
LINE
  5
336
330
1F
100
AcDbEntity
  8
0
  6
Continuous
 62
     7
370
    15
100
AcDbLine
 10
400.2683160013
 20
339.1053418011
 30
0.0
 11
412.3275277137
 21
346.0669765402
 31
0.0
  0
LINE
  5
337
330
1F
100
AcDbEntity
  8
0
  6
Continuous
 62
     7
370
    15
100
AcDbLine
 10
407.3279342003
 20
354.7274664294
 30
0.0
 11
395.2687224878
 21
347.7658316903
 31
0.0
  0
LINE
  5
338
330
1F
100
AcDbEntity
  8
0
  6
Continuous
 62
     7
370
    15
100
AcDbLine
 10
400.2683160013
 20
384.0150922952
 30
0.0
 11
411.9779538496
 21
390.774922338
 31
0.0
  0
LINE
  5
339
330
1F
100
AcDbEntity
  8
0
  6
Continuous
 62
     7
370
    15
100
AcDbLine
 10
406.9783603362
 20
399.4354122272
 30
0.0
 11
395.2687224878
 21
392.6755821844
 31
0.0
  0
LINE
  5
33A
330
1F
100
AcDbEntity
  8
0
  6
Continuous
 62
     7
370
    15
100
AcDbLine
 10
415.2135438668
 20
358.1250627272
 30
0.0
 11
409.3280156952
 21
354.7274196346
 31
0.0
  0
LINE
  5
33B
330
1F
100
AcDbEntity
  8
0
  6
Continuous
 62
     7
370
    15
100
AcDbLine
 10
413.3276907035
 20
347.7990276092
 30
0.0
 11
419.2132188752
 21
351.1966707018
 31
0.0
  0
LINE
  5
33C
330
1F
100
AcDbEntity
  8
0
  6
Continuous
 62
     7
370
    15
100
AcDbLine
 10
415.2135438668
 20
403.0348132213
 30
0.0
 11
408.9784418311
 21
399.4353654325
 31
0.0
  0
LINE
  5
33D
330
1F
100
AcDbEntity
  8
0
  6
Continuous
 62
     7
370
    15
100
AcDbLine
 10
412.9781168394
 20
392.506973407
 30
0.0
 11
419.2132188752
 21
396.1064211959
 31
0.0
  0
LINE
  5
33E
330
1F
100
AcDbEntity
  8
0
  6
Continuous
 62
     7
370
    15
100
AcDbLine
 10
386.1019471341
 20
504.9065693544
 30
0.0
 11
384.6875035278
 21
505.7233754778
 31
0.0
  0
LINE
  5
33F
330
1F
100
AcDbEntity
  8
0
  6
Continuous
 62
     7
370
    15
100
AcDbLine
 10
371.9575137052
 20
505.7233754778
 30
0.0
 11
370.5430700989
 21
504.9065693544
 31
0.0
  0
LINE
  5
340
330
1F
100
AcDbEntity
  8
0
  6
Continuous
 62
     7
370
    15
100
AcDbLine
 10
367.3225084517
 20
500.4170544362
 30
0.0
 11
367.3225084517
 21
496.6078393498
 31
0.0
  0
LINE
  5
341
330
1F
100
AcDbEntity
  8
0
  6
Continuous
 62
     7
370
    15
100
AcDbLine
 10
367.3225084517
 20
461.4512672626
 30
0.0
 11
367.3225084517
 21
309.3465033644
 31
0.0
  0
LINE
  5
342
330
1F
100
AcDbEntity
  8
0
  6
Continuous
 62
     7
370
    15
100
AcDbLine
 10
389.3225087812
 20
434.9883145523
 30
0.0
 11
389.3225087812
 21
466.8646041025
 31
0.0
  0
LINE
  5
343
330
1F
100
AcDbEntity
  8
0
  6
Continuous
 62
     7
370
    15
100
AcDbLine
 10
389.3225087812
 20
495.9701763865
 30
0.0
 11
389.3225087812
 21
500.4170544362
 31
0.0
  0
LINE
  5
344
330
1F
100
AcDbEntity
  8
0
  6
Continuous
 62
     7
370
    15
100
AcDbLine
 10
389.3225087812
 20
378.6081859176
 30
0.0
 11
389.3225087812
 21
431.9330970917
 31
0.0
  0
LINE
  5
345
330
1F
100
AcDbEntity
  8
0
  6
Continuous
 62
     7
370
    15
100
AcDbLine
 10
389.3225087812
 20
333.6984354235
 30
0.0
 11
389.3225087812
 21
375.6032624308
 31
0.0
  0
LINE
  5
346
330
1F
100
AcDbEntity
  8
0
  6
Continuous
 62
     7
370
    15
100
AcDbLine
 10
389.3225087812
 20
309.3465033644
 30
0.0
 11
389.3225087812
 21
330.6935119367
 31
0.0
  0
LINE
  5
347
330
1F
100
AcDbEntity
  8
0
  6
Continuous
 62
     7
370
    15
100
AcDbLine
 10
370.5430700989
 20
304.8569884461
 30
0.0
 11
371.9575137052
 21
304.0401790908
 31
0.0
  0
LINE
  5
348
330
1F
100
AcDbEntity
  8
0
  6
Continuous
 62
     7
370
    15
100
AcDbLine
 10
384.6875035278
 20
304.0401790908
 30
0.0
 11
386.1019471341
 21
304.8569884461
 31
0.0
  0
LINE
  5
349
330
1F
100
AcDbEntity
  8
0
  6
Continuous
 62
     7
370
    15
100
AcDbLine
 10
409.3214169146
 20
466.9207718124
 30
0.0
 11
409.6749710216
 21
467.124874254
 31
0.0
  0
LINE
  5
34A
330
1F
100
AcDbEntity
  8
0
  6
Continuous
 62
     7
370
    15
100
AcDbLine
 10
380.7273248159
 20
517.2691019824
 30
0.0
 11
380.3737707088
 21
517.0649995408
 31
0.0
  0
LINE
  5
34B
330
1F
100
AcDbEntity
  8
0
  6
Continuous
 62
     7
370
    15
100
AcDbLine
 10
409.7918929649
 20
467.1346361201
 30
0.0
 11
410.4766027632
 21
467.529910673
 31
0.0
  0
LINE
  5
34C
330
1F
100
AcDbEntity
  8
0
  6
Continuous
 62
     7
370
    15
100
AcDbLine
 10
381.4789598584
 20
517.7607454903
 30
0.0
 11
380.7942500601
 21
517.3654709373
 31
0.0
  0
LINE
  5
34D
330
1F
100
AcDbEntity
  8
0
  6
Continuous
 62
     7
370
    15
100
AcDbLine
 10
421.798263066
 20
474.0657660462
 30
0.0
 11
422.5198144783
 21
474.4823088102
 31
0.0
  0
LINE
  5
34E
330
1F
100
AcDbEntity
  8
0
  6
Continuous
 62
     7
370
    15
100
AcDbLine
 10
393.5221715735
 20
524.7131436274
 30
0.0
 11
392.8006201612
 21
524.2966008635
 31
0.0
  0
LINE
  5
34F
330
1F
100
AcDbEntity
  8
0
  6
Continuous
 62
     7
370
    15
100
AcDbLine
 10
391.4750855391
 20
472.0845479786
 30
0.0
 11
391.7578818012
 21
472.2478558657
 31
0.0
  0
LINE
  5
350
330
1F
100
AcDbEntity
  8
0
  6
Continuous
 62
     7
370
    15
100
AcDbLine
 10
393.878857389
 20
475.9218918474
 30
0.0
 11
393.8788578829
 21
476.2484548225
 31
0.0
  0
LINE
  5
351
330
1F
100
AcDbEntity
  8
0
  6
Continuous
 62
     7
370
    15
100
AcDbLine
 10
389.3225084519
 20
430.5735183417
 30
0.0
 11
395.0501051382
 21
433.8799895285
 31
0.0
  0
LINE
  5
352
330
1F
100
AcDbEntity
  8
0
  6
Continuous
 62
     7
370
    15
100
AcDbLine
 10
401.2636023043
 20
455.9416756117
 30
0.0
 11
389.3225084519
 21
449.0482288618
 31
0.0
  0
LINE
  5
353
330
1F
100
AcDbEntity
  8
0
  6
Continuous
 62
     7
370
    15
100
AcDbLine
 10
405.4055948416
 20
455.4634234096
 30
0.0
 11
405.2641967106
 21
455.545080395
 31
0.0
  0
LINE
  5
354
330
1F
100
AcDbEntity
  8
0
  6
Continuous
 62
     7
370
    15
100
AcDbLine
 10
354.6344321738
 20
484.2900746544
 30
0.0
 11
354.6344308567
 21
482.6572589235
 31
0.0
  0
LINE
  5
355
330
1F
100
AcDbEntity
  8
0
  6
Continuous
 62
     7
370
    15
100
AcDbLine
 10
366.6532930696
 20
461.8377228983
 30
0.0
 11
368.0672770142
 21
461.0211819418
 31
0.0
  0
LINE
  5
356
330
1F
100
AcDbEntity
  8
0
  6
Continuous
 62
     7
370
    15
100
AcDbLine
 10
377.5686885233
 20
460.0792699418
 30
0.0
 11
403.7316397643
 21
475.1828202052
 31
0.0
  0
LINE
  5
357
330
1F
100
AcDbEntity
  8
0
  6
Continuous
 62
     7
370
    15
100
AcDbLine
 10
384.7331838864
 20
508.092676765
 30
0.0
 11
382.3263920535
 21
506.7032654143
 31
0.0
  0
LINE
  5
358
330
1F
100
AcDbEntity
  8
0
  6
Continuous
 62
     7
370
    15
100
AcDbLine
 10
367.3225086164
 20
498.0417078725
 30
0.0
 11
358.5702326453
 21
492.9891265016
 31
0.0
  0
LINE
  5
359
330
1F
100
AcDbEntity
  8
0
  6
Continuous
 62
     7
370
    15
100
AcDbLine
 10
407.6674402359
 20
483.8818712919
 30
0.0
 11
407.6674402359
 21
484.2900746544
 31
0.0
  0
LINE
  5
35A
330
1F
100
AcDbEntity
  8
0
  6
Continuous
 62
     7
370
    15
100
AcDbLine
 10
394.5880907231
 20
506.9466272446
 30
0.0
 11
394.2345953955
 21
507.1507628639
 31
0.0
  0
LWPOLYLINE
  5
35B
330
1F
100
AcDbEntity
  8
0
  6
Continuous
 62
     7
370
    15
100
AcDbPolyline
 90
       14
 70
   128
 43
0.0
 10
405.4046984286
 20
455.6272518246
 10
406.4752650947
 20
454.8911786678
 10
407.5071388135
 20
453.9456107988
 10
408.4630248926
 20
452.8247320879
 10
409.3083747699
 20
451.5690438282
 10
410.0126357668
 20
450.2239375593
 10
410.5503541505
 20
448.8380240535
 10
410.9020949553
 20
447.4613977405
 10
411.0551453088
 20
446.1438131837
 10
411.0039737663
 20
444.9328807345
 10
410.7504301795
 20
443.8723815559
 10
410.3036778658
 20
443.000639845
 10
409.6798636781
 20
442.3491558701
 10
408.9608894797
 20
441.9618738203
  0
ARC
  5
35C
330
1F
100
AcDbEntity
  8
0
  6
Continuous
 62
     7
370
    15
100
AcDbCircle
 10
403.0784066293
 20
452.4556011511
 30
0.0
 40
3.933319403579548
100
AcDbArc
 50
53.7412916169
 51
116.3118344998
  0
LWPOLYLINE
  5
35D
330
1F
100
AcDbEntity
  8
0
  6
Continuous
 62
     7
370
    15
100
AcDbPolyline
 90
       14
 70
   128
 43
0.0
 10
406.3506106865
 20
456.1733153477
 10
407.4211773525
 20
455.4372421909
 10
408.4530510713
 20
454.4916743219
 10
409.4089371504
 20
453.370795611
 10
410.2542870277
 20
452.1151073513
 10
410.9585480247
 20
450.7700010824
 10
411.4962664083
 20
449.3840875766
 10
411.8480072131
 20
448.0074612637
 10
412.0010575666
 20
446.6898767068
 10
411.9498860242
 20
445.4789442577
 10
411.6963424373
 20
444.4184450791
 10
411.2495901236
 20
443.5467033682
 10
410.6257759359
 20
442.8952193933
 10
410.3502856948
 20
442.7125957565
  0
ARC
  5
35E
330
1F
100
AcDbEntity
  8
0
  6
Continuous
 62
     7
370
    15
100
AcDbCircle
 10
404.0141736529
 20
452.9721818788
 30
0.0
 40
3.963104023102317
100
AcDbArc
 50
53.8751145327
 51
114.8144256785
  0
LWPOLYLINE
  5
35F
330
1F
100
AcDbEntity
  8
0
  6
Continuous
 62
     7
370
    15
100
AcDbPolyline
 90
       17
 70
   128
 43
0.0
 10
410.8227469275
 20
458.7550246465
 10
411.8933135936
 20
458.0189514897
 10
412.9251873124
 20
457.0733836207
 10
413.8810733914
 20
455.9525049097
 10
414.7264232687
 20
454.69681665
 10
415.4306842657
 20
453.3517103812
 10
415.9684026494
 20
451.9657968754
 10
416.3201434542
 20
450.5891705624
 10
416.4731938076
 20
449.2715860056
 10
416.4220222652
 20
448.0606535564
 10
416.1684786784
 20
447.0001543778
 10
415.7217263647
 20
446.1284126669
 10
415.097912177
 20
445.476928692
 10
414.3195823742
 20
445.069261998
 10
413.4148675084
 20
444.9201331282
 10
412.4164669483
 20
445.0349391142
 10
411.9031566937
 20
445.1869127089
  0
LWPOLYLINE
  5
360
330
1F
100
AcDbEntity
  8
0
  6
Continuous
 62
     7
370
    15
100
AcDbPolyline
 90
        9
 70
   128
 43
0.0
 10
405.2702012496
 20
456.6767692038
 10
405.3253504009
 20
456.936329489
 10
405.6770912057
 20
457.9068445131
 10
406.2148095893
 20
458.671921588
 10
406.9190705863
 20
459.2039054175
 10
407.7644204636
 20
459.4835734841
 10
408.7203065427
 20
459.5008096198
 10
409.7521802615
 20
459.2550014522
 10
410.8227469275
 20
458.7550246465
  0
LWPOLYLINE
  5
361
330
1F
100
AcDbEntity
  8
0
  6
Continuous
 62
     7
370
    15
100
AcDbPolyline
 90
       14
 70
   128
 43
0.0
 10
411.7686591854
 20
459.3010881696
 10
412.8392258514
 20
458.5650150128
 10
413.8710995702
 20
457.6194471438
 10
414.8269856493
 20
456.4985684329
 10
415.6723355266
 20
455.2428801732
 10
416.3765965236
 20
453.8977739043
 10
416.9143149072
 20
452.5118603985
 10
417.266055712
 20
451.1352340856
 10
417.4191060655
 20
449.8176495287
 10
417.367934523
 20
448.6067170795
 10
417.1143909362
 20
447.546217901
 10
416.6676386225
 20
446.6744761901
 10
416.0438244348
 20
446.0229922152
 10
415.7683341937
 20
445.8403685784
  0
ARC
  5
362
330
1F
100
AcDbEntity
  8
0
  6
Continuous
 62
     7
370
    15
100
AcDbCircle
 10
409.4322221518
 20
456.0999547007
 30
0.0
 40
3.963104023102119
100
AcDbArc
 50
53.8751145327
 51
114.8144256785
  0
LWPOLYLINE
  5
363
330
1F
100
AcDbEntity
  8
0
  6
Continuous
 62
     7
370
    15
100
AcDbPolyline
 90
       15
 70
   128
 43
0.0
 10
425.0164791974
 20
353.3921523109
 10
425.431204516
 20
353.7287536603
 10
425.8254777471
 20
354.3737422761
 10
426.0274556526
 20
355.2133307014
 10
426.0254003352
 20
356.1987508706
 10
425.8194313207
 20
357.2727104713
 10
425.4215183141
 20
358.3728161672
 10
424.8547869289
 20
359.4351135833
 10
424.152173281
 20
360.3978693412
 10
423.3545109165
 20
361.2051454358
 10
422.5081569755
 20
361.8100190676
 10
421.6622984851
 20
362.1773300924
 10
420.8660938088
 20
362.2857327519
 10
420.1658151951
 20
362.1289437206
 10
420.0168856839
 20
362.0526422001
  0
LWPOLYLINE
  5
364
330
1F
100
AcDbEntity
  8
0
  6
Continuous
 62
     7
370
    15
100
AcDbPolyline
 90
       33
 70
   128
 43
0.0
 10
431.2602483374
 20
345.7414544926
 10
431.9963779495
 20
346.7559122409
 10
432.5559188518
 20
347.9746525355
 10
432.9284476018
 20
349.3749897903
 10
433.107025116
 20
350.9308033551
 10
433.0883244276
 20
352.6131451372
 10
432.8726939066
 20
354.3906532995
 10
432.4641506746
 20
356.2302374366
 10
431.8703048718
 20
358.0976089909
 10
431.1022193874
 20
359.9579949336
 10
430.174201101
 20
361.7767328074
 10
429.1035374643
 20
363.5199459928
 10
427.9101734855
 20
365.1551682082
 10
426.616338664
 20
366.6519238977
 10
425.2461353993
 20
367.9823430272
 10
423.8250873948
 20
369.1216407987
 10
422.3796662774
 20
370.0485856058
 10
420.9367976168
 20
370.7459302109
 10
419.5233589295
 20
371.2006528725
 10
418.1656805228
 20
371.4043185054
 10
416.8890528106
 20
371.3531075865
 10
415.7172578109
 20
371.0479771083
 10
414.6721226521
 20
370.494626317
 10
413.7731165439
 20
369.7033521859
 10
413.0369869318
 20
368.6888822701
 10
412.4774460295
 20
367.4701419755
 10
412.1049172795
 20
366.0698168881
 10
411.9263397653
 20
364.5139911559
 10
411.9450404537
 20
362.8316615412
 10
412.1606709746
 20
361.0541412115
 10
412.5692142067
 20
359.2145692418
 10
413.1630600095
 20
357.3471976875
 10
413.2878416814
 20
357.013381016
  0
LWPOLYLINE
  5
365
330
1F
100
AcDbEntity
  8
0
  6
Continuous
 62
     7
370
    15
100
AcDbPolyline
 90
       12
 70
   128
 43
0.0
 10
417.2875163604
 20
350.0849891806
 10
418.4170262173
 20
348.7928827807
 10
419.787229482
 20
347.4624636513
 10
421.2082774865
 20
346.3231658797
 10
422.6536986039
 20
345.3962089053
 10
424.0965672645
 20
344.6988764675
 10
425.5100059518
 20
344.2441416386
 10
426.8676843585
 20
344.040488173
 10
428.1443120706
 20
344.091699092
 10
429.3161070703
 20
344.3968174027
 10
430.3612422292
 20
344.9501803615
 10
431.2602483374
 20
345.7414544926
  0
LWPOLYLINE
  5
366
330
1F
100
AcDbEntity
  8
0
  6
Continuous
 62
     7
370
    15
100
AcDbPolyline
 90
       23
 70
   128
 43
0.0
 10
432.6744594974
 20
346.5578612175
 10
433.4105891095
 20
347.5723189658
 10
433.9701300118
 20
348.7910592605
 10
434.3426587618
 20
350.1913965153
 10
434.521236276
 20
351.7472100801
 10
434.5025355876
 20
353.4295518622
 10
434.2869050666
 20
355.2070600245
 10
433.8783618346
 20
357.0466441616
 10
433.2845160318
 20
358.9140157159
 10
432.5164305474
 20
360.7744016586
 10
431.588412261
 20
362.5931395323
 10
430.5177486243
 20
364.3363527178
 10
429.3243846455
 20
365.9715749332
 10
428.030549824
 20
367.4683306227
 10
426.6603465593
 20
368.7987497521
 10
425.2392985548
 20
369.9380475237
 10
423.7938774374
 20
370.8649923307
 10
422.3510087768
 20
371.5623369359
 10
420.9375700895
 20
372.0170595974
 10
419.5798916828
 20
372.2207252304
 10
418.3032639706
 20
372.1695143114
 10
417.1314689709
 20
371.8643838333
 10
416.4315033305
 20
371.5295388143
  0
LWPOLYLINE
  5
367
330
1F
100
AcDbEntity
  8
0
  6
Continuous
 62
     7
370
    15
100
AcDbPolyline
 90
        3
 70
   128
 43
0.0
 10
431.4302838708
 20
345.5480691467
 10
431.7754533892
 20
345.7665870864
 10
432.6744594974
 20
346.5578612175
  0
ARC
  5
368
330
1F
100
AcDbEntity
  8
0
  6
Continuous
 62
     7
370
    15
100
AcDbCircle
 10
414.6835289675
 20
353.2004237679
 30
0.0
 40
19.87207683689265
100
AcDbArc
 50
2.4461179531
 51
57.5484766379
  0
LWPOLYLINE
  5
369
330
1F
100
AcDbEntity
  8
0
  6
Continuous
 62
     7
370
    15
100
AcDbPolyline
 90
       16
 70
   128
 43
0.0
 10
420.1279034463
 20
350.6672231193
 10
420.5221766774
 20
351.3122117351
 10
420.724154583
 20
352.1518001604
 10
420.7220992655
 20
353.1372203296
 10
420.516130251
 20
354.2111799303
 10
420.1182172444
 20
355.3112856262
 10
419.5514858593
 20
356.3735830423
 10
418.8488722114
 20
357.3363388002
 10
418.0512098468
 20
358.1436148948
 10
417.2048559059
 20
358.7484885266
 10
416.3589974155
 20
359.1157995514
 10
415.5627927392
 20
359.2242022109
 10
414.8625141255
 20
359.0674131796
 10
414.2988592957
 20
358.6545224771
 10
413.9045860646
 20
358.0095338614
 10
413.7134221184
 20
357.259058633
  0
ARC
  5
36A
330
1F
100
AcDbEntity
  8
0
  6
Continuous
 62
     7
370
    15
100
AcDbCircle
 10
418.6824087193
 20
352.2073292035
 30
0.0
 40
2.112198323192108
100
AcDbArc
 50
242.683119625
 51
313.1849489111
  0
LWPOLYLINE
  5
36B
330
1F
100
AcDbEntity
  8
0
  6
Continuous
 62
     7
370
    15
100
AcDbPolyline
 90
       13
 70
   128
 43
0.0
 10
419.2132188752
 20
351.1966707018
 10
419.5449988666
 20
351.4659543669
 10
419.8905109928
 20
352.0614762848
 10
420.037472773
 20
352.8497822955
 10
419.9749844725
 20
353.7724097458
 10
419.7076807628
 20
354.7609304334
 10
419.2553863032
 20
355.7420285652
 10
418.6516455399
 20
356.6429365985
 10
417.9412354659
 20
357.396849836
 10
417.1768437268
 20
357.9478494638
 10
416.4151617955
 20
358.2550681965
 10
415.712680268
 20
358.2957259714
 10
415.2135438668
 20
358.1250627272
  0
LWPOLYLINE
  5
36C
330
1F
100
AcDbEntity
  8
0
  6
Continuous
 62
     7
370
    15
100
AcDbPolyline
 90
       11
 70
   128
 43
0.0
 10
426.0304125174
 20
401.0564394048
 10
425.8344869652
 20
402.1274117089
 10
425.4457425445
 20
403.2277241605
 10
424.8867719418
 20
404.2934258515
 10
424.1900603344
 20
405.2625813634
 10
423.3960980845
 20
406.078854604
 10
422.5510273451
 20
406.6948263456
 10
421.7039606449
 20
407.0746980762
 10
420.9041264005
 20
407.1963657197
 10
420.1980079788
 20
407.0527913695
 10
420.0168856839
 20
406.9623926942
  0
ARC
  5
36D
330
1F
100
AcDbEntity
  8
0
  6
Continuous
 62
     7
370
    15
100
AcDbCircle
 10
423.3884434548
 20
400.4650564965
 30
0.0
 40
2.707348199263061
100
AcDbArc
 50
306.9659013667
 51
12.6172012936
  0
LWPOLYLINE
  5
36E
330
1F
100
AcDbEntity
  8
0
  6
Continuous
 62
     7
370
    15
100
AcDbPolyline
 90
       27
 70
   128
 43
0.0
 10
433.057872671
 20
397.9050105477
 10
432.7995401485
 20
399.6989935537
 10
432.3496581021
 20
401.5476100122
 10
431.716605852
 20
403.4164315125
 10
430.9121759548
 20
405.2706531547
 10
429.9513542493
 20
407.0757072231
 10
428.8520393167
 20
408.7979970057
 10
427.6347079398
 20
410.4054306087
 10
426.3220374283
 20
411.8680526748
 10
424.9384806919
 20
413.1586425431
 10
423.5098102817
 20
414.2531234775
 10
422.0626397923
 20
415.1311431402
 10
420.6239272369
 20
415.7763237853
 10
419.2204732368
 20
416.1766614542
 10
417.8784211035
 20
416.3246807308
 10
416.6227716559
 20
416.2176296594
 10
415.4769140902
 20
415.8575193875
 10
414.4621938094
 20
415.2510451323
 10
413.5975136752
 20
414.4095000203
 10
412.8989810276
 20
413.3485651673
 10
412.3796080476
 20
412.0879959583
 10
412.0490694125
 20
410.6512874221
 10
411.9135225135
 20
409.0652061487
 10
411.9754922103
 20
407.3592849515
 10
412.2338247328
 20
405.5653019454
 10
412.6837067792
 20
403.7166854869
 10
413.2878416814
 20
401.92313151
  0
LWPOLYLINE
  5
36F
330
1F
100
AcDbEntity
  8
0
  6
Continuous
 62
     7
370
    15
100
AcDbPolyline
 90
       18
 70
   128
 43
0.0
 10
417.2875163604
 20
394.9947396747
 10
417.3986569414
 20
394.8588648905
 10
418.711327453
 20
393.396230657
 10
420.0948841893
 20
392.1056529561
 10
421.5235545995
 20
391.0111598543
 10
422.970725089
 20
390.1331523589
 10
424.4094376443
 20
389.4879595464
 10
425.8128916444
 20
389.087634045
 10
427.1549437778
 20
388.9396147684
 10
428.4105932253
 20
389.0466536724
 10
429.5564507911
 20
389.4067761117
 10
430.5711710718
 20
390.0132503669
 10
431.4358512061
 20
390.8547954788
 10
432.1343838537
 20
391.9157303319
 10
432.6537568337
 20
393.1762873735
 10
432.9842954688
 20
394.6129959097
 10
433.1198423678
 20
396.1990893505
 10
433.057872671
 20
397.9050105477
  0
LWPOLYLINE
  5
370
330
1F
100
AcDbEntity
  8
0
  6
Continuous
 62
     7
370
    15
100
AcDbPolyline
 90
       18
 70
   128
 43
0.0
 10
434.472083831
 20
398.7214172727
 10
434.2137513085
 20
400.5154002787
 10
433.7638692621
 20
402.3640167372
 10
433.130817012
 20
404.2328382374
 10
432.3263871148
 20
406.0870598797
 10
431.3655654093
 20
407.892113948
 10
430.2662504767
 20
409.6144037307
 10
429.0489190998
 20
411.2218373336
 10
427.7362485883
 20
412.6844593998
 10
426.3526918519
 20
413.9750492681
 10
424.9240214417
 20
415.0695302024
 10
423.4768509523
 20
415.9475498652
 10
422.0381383969
 20
416.5927305103
 10
420.6346843968
 20
416.9930681792
 10
419.2926322635
 20
417.1410874557
 10
418.0369828159
 20
417.0340363843
 10
416.8911252502
 20
416.6739261125
 10
416.4315033305
 20
416.4392893083
  0
LWPOLYLINE
  5
371
330
1F
100
AcDbEntity
  8
0
  6
Continuous
 62
     7
370
    15
100
AcDbPolyline
 90
        8
 70
   128
 43
0.0
 10
431.4302838708
 20
390.4578196408
 10
431.9853822318
 20
390.8296570919
 10
432.8500623661
 20
391.6712022038
 10
433.5485950137
 20
392.7321370569
 10
434.0679679937
 20
393.9926940984
 10
434.3985066288
 20
395.4294026347
 10
434.5340535278
 20
397.0154960754
 10
434.472083831
 20
398.7214172727
  0
LINE
  5
372
330
1F
100
AcDbEntity
  8
0
  6
Continuous
 62
     7
370
    15
100
AcDbLine
 10
434.4808082287
 20
400.1681128104
 30
0.0
 11
434.5374983741
 21
398.9583114045
 31
0.0
  0
ARC
  5
373
330
1F
100
AcDbEntity
  8
0
  6
Continuous
 62
     7
370
    15
100
AcDbCircle
 10
414.5196885944
 20
397.9653355196
 30
0.0
 40
20.08229381434225
100
AcDbArc
 50
6.2973036085
 51
57.3757410264
  0
LWPOLYLINE
  5
374
330
1F
100
AcDbEntity
  8
0
  6
Continuous
 62
     7
370
    15
100
AcDbPolyline
 90
       13
 70
   128
 43
0.0
 10
420.7271114478
 20
397.9949088638
 10
420.5311858956
 20
399.0658811679
 10
420.1424414749
 20
400.1661936195
 10
419.5834708722
 20
401.2318953105
 10
418.8867592648
 20
402.2010508224
 10
418.0927970148
 20
403.017324063
 10
417.2477262755
 20
403.6332958046
 10
416.4006595753
 20
404.0131675352
 10
415.6008253309
 20
404.1348351787
 10
414.8947069091
 20
403.9912608285
 10
414.3233413463
 20
403.5907667537
 10
413.9199344321
 20
402.9566479078
 10
413.7134221184
 20
402.1688091271
  0
LWPOLYLINE
  5
375
330
1F
100
AcDbEntity
  8
0
  6
Continuous
 62
     7
370
    15
100
AcDbPolyline
 90
        8
 70
   128
 43
0.0
 10
417.7130969621
 20
395.2404171967
 10
418.0261031667
 20
395.128066882
 10
418.8259374111
 20
395.0063870711
 10
419.5320558329
 20
395.1499735887
 10
420.1034213957
 20
395.5504554961
 10
420.5068283099
 20
396.1845865094
 10
420.718831897
 20
397.0155035566
 10
420.7271114478
 20
397.9949088638
  0
LWPOLYLINE
  5
376
330
1F
100
AcDbEntity
  8
0
  6
Continuous
 62
     7
370
    15
100
AcDbPolyline
 90
       10
 70
   128
 43
0.0
 10
420.0243654324
 20
398.3100456658
 10
419.8355082031
 20
399.2814112074
 10
419.4521796524
 20
400.2742129655
 10
418.9028098054
 20
401.2148396591
 10
418.2281427285
 20
402.0335219282
 10
417.4782154565
 20
402.6695440725
 10
416.7086466418
 20
403.0757348787
 10
415.9765117195
 20
403.2219560701
 10
415.3361097011
 20
403.0973757416
 10
415.2135438668
 20
403.0348132213
  0
ARC
  5
377
330
1F
100
AcDbEntity
  8
0
  6
Continuous
 62
     7
370
    15
100
AcDbCircle
 10
417.9722732477
 20
397.814311354
 30
0.0
 40
2.111121702453187
100
AcDbArc
 50
306.0019935459
 51
13.5810325551
  0
LWPOLYLINE
  5
378
330
1F
100
AcDbEntity
  8
0
  6
Continuous
 62
     7
370
    15
100
AcDbPolyline
 90
       23
 70
   128
 43
0.0
 10
389.3225088018
 20
371.9983307283
 10
390.2025773719
 20
371.5713250501
 10
391.5787978401
 20
371.096633656
 10
392.9000320645
 20
370.8816658358
 10
394.1381201056
 20
370.9309972667
 10
395.2666744144
 20
371.2435933341
 10
396.2616423112
 20
371.8127764381
 10
397.1018166872
 20
372.6264300345
 10
397.7692910587
 20
373.6671982997
 10
398.2498402058
 20
374.912911265
 10
398.5332211272
 20
376.3370072818
 10
398.6133943113
 20
377.9091474965
 10
398.4886514935
 20
379.5958113052
 10
398.1616505595
 20
381.3610427508
 10
397.6393608858
 20
383.167248624
 10
396.9329151674
 20
384.9759167066
 10
396.0573690488
 20
386.7484845775
 10
395.0313843642
 20
388.447191682
 10
393.8768270963
 20
390.0358346239
 10
392.6183050776
 20
391.4805329077
 10
391.2826416492
 20
392.7505194861
 10
389.8983039613
 20
393.8187141424
 10
389.3225088018
 20
394.1935048561
  0
LWPOLYLINE
  5
379
330
1F
100
AcDbEntity
  8
0
  6
Continuous
 62
     7
370
    15
100
AcDbPolyline
 90
       25
 70
   128
 43
0.0
 10
389.3225085342
 20
396.4638140986
 10
390.2083816391
 20
395.9740684239
 10
391.6503040845
 20
394.9932341254
 10
393.0612938094
 20
393.8049165425
 10
394.4150670472
 20
392.4312365595
 10
395.6864056591
 20
390.8978003031
 10
396.851626409
 20
389.2331605522
 10
397.8890236699
 20
387.4683299887
 10
398.7792724532
 20
385.6361956787
 10
399.5057899497
 20
383.7708723326
 10
400.0550424111
 20
381.9070992869
 10
400.4167973729
 20
380.0796203705
 10
400.5843166078
 20
378.3224641447
 10
400.5544792732
 20
376.6683617802
 10
400.3278418393
 20
375.1481284261
 10
399.9086255765
 20
373.790086398
 10
399.3046395053
 20
372.6195256222
 10
398.5271355174
 20
371.6582640744
 10
397.5905963236
 20
370.9241861587
 10
396.5124680848
 20
370.4309955327
 10
395.3128341039
 20
370.1878559476
 10
394.0140417592
 20
370.1993024294
 10
392.6402849884
 20
370.465129452
 10
391.2171540076
 20
370.9803710273
 10
389.9880465717
 20
371.6076436458
  0
LWPOLYLINE
  5
37A
330
1F
100
AcDbEntity
  8
0
  6
Continuous
 62
     7
370
    15
100
AcDbPolyline
 90
       14
 70
   128
 43
0.0
 10
393.2323425136
 20
376.6047736029
 10
393.4280948686
 20
376.7295679617
 10
394.0618106022
 20
377.3478193065
 10
394.5227953798
 20
378.1864867799
 10
394.7943883545
 20
379.215267224
 10
394.8667732619
 20
380.3969860102
 10
394.7373333754
 20
381.6889130535
 10
394.410747983
 20
383.0443740522
 10
393.898820178
 20
384.4143708281
 10
393.2200524267
 20
385.7493837738
 10
392.3989771585
 20
387.0011575472
 10
391.4652701999
 20
388.1244782844
 10
390.4526781704
 20
389.0787175248
 10
389.3977987754
 20
389.8293880505
  0
LWPOLYLINE
  5
37B
330
1F
100
AcDbEntity
  8
0
  6
Continuous
 62
     7
370
    15
100
AcDbPolyline
 90
        3
 70
   128
 43
0.0
 10
390.9154885362
 20
396.3822725467
 10
389.4694937751
 20
397.1373432104
 10
389.3225086989
 20
397.2012192804
  0
LWPOLYLINE
  5
37C
330
1F
100
AcDbEntity
  8
0
  6
Continuous
 62
     7
370
    15
100
AcDbPolyline
 90
       19
 70
   128
 43
0.0
 10
398.1962676101
 20
371.2722304302
 10
398.2977032206
 20
371.3323902815
 10
399.2342424145
 20
372.0664681972
 10
400.0117464024
 20
373.0277297451
 10
400.6157324735
 20
374.1982905209
 10
401.0349487364
 20
375.5563325489
 10
401.2615861703
 20
377.076565903
 10
401.2914235049
 20
378.7306682676
 10
401.12390427
 20
380.4878244934
 10
400.7621493082
 20
382.3153034097
 10
400.2128968467
 20
384.1790764554
 10
399.4863793503
 20
386.0443998015
 10
398.596130567
 20
387.8765341115
 10
397.5587333061
 20
389.641364675
 10
396.3935125562
 20
391.3060044259
 10
395.1221739443
 20
392.8394406823
 10
393.7684007065
 20
394.2131206653
 10
392.3574109816
 20
395.4014382482
 10
390.9154885362
 20
396.3822725467
  0
LWPOLYLINE
  5
37D
330
1F
100
AcDbEntity
  8
0
  6
Continuous
 62
     7
370
    15
100
AcDbPolyline
 90
       14
 70
   128
 43
0.0
 10
393.2323425136
 20
331.6950231088
 10
393.7786130855
 20
332.112924391
 10
394.3247964002
 20
332.8493579045
 10
394.688743986
 20
333.7913384644
 10
394.8573014163
 20
334.9048352628
 10
394.8243774836
 20
336.149610686
 10
394.5911611901
 20
337.4806524765
 10
394.1660819054
 20
338.8498758359
 10
393.564503473
 20
340.2077844367
 10
392.8081677398
 20
341.5052882568
 10
391.9244115468
 20
342.6955183507
 10
390.9451754551
 20
343.7354333296
 10
389.9058518281
 20
344.5874577417
 10
389.3225084365
 20
344.9643184846
  0
LWPOLYLINE
  5
37E
330
1F
100
AcDbEntity
  8
0
  6
Continuous
 62
     7
370
    15
100
AcDbPolyline
 90
       18
 70
   128
 43
0.0
 10
394.8167087328
 20
326.1735106304
 10
395.8694402026
 20
326.6381803743
 10
396.7757377155
 20
327.352946539
 10
397.5162855027
 20
328.3025931113
 10
398.0752995694
 20
329.466872046
 10
398.4408661869
 20
330.8209648992
 10
398.6051927979
 20
332.3360193576
 10
398.5647779215
 20
333.9797446978
 10
398.3204829337
 20
335.7171003913
 10
397.8775149461
 20
337.511060369
 10
397.2453135355
 20
339.323384119
 10
396.4373544983
 20
341.1154600224
 10
395.4708574562
 20
342.8490946858
 10
394.3664216815
 20
344.4873193781
 10
393.147586189
 20
345.9952280195
 10
391.840328584
 20
347.3406801823
 10
390.4725105675
 20
348.4949983834
 10
389.3225088018
 20
349.2837665295
  0
ARC
  5
37F
330
1F
100
AcDbEntity
  8
0
  6
Continuous
 62
     7
370
    15
100
AcDbCircle
 10
393.2106333164
 20
333.4819089871
 30
0.0
 40
7.482791242799323
100
AcDbArc
 50
238.6939827529
 51
282.3941655445
  0
LWPOLYLINE
  5
380
330
1F
100
AcDbEntity
  8
0
  6
Continuous
 62
     7
370
    15
100
AcDbPolyline
 90
       25
 70
   128
 43
0.0
 10
389.3225085342
 20
351.5540636046
 10
390.3413051232
 20
350.9834580851
 10
391.7815027787
 20
349.9827645523
 10
393.1883240816
 20
348.7764486079
 10
394.5355622529
 20
347.3869882166
 10
395.7981211494
 20
345.8402841007
 10
396.9524811833
 20
344.1651230871
 10
397.9771389007
 20
342.3927296655
 10
398.8530070476
 20
340.5560970088
 10
399.5637701838
 20
338.6894653289
 10
400.0961876134
 20
336.827587298
 10
400.4403423147
 20
335.0051584851
 10
400.5898220399
 20
333.2561287743
 10
400.5418424627
 20
331.6130594041
 10
400.2972985451
 20
330.1065701168
 10
399.8607441224
 20
328.7647304052
 10
399.2403128778
 20
327.6125332651
 10
398.4475609503
 20
326.6714263554
 10
397.4972568592
 20
325.9589709104
 10
396.4071022807
 20
325.4884067293
 10
395.1974047518
 20
325.2685125998
 10
393.8906990071
 20
325.3033990375
 10
392.5113263333
 20
325.5923860959
 10
391.0849819846
 20
326.13011863
 10
389.9880465717
 20
326.6978931517
  0
LWPOLYLINE
  5
381
330
1F
100
AcDbEntity
  8
0
  6
Continuous
 62
     7
370
    15
100
AcDbPolyline
 90
       21
 70
   128
 43
0.0
 10
398.1962676101
 20
326.3624799361
 10
398.2043637563
 20
326.3671750332
 10
399.1546678474
 20
327.0796304782
 10
399.9474197749
 20
328.0207373879
 10
400.5678510195
 20
329.172934528
 10
401.0044054422
 20
330.5147742396
 10
401.2489493597
 20
332.0212635269
 10
401.296928937
 20
333.6643328971
 10
401.1474492118
 20
335.413362608
 10
400.8032945105
 20
337.2357914208
 10
400.2708770809
 20
339.0976694517
 10
399.5601139447
 20
340.9643011316
 10
398.6842457978
 20
342.8009337883
 10
397.6595880804
 20
344.57332721
 10
396.5052280465
 20
346.2484882236
 10
395.24266915
 20
347.7951923394
 10
393.8954309786
 20
349.1846527307
 10
392.4886096758
 20
350.3909686751
 10
391.0484120203
 20
351.3916622079
 10
389.6016657981
 20
352.168106787
 10
389.3225086989
 20
352.2914809537
  0
LWPOLYLINE
  5
382
330
1F
100
AcDbEntity
  8
0
  6
Continuous
 62
     7
370
    15
100
AcDbPolyline
 90
       10
 70
   128
 43
0.0
 10
411.1973846663
 20
353.370439183
 10
411.9376237608
 20
352.455231761
 10
412.5552435142
 20
351.4204154047
 10
413.0143501229
 20
350.3261335622
 10
413.2882621621
 20
349.2359841883
 10
413.3610606354
 20
348.2133264167
 10
413.2285147238
 20
347.3175826108
 10
412.8983277514
 20
346.6008233383
 10
412.3896887176
 20
346.1046923969
 10
412.3275277137
 20
346.0669765402
  0
ARC
  5
383
330
1F
100
AcDbEntity
  8
0
  6
Continuous
 62
     7
370
    15
100
AcDbCircle
 10
408.3316692976
 20
351.3943117706
 30
0.0
 40
3.481006194280398
100
AcDbArc
 50
34.5891991601
 51
106.7589745549
  0
LINE
  5
384
330
1F
100
AcDbEntity
  8
0
  6
Continuous
 62
     7
370
    15
100
AcDbLine
 10
412.4273680002
 20
391.1509360306
 30
0.0
 11
411.9779538496
 21
390.774922338
 31
0.0
  0
LWPOLYLINE
  5
385
330
1F
100
AcDbEntity
  8
0
  6
Continuous
 62
     7
370
    15
100
AcDbPolyline
 90
       14
 70
   128
 43
0.0
 10
406.9783603362
 20
399.4354122272
 10
407.0812891964
 20
399.4901229317
 10
407.7729295172
 20
399.666025102
 10
408.5636714022
 20
399.5768491886
 10
409.4075599075
 20
399.2278071199
 10
410.2555512685
 20
398.6391686033
 10
411.0583632865
 20
397.8451509969
 10
411.7693394618
 20
396.8918886919
 10
412.3471605719
 20
395.8347970195
 10
412.7582454564
 20
394.735288192
 10
412.9787037672
 20
393.6572835279
 10
412.9957228622
 20
392.6634317997
 10
412.8083136076
 20
391.8114786642
 10
412.4273680002
 20
391.1509360306
  0
LWPOLYLINE
  5
386
330
1F
100
AcDbEntity
  8
0
  6
Continuous
 62
     7
370
    15
100
AcDbPolyline
 90
       31
 70
   128
 43
0.0
 10
386.1006831674
 20
504.9072990269
 10
387.2476651155
 20
504.1288657852
 10
388.1634897096
 20
503.2542984733
 10
388.8244383989
 20
502.3062478367
 10
389.2133919075
 20
501.3092681303
 10
389.3202782909
 20
500.2891805719
 10
389.1423273818
 20
499.2724052416
 10
388.6841496502
 20
498.2852753507
 10
387.9576100925
 20
497.3533576885
 10
386.981526618
 20
496.5007880857
 10
385.7811794539
 20
495.7496475679
 10
384.3876564491
 20
495.1193905212
 10
382.8370498555
 20
494.6263399453
 10
381.1695183552
 20
494.2832661071
 10
379.4282506142
 20
494.0990543318
 10
377.6583454067
 20
494.0784751783
 10
375.9056413818
 20
494.2220620245
 10
374.2155330002
 20
494.5260958609
 10
372.6317927275
 20
494.9827024235
 10
371.1954393255
 20
495.580055775
 10
369.9436733149
 20
496.3026849113
 10
368.9089148419
 20
497.1318740805
 10
368.1179633751
 20
498.0461478791
 10
367.5913042587
 20
499.0218266799
 10
367.3425775956
 20
500.0336411764
 10
367.3782255977
 20
501.0553857042
 10
367.6973243268
 20
502.0605981745
 10
368.2916100374
 20
503.0232436191
 10
369.145691227
 20
503.9183897519
 10
370.2374467478
 20
504.7228534591
 10
370.5430700989
 20
504.9065693544
  0
LWPOLYLINE
  5
387
330
1F
100
AcDbEntity
  8
0
  6
Continuous
 62
     7
370
    15
100
AcDbPolyline
 90
       36
 70
   128
 43
0.0
 10
384.6864693732
 20
505.7239724826
 10
383.4478689844
 20
506.3209213335
 10
382.0445353333
 20
506.7806036587
 10
380.5215724625
 20
507.0882447348
 10
378.9279296561
 20
507.2339569195
 10
377.3148281765
 20
507.2130567127
 10
375.7341149036
 20
507.0262160643
 10
374.236594406
 20
506.679440039
 10
372.8703981377
 20
506.1838746884
 10
371.679437476
 20
505.5554473863
 10
370.7019907732
 20
504.8143564275
 10
369.969473607
 20
503.9844211754
 10
369.5054300548
 20
503.0923164949
 10
369.3247745034
 20
502.1667149713
 10
369.4333135043
 20
501.2373668758
 10
369.827558418
 20
500.3341415676
 10
370.4948385189
 20
499.4860701322
 10
371.4137061648
 20
498.720409688
 10
372.5546282687
 20
498.0617693769
 10
373.8809347675
 20
497.5313183759
 10
375.3499967581
 20
497.1461057732
 10
376.9145984103
 20
496.9185130289
 10
378.5244509606
 20
496.8558547974
 10
380.1278135547
 20
496.9601450274
 10
381.6731516276
 20
497.2280316679
 10
383.1107974232
 20
497.6509048269
 10
384.3945437133
 20
498.2151727976
 10
385.48312968
 20
498.9026997532
 10
386.3415670592
 20
499.6913880712
 10
386.9422658408
 20
500.555888253
 10
387.2659184052
 20
501.4684146018
 10
387.3021225481
 20
502.3996382643
 10
387.049714292
 20
503.3196286739
 10
386.516806576
 20
504.1988164252
 10
385.7205271549
 20
505.0089436979
 10
384.6864693732
 20
505.7239724826
  0
SPLINE
  5
388
330
1F
100
AcDbEntity
  8
0
  6
Continuous
 62
     7
370
    15
100
AcDbSpline
210
0.0
220
0.0
230
1.0
 70
     8
 71
     3
 72
     9
 73
     5
 74
     0
 42
0.000000001
 43
0.00000001
 40
0.0
 40
0.0
 40
0.0
 40
0.0
 40
0.5090226971534705
 40
1.0
 40
1.0
 40
1.0
 40
1.0
 10
389.3224399632946
 20
431.9445776097337
 30
0.0
 10
389.3201592668777
 20
432.3618488486682
 30
0.0
 10
389.3156787271499
 20
433.1815986187038
 30
0.0
 10
389.3200931355744
 20
434.3673335088781
 30
0.0
 10
389.3222605099162
 20
434.9495024271468
 30
0.0
  0
SPLINE
  5
389
330
1F
100
AcDbEntity
  8
0
  6
Continuous
 62
     7
370
    15
100
AcDbSpline
210
0.0
220
0.0
230
1.0
 70
     8
 71
     3
 72
    10
 73
     6
 74
     0
 42
0.000000001
 43
0.00000001
 40
0.0
 40
0.0
 40
0.0
 40
0.0
 40
0.4244266252546822
 40
0.8486724650449917
 40
0.9999999999999999
 40
0.9999999999999999
 40
0.9999999999999999
 40
0.9999999999999999
 10
386.1006831673781
 20
427.2557299601183
 30
0.0
 10
385.9338027988541
 20
427.1832304881058
 30
0.0
 10
385.6001131448701
 20
427.0382624253919
 30
0.0
 10
385.2017258799333
 20
427.0562532786188
 30
0.0
 10
385.0372282769743
 20
427.1825144421271
 30
0.0
 10
384.9939792007418
 20
427.2157105409611
 30
0.0
  0
SPLINE
  5
38A
330
1F
100
AcDbEntity
  8
0
  6
Continuous
 62
     7
370
    15
100
AcDbSpline
210
0.0
220
0.0
230
1.0
 70
     8
 71
     3
 72
    10
 73
     6
 74
     0
 42
0.000000001
 43
0.00000001
 40
0.0
 40
0.0
 40
0.0
 40
0.0
 40
0.2685438329938097
 40
0.6896257136384945
 40
0.9999999999999999
 40
0.9999999999999999
 40
0.9999999999999999
 40
0.9999999999999999
 10
386.0961625283919
 20
430.6645872763906
 30
0.0
 10
386.2009376733292
 20
430.7257511970892
 30
0.0
 10
386.4700022550533
 20
430.8828213185307
 30
0.0
 10
386.8159428702448
 20
430.9419372262348
 30
0.0
 10
386.9931759427434
 20
430.8493097849247
 30
0.0
 10
387.0683801598623
 20
430.8100057537457
 30
0.0
  0
SPLINE
  5
38B
330
1F
100
AcDbEntity
  8
0
  6
Continuous
 62
     7
370
    15
100
AcDbSpline
210
0.0
220
0.0
230
1.0
 70
     8
 71
     3
 72
    13
 73
     9
 74
     0
 42
0.000000001
 43
0.00000001
 40
0.0
 40
0.0
 40
0.0
 40
0.0
 40
0.0593078298951749
 40
0.2558375901890838
 40
0.4520043255496783
 40
0.6512332935968121
 40
0.8522323214626972
 40
0.9999999999999999
 40
0.9999999999999999
 40
0.9999999999999999
 40
0.9999999999999999
 10
387.4200168322989
 20
430.0897625633533
 30
0.0
 10
387.4288357828932
 20
430.0413064127982
 30
0.0
 10
387.4668782988985
 20
429.8322799687388
 30
0.0
 10
387.3989482549112
 20
429.3304032040958
 30
0.0
 10
387.216527347701
 20
428.6672204664529
 30
0.0
 10
386.8981802591226
 20
428.0271813412658
 30
0.0
 10
386.5098950138714
 20
427.5342230047914
 30
0.0
 10
386.2224638263218
 20
427.3386089549035
 30
0.0
 10
386.1006831673781
 20
427.2557299601183
 30
0.0
  0
LWPOLYLINE
  5
38C
330
1F
100
AcDbEntity
  8
0
  6
Continuous
 62
     7
370
    15
100
AcDbPolyline
 90
       22
 70
   128
 43
0.0
 10
367.3225084517
 20
309.3465033644
 10
367.3425775956
 20
308.9630901046
 10
367.5913042587
 20
307.9512756081
 10
368.1179633751
 20
306.9755968073
 10
368.9089148419
 20
306.0613230087
 10
369.9436733149
 20
305.2321338395
 10
371.1954393255
 20
304.5095047032
 10
372.6317927275
 20
303.9121513518
 10
374.2155330002
 20
303.4555447891
 10
375.9056413818
 20
303.1515109528
 10
377.6583454067
 20
303.0079241065
 10
379.4282506142
 20
303.02850326
 10
381.1695183552
 20
303.2127150353
 10
382.8370498555
 20
303.5557888735
 10
384.3876564491
 20
304.0488394494
 10
385.7811794539
 20
304.6790964962
 10
386.981526618
 20
305.4302370139
 10
387.9576100925
 20
306.2828066167
 10
388.6841496502
 20
307.2147242789
 10
389.1423273818
 20
308.2018541698
 10
389.3202782909
 20
309.2186295001
 10
389.3225087812
 20
309.3465033644
  0
SPLINE
  5
38D
330
1F
100
AcDbEntity
  8
0
  6
Continuous
 62
     7
370
    15
100
AcDbSpline
210
0.0
220
0.0
230
1.0
 70
     8
 71
     3
 72
     9
 73
     5
 74
     0
 42
0.000000001
 43
0.00000001
 40
0.0
 40
0.0
 40
0.0
 40
0.0
 40
0.5090207314635776
 40
1.0
 40
1.0
 40
1.0
 40
1.0
 10
389.3224399632946
 20
375.6032630010361
 30
0.0
 10
389.3201592728592
 20
376.0205324301109
 30
0.0
 10
389.3156787275798
 20
376.8402818102098
 30
0.0
 10
389.320093129896
 20
378.0260166125286
 30
0.0
 10
389.3222605099162
 20
378.6081878184492
 30
0.0
  0
SPLINE
  5
38E
330
1F
100
AcDbEntity
  8
0
  6
Continuous
 62
     7
370
    15
100
AcDbSpline
210
0.0
220
0.0
230
1.0
 70
     8
 71
     3
 72
     9
 73
     5
 74
     0
 42
0.000000001
 43
0.00000001
 40
0.0
 40
0.0
 40
0.0
 40
0.0
 40
0.5090246628433381
 40
1.0
 40
1.0
 40
1.0
 40
1.0
 10
389.3224399632946
 20
330.6935125069649
 30
0.0
 10
389.3201592608962
 20
331.1107855557576
 30
0.0
 10
389.3156787267199
 20
331.930535715724
 30
0.0
 10
389.3200931412526
 20
333.1162706937588
 30
0.0
 10
389.3222605099162
 20
333.698437324378
 30
0.0
  0
ARC
  5
38F
330
1F
100
AcDbEntity
  8
0
  6
Continuous
 62
     7
370
    15
100
AcDbCircle
 10
378.3225086165
 20
316.0934889567
 30
0.0
 40
13.63068006169155
100
AcDbArc
 50
242.1627965363
 51
297.8372034638
  0
LWPOLYLINE
  5
390
330
1F
100
AcDbEntity
  8
0
  6
Continuous
 62
     7
370
    15
100
AcDbPolyline
 90
       33
 70
   128
 43
0.0
 10
423.4703418161
 20
475.1552291905
 10
424.2724345388
 20
475.8105732733
 10
425.4263717871
 20
477.0433379046
 10
426.4135708343
 20
478.4938226253
 10
427.2245236149
 20
480.1480606423
 10
427.8514224251
 20
481.9901240882
 10
428.2882284118
 20
484.0022654738
 10
428.5307347927
 20
486.1651123727
 10
428.5766063689
 20
488.4578347268
 10
428.4254019157
 20
490.8583494127
 10
428.0785768164
 20
493.3435407764
 10
427.5394712087
 20
495.8894758434
 10
426.8132770576
 20
498.4716332143
 10
425.9069894228
 20
501.065146409
 10
424.8293340191
 20
503.6450396031
 10
423.5906908249
 20
506.1864652654
 10
422.2029887155
 20
508.6649486367
 10
420.6795908761
 20
511.0566212766
 10
419.0351696783
 20
513.3384491428
 10
417.2855604833
 20
515.488457817
 10
415.4476141279
 20
517.4859409531
 10
413.5390309716
 20
519.3116617839
 10
411.5781909915
 20
520.9480376607
 10
409.5839784453
 20
522.3793094767
 10
407.5755989191
 20
523.5916934817
 10
405.5723939888
 20
524.5735133709
 10
403.5936559214
 20
525.3153137192
 10
401.6584402373
 20
525.8099512666
 10
399.7853855572
 20
526.0526610857
 10
397.9925290858
 20
526.0411069208
 10
396.2971372016
 20
525.7753997324
 10
394.7155385157
 20
525.2580978477
 10
393.6390948338
 20
524.722908155
  0
LWPOLYLINE
  5
391
330
1F
100
AcDbEntity
  8
0
  6
Continuous
 62
     7
370
    15
100
AcDbPolyline
 90
       33
 70
   128
 43
0.0
 10
423.5186750317
 20
475.1444897166
 10
424.6259860117
 20
476.0146741942
 10
425.77992326
 20
477.2474388255
 10
426.7671223072
 20
478.6979235462
 10
427.5780750878
 20
480.3521615632
 10
428.204973898
 20
482.1942250091
 10
428.6417798847
 20
484.2063663947
 10
428.8842862656
 20
486.3692132936
 10
428.9301578418
 20
488.6619356477
 10
428.7789533886
 20
491.0624503336
 10
428.4321282893
 20
493.5476416973
 10
427.8930226816
 20
496.0935767643
 10
427.1668285305
 20
498.6757341352
 10
426.2605408957
 20
501.2692473299
 10
425.182885492
 20
503.849140524
 10
423.9442422978
 20
506.3905661863
 10
422.5565401884
 20
508.8690495576
 10
421.033142349
 20
511.2607221975
 10
419.3887211512
 20
513.5425500637
 10
417.6391119562
 20
515.6925587379
 10
415.8011656009
 20
517.690041874
 10
413.8925824445
 20
519.5157627048
 10
411.9317424644
 20
521.1521385816
 10
409.9375299182
 20
522.5834103976
 10
407.929150392
 20
523.7957944026
 10
405.9259454617
 20
524.7776142918
 10
403.9472073943
 20
525.5194146401
 10
402.0119917103
 20
526.0140521875
 10
400.1389370301
 20
526.2567620066
 10
398.3460805587
 20
526.2452078417
 10
396.6506886745
 20
525.9795006533
 10
395.0690899886
 20
525.4621987686
 10
394.5951157499
 20
525.2469923458
  0
LWPOLYLINE
  5
392
330
1F
100
AcDbEntity
  8
0
  6
Continuous
 62
     7
370
    15
100
AcDbPolyline
 90
       46
 70
   128
 43
0.0
 10
375.9085584047
 20
511.8980211487
 10
376.7612945172
 20
513.5061896816
 10
377.7882103837
 20
514.9071735158
 10
378.9794172999
 20
516.0874811117
 10
380.3234434204
 20
517.0357439935
 10
381.8073457115
 20
517.742830354
 10
383.4168324403
 20
518.2019307562
 10
385.1364027861
 20
518.4086241862
 10
386.9494983059
 20
518.3609190881
 10
388.8386563748
 20
518.0592754763
 10
390.7856837132
 20
517.5065984181
 10
392.7718295831
 20
516.7082105349
 10
394.7779661632
 20
515.6718000613
 10
396.7847732754
 20
514.4073491861
 10
398.7729244134
 20
512.9270346445
 10
400.7232727917
 20
511.2451123299
 10
402.6170347453
 20
509.377781001
 10
404.435972872
 20
507.3430234186
 10
406.1625698877
 20
505.1604355431
 10
407.7801962266
 20
502.8510376699
 10
409.2732759939
 20
500.4370690254
 10
410.6274278948
 20
497.9417787475
 10
411.8296114308
 20
495.3891970956
 10
412.8682493896
 20
492.8039070376
 10
413.73333848
 20
490.2108067107
 10
414.4165467969
 20
487.6348689346
 10
414.9112954806
 20
485.1009009123
 10
415.2128206203
 20
482.6333054511
 10
415.3182167176
 20
480.2558497854
 10
415.2264696138
 20
477.9914267951
 10
414.9384630758
 20
475.8618458783
 10
414.4569708929
 20
473.8876154584
 10
413.7866292186
 20
472.0877505848
 10
412.9338931061
 20
470.4795805309
 10
411.9069772396
 20
469.0785974572
 10
410.7157703235
 20
467.8982898613
 10
409.3717442029
 20
466.9500277399
 10
407.8878419118
 20
466.2429416646
 10
406.2783551831
 20
465.7838383587
 10
404.5587848372
 20
465.5771474522
 10
402.7456893175
 20
465.6248507442
 10
400.8565312485
 20
465.9264947362
 10
398.9095039102
 20
466.4791721747
 10
396.9233580403
 20
467.2775611986
 10
394.9172214601
 20
468.3139716721
 10
393.4245961862
 20
469.2326897439
  0
ARC
  5
393
330
1F
100
AcDbEntity
  8
0
  6
Continuous
 62
     7
370
    15
100
AcDbCircle
 10
392.4255045122
 20
504.7745581
 30
0.0
 40
17.98758556678993
100
AcDbArc
 50
156.670328616
 51
173.640807713
  0
LWPOLYLINE
  5
394
330
1F
100
AcDbEntity
  8
0
  6
Continuous
 62
     7
370
    15
100
AcDbPolyline
 90
       34
 70
   128
 43
0.0
 10
380.7273248159
 20
517.2691019824
 10
382.1608998186
 20
517.9469327956
 10
383.7703865474
 20
518.4060331978
 10
385.4899568932
 20
518.6127266277
 10
387.303052413
 20
518.5650215296
 10
389.1922104819
 20
518.2633779179
 10
391.1392378203
 20
517.7107008596
 10
393.1253836902
 20
516.9123129764
 10
395.1315202703
 20
515.8759025029
 10
397.1383273825
 20
514.6114516277
 10
399.1264785205
 20
513.131137086
 10
401.0768268988
 20
511.4492147715
 10
402.9705888524
 20
509.5818834426
 10
404.789526979
 20
507.5471258602
 10
406.5161239948
 20
505.3645379847
 10
408.1337503337
 20
503.0551401115
 10
409.626830101
 20
500.6411714669
 10
410.9809820019
 20
498.1458811891
 10
412.1831655379
 20
495.5932995372
 10
413.2218034967
 20
493.0080094791
 10
414.0868925871
 20
490.4149091523
 10
414.770100904
 20
487.8389713762
 10
415.2648495877
 20
485.3050033539
 10
415.5663747274
 20
482.8374078927
 10
415.6717708247
 20
480.459952227
 10
415.5800237209
 20
478.1955292367
 10
415.2920171829
 20
476.0659483198
 10
414.810525
 20
474.0917179
 10
414.1401833257
 20
472.2918530264
 10
413.2874472132
 20
470.6836829725
 10
412.2605313467
 20
469.2826998987
 10
411.0693244306
 20
468.1023923029
 10
409.72529831
 20
467.1541301815
 10
409.6749710216
 20
467.124874254
  0
LWPOLYLINE
  5
395
330
1F
100
AcDbEntity
  8
0
  6
Continuous
 62
     7
370
    15
100
AcDbPolyline
 90
       36
 70
   128
 43
0.0
 10
379.7953881896
 20
516.703291982
 10
380.3340710117
 20
517.0823922145
 10
381.7808893445
 20
517.8623284859
 10
383.3578373891
 20
518.3956044554
 10
385.0497291092
 20
518.6770840286
 10
386.8402688211
 20
518.7040573118
 10
388.7122145122
 20
518.4762636782
 10
390.6475372097
 20
517.9958975577
 10
392.6275986223
 20
517.2675847134
 10
394.6333303056
 20
516.298339743
 10
396.645415544
 20
515.0974960625
 10
398.6444769535
 20
513.6766194687
 10
400.6112626027
 20
512.0493930888
 10
402.5268312699
 20
510.2314883807
 10
404.3727348185
 20
508.2404125109
 10
406.1311961688
 20
506.0953408795
 10
407.7852801902
 20
503.8169316779
 10
409.3190580081
 20
501.4271266631
 10
410.7177578108
 20
498.9489416647
 10
411.9679084117
 20
496.4062433069
 10
413.0574716172
 20
493.8235185059
 10
413.9759554963
 20
491.2256391172
 10
414.7145118449
 20
488.6376258211
 10
415.2660283824
 20
486.0844036423
 10
415.6251946058
 20
483.5905593689
 10
415.7885531564
 20
481.1801096153
 10
415.7545274788
 20
478.8762704054
 10
415.5234468451
 20
476.7012275143
 10
415.0975371359
 20
474.6759273407
 10
414.4808984491
 20
472.819879945
 10
413.6794721734
 20
471.1509499184
 10
412.7009738162
 20
469.6852187331
 10
411.5548284665
 20
468.4368014648
 10
410.2520720132
 20
467.4177152231
 10
408.8052536805
 20
466.6377802825
 10
408.7189487885
 20
466.6007885925
  0
LWPOLYLINE
  5
396
330
1F
100
AcDbEntity
  8
0
  6
Continuous
 62
     7
370
    15
100
AcDbPolyline
 90
       34
 70
   128
 43
0.0
 10
410.4766027632
 20
467.529910673
 10
410.9367818116
 20
467.8129897761
 10
412.2395382649
 20
468.8320760177
 10
413.3856836146
 20
470.080493286
 10
414.3641819718
 20
471.5462244713
 10
415.1656082475
 20
473.215154498
 10
415.7822469342
 20
475.0712018937
 10
416.2081566435
 20
477.0965020672
 10
416.4392372772
 20
479.2715449583
 10
416.4732629548
 20
481.5753841683
 10
416.3099044042
 20
483.9858339218
 10
415.9507381808
 20
486.4796781953
 10
415.3992216433
 20
489.032900374
 10
414.6606652947
 20
491.6209136701
 10
413.7421814156
 20
494.2187930588
 10
412.6526182101
 20
496.8015178599
 10
411.4024676092
 20
499.3442162177
 10
410.0037678065
 20
501.8224012161
 10
408.4699899885
 20
504.2122062308
 10
406.8159059671
 20
506.4906154324
 10
405.0574446169
 20
508.6356870639
 10
403.2115410683
 20
510.6267629336
 10
401.2959724011
 20
512.4446676417
 10
399.3291867519
 20
514.0718940217
 10
397.3301253424
 20
515.4927706155
 10
395.318040104
 20
516.6936142959
 10
393.3123084207
 20
517.6628592663
 10
391.3322470081
 20
518.3911721107
 10
389.3969243106
 20
518.8715382311
 10
387.5249786194
 20
519.0993318648
 10
385.7344389076
 20
519.0723585816
 10
384.0425471875
 20
518.7908790083
 10
382.4655991428
 20
518.2576030389
 10
381.4789598584
 20
517.7607454903
  0
ARC
  5
397
330
1F
100
AcDbEntity
  8
0
  6
Continuous
 62
     7
370
    15
100
AcDbCircle
 10
416.5292003708
 20
483.1340806982
 30
0.0
 40
10.45785846042408
100
AcDbArc
 50
261.5201404019
 51
331.1131280447
  0
LWPOLYLINE
  5
398
330
1F
100
AcDbEntity
  8
0
  6
Continuous
 62
     7
370
    15
100
AcDbPolyline
 90
       35
 70
   128
 43
0.0
 10
388.2901566298
 20
519.0359630377
 10
388.9130409527
 20
520.2802870651
 10
389.8915393098
 20
521.7460182504
 10
391.0376846595
 20
522.9944378002
 10
392.3404411128
 20
524.0135221407
 10
393.7872594456
 20
524.7934584121
 10
395.3642074902
 20
525.3267343815
 10
397.0560992104
 20
525.6082139547
 10
398.8466389222
 20
525.6351872379
 10
400.7185846133
 20
525.4073936043
 10
402.6539073109
 20
524.9270274839
 10
404.6339687235
 20
524.1987146395
 10
406.6397004068
 20
523.2294696691
 10
408.6517856451
 20
522.0286259887
 10
410.6508470546
 20
520.6077493948
 10
412.6176327038
 20
518.9805230149
 10
414.533201371
 20
517.1626183068
 10
416.3791049196
 20
515.171542437
 10
418.1375662699
 20
513.0264708056
 10
419.7916502913
 20
510.748061604
 10
421.3254281093
 20
508.3582565893
 10
422.7241279119
 20
505.8800715909
 10
423.9742785128
 20
503.337373233
 10
425.0638417184
 20
500.754648432
 10
425.9823255975
 20
498.1567690433
 10
426.7208819461
 20
495.5687557472
 10
427.2723984835
 20
493.0155335685
 10
427.6315647069
 20
490.521689295
 10
427.7949232576
 20
488.1112395415
 10
427.7608975799
 20
485.8074003315
 10
427.5298169462
 20
483.6323574404
 10
427.103907237
 20
481.6070572669
 10
426.4872685502
 20
479.7510098712
 10
425.6858422745
 20
478.0820798445
 10
425.6858422745
 20
478.0820798445
  0
LWPOLYLINE
  5
399
330
1F
100
AcDbEntity
  8
0
  6
Continuous
 62
     7
370
    15
100
AcDbPolyline
 90
       34
 70
   128
 43
0.0
 10
393.5221715735
 20
524.7131436274
 10
394.5088108579
 20
525.210001176
 10
396.0857589025
 20
525.7432771455
 10
397.7776506227
 20
526.0247567187
 10
399.5681903345
 20
526.0517300019
 10
401.4401360257
 20
525.8239363683
 10
403.3754587232
 20
525.3435702478
 10
405.3555201358
 20
524.6152574035
 10
407.3612518191
 20
523.6460124331
 10
409.3733370575
 20
522.4451687526
 10
411.3723984669
 20
521.0242921588
 10
413.3391841161
 20
519.3970657789
 10
415.2547527833
 20
517.5791610708
 10
417.1006563319
 20
515.588085201
 10
418.8591176822
 20
513.4430135696
 10
420.5132017036
 20
511.164604368
 10
422.0469795216
 20
508.7747993532
 10
423.4456793242
 20
506.2966143548
 10
424.6958299251
 20
503.753915997
 10
425.7853931307
 20
501.171191196
 10
426.7038770098
 20
498.5733118073
 10
427.4424333584
 20
495.9852985112
 10
427.9939498959
 20
493.4320763324
 10
428.3531161192
 20
490.938232059
 10
428.5164746699
 20
488.5277823054
 10
428.4824489922
 20
486.2239430955
 10
428.2513683586
 20
484.0489002044
 10
427.8254586493
 20
482.0236000308
 10
427.2088199625
 20
480.1675526351
 10
426.4073936868
 20
478.4986226085
 10
425.4288953297
 20
477.0328914232
 10
424.28274998
 20
475.7844741549
 10
422.9799935267
 20
474.7653879132
 10
422.5198144783
 20
474.4823088102
  0
LWPOLYLINE
  5
39A
330
1F
100
AcDbEntity
  8
0
  6
Continuous
 62
     7
370
    15
100
AcDbPolyline
 90
       21
 70
   128
 43
0.0
 10
393.7977413339
 20
475.2041415969
 10
393.8774268657
 20
476.0110105327
 10
393.7496028828
 20
476.6892806153
 10
393.4267817308
 20
477.1725607391
 10
392.940563174
 20
477.4135442006
 10
392.338541747
 20
477.3886386146
 10
391.6796475416
 20
477.1002861379
 10
391.0283776969
 20
476.5767086912
 10
390.4484830772
 20
475.8691607019
 10
389.9967278009
 20
475.0469014492
 10
389.7173327201
 20
474.190417741
 10
389.6376471883
 20
473.3835503261
 10
389.7654711712
 20
472.7052787227
 10
390.0882923232
 20
472.2219985988
 10
390.57451088
 20
471.9810151373
 10
391.1765323071
 20
472.0059207234
 10
391.8354265125
 20
472.2942732
 10
392.4866963571
 20
472.8178506467
 10
393.0665909768
 20
473.5253986361
 10
393.5183462531
 20
474.3476578887
 10
393.7977413339
 20
475.2041415969
  0
LINE
  5
39B
330
1F
100
AcDbEntity
  8
0
  6
Continuous
 62
     7
370
    15
100
AcDbLine
 10
392.2047946501
 20
476.7690887389
 30
0.0
 11
390.6210296409
 21
475.3952772699
 31
0.0
  0
LINE
  5
39C
330
1F
100
AcDbEntity
  8
0
  6
Continuous
 62
     7
370
    15
100
AcDbLine
 10
390.6210296409
 20
475.3952772699
 30
0.0
 11
390.1737720589
 21
473.3234667028
 31
0.0
  0
LINE
  5
39D
330
1F
100
AcDbEntity
  8
0
  6
Continuous
 62
     7
370
    15
100
AcDbLine
 10
390.1737720589
 20
473.3234667028
 30
0.0
 11
391.3102794039
 21
472.625470599
 31
0.0
  0
LINE
  5
39E
330
1F
100
AcDbEntity
  8
0
  6
Continuous
 62
     7
370
    15
100
AcDbLine
 10
391.3102794039
 20
472.625470599
 30
0.0
 11
392.8940444132
 21
473.999283589
 31
0.0
  0
LINE
  5
39F
330
1F
100
AcDbEntity
  8
0
  6
Continuous
 62
     7
370
    15
100
AcDbLine
 10
392.8940444132
 20
473.999283589
 30
0.0
 11
393.3413019951
 21
476.0710926352
 31
0.0
  0
LINE
  5
3A0
330
1F
100
AcDbEntity
  8
0
  6
Continuous
 62
     7
370
    15
100
AcDbLine
 10
393.3413019951
 20
476.0710926352
 30
0.0
 11
392.2047946501
 21
476.7690887389
 31
0.0
  0
LINE
  5
3A1
330
1F
100
AcDbEntity
  8
0
  6
Continuous
 62
     7
370
    15
100
AcDbLine
 10
392.1757901686
 20
476.7439282909
 30
0.0
 11
393.3413019951
 21
476.0710926352
 31
0.0
  0
LINE
  5
3A2
330
1F
100
AcDbEntity
  8
0
  6
Continuous
 62
     7
370
    15
100
AcDbLine
 10
390.6049423863
 20
475.3207540608
 30
0.0
 11
392.8940444132
 21
473.999283589
 31
0.0
  0
LWPOLYLINE
  5
3A3
330
1F
100
AcDbEntity
  8
0
  6
Continuous
 62
     7
370
    15
100
AcDbPolyline
 90
       19
 70
   128
 43
0.0
 10
385.7212381772
 20
426.8032310897
 10
386.3211386382
 20
427.1171748699
 10
386.8944489241
 20
427.6546511559
 10
387.3720193097
 20
428.3508339804
 10
387.696247936
 20
429.121750665
 10
387.8280277958
 20
429.8744246023
 10
387.7514644234
 20
430.5180672352
 10
387.475792424
 20
430.9750400444
 10
387.0342619567
 20
431.1902376719
 10
386.4801281576
 20
431.1376974566
 10
385.8802276966
 20
430.8237536763
 10
385.3069174107
 20
430.2862773903
 10
384.829347025
 20
429.5900945658
 10
384.5051183988
 20
428.8191717976
 10
384.373338539
 20
428.066503944
 10
384.4499019113
 20
427.4228613111
 10
384.7255739107
 20
426.9658824181
 10
385.167104378
 20
426.7506908743
 10
385.7212381772
 20
426.8032310897
  0
ARC
  5
3A4
330
1F
100
AcDbEntity
  8
0
  6
Continuous
 62
     7
370
    15
100
AcDbCircle
 10
385.3800002366
 20
430.1765585773
 30
0.0
 40
2.632375155876513
100
AcDbArc
 50
333.5674697801
 51
26.4325302199
  0
LWPOLYLINE
  5
3A5
330
1F
100
AcDbEntity
  8
0
  6
Continuous
 62
     7
370
    15
100
AcDbPolyline
 90
        6
 70
   128
 43
0.0
 10
384.0114349107
 20
429.1975141022
 10
383.8046898015
 20
428.4439001376
 10
383.762142558
 20
427.6545071467
 10
383.92634882
 20
427.0067124326
 10
384.2812353273
 20
426.5639434358
 10
384.3744317229
 20
426.502999845
  0
LINE
  5
3A6
330
1F
100
AcDbEntity
  8
0
  6
Continuous
 62
     7
370
    15
100
AcDbLine
 10
387.2698661326
 20
430.066569665
 30
0.0
 11
386.3694290278
 21
430.505428328
 31
0.0
  0
LINE
  5
3A7
330
1F
100
AcDbEntity
  8
0
  6
Continuous
 62
     7
370
    15
100
AcDbLine
 10
385.2002461243
 20
429.4093229718
 30
0.0
 11
386.3694290278
 21
430.505428328
 31
0.0
  0
LINE
  5
3A8
330
1F
100
AcDbEntity
  8
0
  6
Continuous
 62
     7
370
    15
100
AcDbLine
 10
384.9315002021
 20
427.8743588813
 30
0.0
 11
385.2002461243
 21
429.4093229718
 31
0.0
  0
LINE
  5
3A9
330
1F
100
AcDbEntity
  8
0
  6
Continuous
 62
     7
370
    15
100
AcDbLine
 10
384.9315002021
 20
427.8743588813
 30
0.0
 11
385.8319373069
 21
427.4355002182
 31
0.0
  0
LINE
  5
3AA
330
1F
100
AcDbEntity
  8
0
  6
Continuous
 62
     7
370
    15
100
AcDbLine
 10
387.0011202104
 20
428.5316055744
 30
0.0
 11
385.8319373069
 21
427.4355002182
 31
0.0
  0
LINE
  5
3AB
330
1F
100
AcDbEntity
  8
0
  6
Continuous
 62
     7
370
    15
100
AcDbLine
 10
387.0011202104
 20
428.5316055744
 30
0.0
 11
387.2698661326
 21
430.066569665
 31
0.0
  0
LINE
  5
3AC
330
1F
100
AcDbEntity
  8
0
  6
Continuous
 62
     7
370
    15
100
AcDbLine
 10
384.9443727511
 20
427.94788033
 30
0.0
 11
385.8319373069
 21
427.4355002182
 31
0.0
  0
LINE
  5
3AD
330
1F
100
AcDbEntity
  8
0
  6
Continuous
 62
     7
370
    15
100
AcDbLine
 10
385.3071277333
 20
429.5095266158
 30
0.0
 11
387.0011202104
 21
428.5316055744
 31
0.0
  0
LWPOLYLINE
  5
3AE
330
1F
100
AcDbEntity
  8
0
  6
Continuous
 62
     7
370
    15
100
AcDbPolyline
 90
        9
 70
   128
 43
0.0
 10
408.7988111395
 20
452.0715563948
 10
407.9154061154
 20
453.2521540235
 10
406.9393700561
 20
454.2846976605
 10
405.9047932591
 20
455.1331300675
 10
404.847810226
 20
455.7678124569
 10
403.8053381388
 20
456.1665812748
 10
402.8137875941
 20
456.3155046453
 10
401.9077902128
 20
456.2093796416
 10
401.2636023043
 20
455.9416756117
  0
LINE
  5
3AF
330
1F
100
AcDbEntity
  8
0
  6
Continuous
 62
     7
370
    15
100
AcDbLine
 10
408.7988111395
 20
452.0715563948
 30
0.0
 11
394.5859639568
 21
443.8666543625
 31
0.0
  0
LWPOLYLINE
  5
3B0
330
1F
100
AcDbEntity
  8
0
  6
Continuous
 62
     7
370
    15
100
AcDbPolyline
 90
       10
 70
   128
 43
0.0
 10
395.0501051382
 20
433.8799895285
 10
395.3892940847
 20
434.1122353536
 10
396.0213041881
 20
434.8208105183
 10
396.4570393814
 20
435.7657965096
 10
396.6792951894
 20
436.9098913885
 10
396.6792951894
 20
438.2079224557
 10
396.4570393814
 20
439.6086284284
 10
396.0213041881
 20
441.0567035654
 10
395.3892940847
 20
442.4949759796
 10
394.5859639568
 20
443.8666543625
  0
LINE
  5
3B1
330
1F
100
AcDbEntity
  8
0
  6
Continuous
 62
     7
370
    15
100
AcDbLine
 10
395.4657359556
 20
434.1759437581
 30
0.0
 11
408.7988111395
 21
441.8729642261
 31
0.0
  0
LINE
  5
3B2
330
1F
100
AcDbEntity
  8
0
  6
Continuous
 62
     7
370
    15
100
AcDbLine
 10
408.7988111395
 20
452.0715563948
 30
0.0
 11
408.9402322555
 21
451.942250745
 31
0.0
  0
LINE
  5
3B3
330
1F
100
AcDbEntity
  8
0
  6
Continuous
 62
     7
370
    15
100
AcDbLine
 10
408.9402322555
 20
451.942250745
 30
0.0
 11
408.9402322555
 21
442.1655573046
 31
0.0
  0
LINE
  5
3B4
330
1F
100
AcDbEntity
  8
0
  6
Continuous
 62
     7
370
    15
100
AcDbLine
 10
408.9402322555
 20
442.1655573046
 30
0.0
 11
408.7988111395
 21
441.8729642261
 31
0.0
  0
ARC
  5
3B5
330
1F
100
AcDbEntity
  8
0
  6
Continuous
 62
     7
370
    15
100
AcDbCircle
 10
399.7861349743
 20
446.2878119125
 30
0.0
 40
10.75965499195215
100
AcDbArc
 50
31.703412104
 51
58.5152650907
  0
LWPOLYLINE
  5
3B6
330
1F
100
AcDbEntity
  8
0
  6
Continuous
 62
     7
370
    15
100
AcDbPolyline
 90
       41
 70
   128
 43
0.0
 10
354.6344321738
 20
484.2900746544
 10
354.6408042504
 20
484.7641599861
 10
354.7934285256
 20
486.5780486465
 10
355.1473053195
 20
488.2396818622
 10
355.6970688115
 20
489.7238725988
 10
356.4343844622
 20
491.0081225399
 10
357.3480761129
 20
492.0729608858
 10
358.4242932555
 20
492.9022485537
 10
359.6467211082
 20
493.4834128008
 10
360.9968295458
 20
493.8076434467
 10
362.4541510049
 20
493.8700275014
 10
363.9965955979
 20
493.6696174468
 10
365.6007805495
 20
493.2094520847
 10
367.2423880336
 20
492.4965066181
 10
368.896533135
 20
491.5415889771
 10
370.5381406191
 20
490.3591747864
 10
372.1423255707
 20
488.9671876275
 10
373.6847701636
 20
487.386729062
 10
375.1420916228
 20
485.6417574654
 10
376.4922000604
 20
483.7587247976
 10
377.7146279131
 20
481.7661753938
 10
378.7908450557
 20
479.694313862
 10
379.7045367064
 20
477.574549591
 10
380.4418523571
 20
475.4390131196
 10
380.9916158491
 20
473.3200789662
 10
381.345492643
 20
471.249868301
 10
381.4981169182
 20
469.2597634034
 10
381.4471785005
 20
467.3799285774
 10
381.1934452528
 20
465.6388668049
 10
380.7407670264
 20
464.062964228
 10
380.096005855
 20
462.6761121927
 10
379.2689332219
 20
461.4993391753
 10
378.2720878148
 20
460.5504761654
 10
377.1205812543
 20
459.8439083563
 10
375.8318689211
 20
459.3903500266
 10
374.4254858797
 20
459.1966775939
 10
372.9227528377
 20
459.2658225519
 10
371.3464485203
 20
459.596735508
 10
369.7204683797
 20
460.1844067786
 10
368.0694605843
 20
461.0199213936
 10
368.0694605843
 20
461.0199213936
  0
LWPOLYLINE
  5
3B7
330
1F
100
AcDbEntity
  8
0
  6
Continuous
 62
     7
370
    15
100
AcDbPolyline
 90
       50
 70
   128
 43
0.0
 10
366.6552467901
 20
461.8365950394
 10
368.1924345515
 20
461.0631614443
 10
369.7043816191
 20
460.5303541907
 10
371.1662621818
 20
460.2469261583
 10
372.554071634
 20
460.2175272265
 10
373.8450230184
 20
460.4426427138
 10
375.017918446
 20
460.9185766826
 10
376.0534987826
 20
461.6375116685
 10
376.9347597504
 20
462.587645593
 10
377.6472318096
 20
463.7533754416
 10
378.179215917
 20
465.1155611668
 10
378.5219764796
 20
466.6518355946
 10
378.6698855761
 20
468.3369728823
 10
378.6205158114
 20
470.143301839
 10
378.3746745611
 20
472.0411637271
 10
377.9364026544
 20
473.9993966775
 10
377.3128933727
 20
475.9858448116
 10
376.5143857663
 20
477.9678920763
 10
375.5539921147
 20
479.9129922703
 10
374.4474806077
 20
481.7892081924
 10
373.2130211468
 20
483.5657302528
 10
371.8708830734
 20
485.2133901375
 10
370.4431045794
 20
486.705133025
 10
368.9531293555
 20
488.0164634685
 10
367.425423071
 20
489.1258496885
 10
365.8850705093
 20
490.0150762946
 10
364.3573642247
 20
490.6695422061
 10
362.8673890008
 20
491.0785005388
 10
361.4396105068
 20
491.2352356116
 10
360.0974724334
 20
491.1371753623
 10
358.8630129725
 20
490.7859298576
 10
357.7565014655
 20
490.1872649281
 10
356.7961078139
 20
489.3510116417
 10
355.9976002075
 20
488.2909016354
 10
355.3740909259
 20
487.0243419946
 10
354.9358190191
 20
485.5721270169
 10
354.6899777688
 20
483.9581073945
 10
354.6406080042
 20
482.2087795549
 10
354.7885171006
 20
480.3528700593
 10
355.1312776632
 20
478.4208527096
 10
355.6632617706
 20
476.444451208
 10
356.3757338298
 20
474.4561186294
 10
357.2569947977
 20
472.4885024492
 10
358.2925751342
 20
470.5739118569
 10
359.4654705618
 20
468.7437816522
 10
360.7564219463
 20
467.0281654227
 10
362.1442313984
 20
465.4552336676
 10
363.6061119612
 20
464.0508103292
 10
365.1180590287
 20
462.837960656
 10
366.6552467901
 20
461.8365950394
  0
LWPOLYLINE
  5
3B8
330
1F
100
AcDbEntity
  8
0
  6
Continuous
 62
     7
370
    15
100
AcDbPolyline
 90
       27
 70
   128
 43
0.0
 10
403.7316397643
 20
475.1828202052
 10
404.4350390558
 20
475.6540264288
 10
405.431884463
 20
476.6028894387
 10
406.258957096
 20
477.779662456
 10
406.9037182675
 20
479.1665144913
 10
407.3563964939
 20
480.7424170683
 10
407.6101297416
 20
482.4834788408
 10
407.6610681593
 20
484.3633136667
 10
407.5084438841
 20
486.3534185644
 10
407.1545670902
 20
488.4236292295
 10
406.6048035982
 20
490.542563383
 10
405.8674879474
 20
492.6780998544
 10
404.9537962967
 20
494.7978641254
 10
403.8775791542
 20
496.8697256572
 10
402.6551513014
 20
498.8622750609
 10
401.3050428638
 20
500.7453077288
 10
399.8477214047
 20
502.4902793254
 10
398.3052768118
 20
504.0707378909
 10
396.7010918602
 20
505.4627250498
 10
395.0594843761
 20
506.6451392404
 10
393.4053392747
 20
507.6000568815
 10
391.7637317906
 20
508.3130023481
 10
390.159546839
 20
508.7731677102
 10
388.617102246
 20
508.9735777648
 10
387.1597807869
 20
508.9111937101
 10
385.8096723493
 20
508.5869630642
 10
384.7331838864
 20
508.092676765
  0
SPLINE
  5
3B9
330
1F
100
AcDbEntity
  8
0
  6
Continuous
 62
     7
370
    15
100
AcDbSpline
210
0.0
220
0.0
230
1.0
 70
     8
 71
     3
 72
    26
 73
    22
 74
     0
 42
0.000000001
 43
0.00000001
 40
0.0
 40
0.0
 40
0.0
 40
0.0
 40
0.0451496554796403
 40
0.1023711104804656
 40
0.1595328777377739
 40
0.2037188026256937
 40
0.2478816017316103
 40
0.2921026348410224
 40
0.3363448823772581
 40
0.4241017762208611
 40
0.4753447159183382
 40
0.5265917482254802
 40
0.5840256965246338
 40
0.6414130523662152
 40
0.6948920670557733
 40
0.7483435529337346
 40
0.7950929640673642
 40
0.8418559145284946
 40
0.9338407331382478
 40
0.984804997683452
 40
1.0
 40
1.0
 40
1.0
 40
1.0
 10
389.3074755271675
 20
496.6080772908451
 30
0.0
 10
389.2931752362779
 20
496.1826104521036
 30
0.0
 10
389.2607511426052
 20
495.2179184230754
 30
0.0
 10
388.8312319735109
 20
493.7534977955085
 30
0.0
 10
388.1233371897094
 20
492.4203505599324
 30
0.0
 10
387.209984852629
 20
491.3806116144617
 30
0.0
 10
386.1962065658064
 20
490.6145937631746
 30
0.0
 10
385.0171061488088
 20
490.0762930573562
 30
0.0
 10
383.2923915891483
 20
489.6562395880749
 30
0.0
 10
381.3116273623041
 20
489.6666339798831
 30
0.0
 10
379.193143722683
 20
490.0246061584058
 30
0.0
 10
377.3910085667433
 20
490.4948049293482
 30
0.0
 10
375.5294386577273
 20
491.1274261240017
 30
0.0
 10
373.6989010395047
 20
491.875725993253
 30
0.0
 10
372.0287883044934
 20
492.6629659832568
 30
0.0
 10
370.6234597462358
 20
493.4151815180719
 30
0.0
 10
369.4833549677491
 20
494.1148258674396
 30
0.0
 10
368.3056130743168
 20
494.9563517613382
 30
0.0
 10
367.5842656491956
 20
495.732402531327
 30
0.0
 10
367.3081859251967
 20
496.3168910454929
 30
0.0
 10
367.3429372717222
 20
496.5523170704552
 30
0.0
 10
367.3509187203688
 20
496.6063880897449
 30
0.0
  0
SPLINE
  5
3BA
330
1F
100
AcDbEntity
  8
0
  6
Continuous
 62
     7
370
    15
100
AcDbSpline
210
0.0
220
0.0
230
1.0
 70
    11
 71
     3
 72
    26
 73
    22
 74
     0
 42
0.000000001
 43
0.00000001
 40
0.0
 40
0.0
 40
0.0
 40
0.0
 40
0.0531086501405183
 40
0.1061974501719737
 40
0.1598050568530655
 40
0.2137892196066163
 40
0.2671981102742428
 40
0.3199745935499387
 40
0.3730478282213538
 40
0.4268789421739572
 40
0.4807590522565268
 40
0.5339113247078756
 40
0.5866959740878374
 40
0.6400158776535072
 40
0.6939719591609796
 40
0.7476722902230689
 40
0.8006000686177778
 40
0.8534533265156038
 40
0.9070337708302643
 40
0.9610208622992341
 40
1.0
 40
1.0
 40
1.0
 40
1.0
 10
394.1617001149199
 20
476.085173477474
 30
0.0
 10
394.130742747968
 20
475.7634210703208
 30
0.0
 10
394.0688395848179
 20
475.1200365155269
 30
0.0
 10
393.5946216636367
 20
474.0984120501741
 30
0.0
 10
392.9158266126927
 20
473.1601927284019
 30
0.0
 10
392.1005149976232
 20
472.3859769245606
 30
0.0
 10
391.2728311836861
 20
471.8622542784008
 30
0.0
 10
390.5296483106121
 20
471.641828752123
 30
0.0
 10
389.9334039044809
 20
471.7505802408614
 30
0.0
 10
389.5244073238675
 20
472.1953054073875
 30
0.0
 10
389.3307447367407
 20
472.9449901031665
 30
0.0
 10
389.3617567319236
 20
473.9149466457109
 30
0.0
 10
389.6111486298782
 20
474.9912031457541
 30
0.0
 10
390.0685239781904
 20
476.0549382728327
 30
0.0
 10
390.7132503398345
 20
476.9776243570583
 30
0.0
 10
391.4935024657391
 20
477.6336212403629
 30
0.0
 10
392.3230274650407
 20
477.9423851819469
 30
0.0
 10
393.1063630729534
 20
477.8834344730283
 30
0.0
 10
393.7372101218044
 20
477.4710240847754
 30
0.0
 10
394.1048619150578
 20
476.8292185300324
 30
0.0
 10
394.1449090439514
 20
476.3049783501052
 30
0.0
 10
394.1617001149199
 20
476.085173477474
 30
0.0
  0
ARC
  5
3BB
330
1F
100
AcDbEntity
  8
0
  6
Continuous
 62
     7
370
    15
100
AcDbCircle
 10
379.5306778359
 20
483.1506175366
 30
0.0
 40
28.15982529916576
100
AcDbArc
 50
2.319045379
 51
57.675578484
  0
ENDSEC
  0
SECTION
  2
OBJECTS
  0
DICTIONARY
  5
C
330
0
100
AcDbDictionary
281
     1
  3
ACAD_GROUP
350
D
  3
ACAD_LAYOUT
350
1A
  3
ACAD_MLINESTYLE
350
17
  3
ACAD_PLOTSETTINGS
350
19
  3
ACAD_PLOTSTYLENAME
350
E
  3
ACAD_SCALELIST
350
47
  0
DICTIONARY
  5
D
102
{ACAD_REACTORS
330
C
102
}
330
C
100
AcDbDictionary
281
     1
  0
DICTIONARY
  5
1A
102
{ACAD_REACTORS
330
C
102
}
330
C
100
AcDbDictionary
281
     1
  3
Layout1
350
1E
  3
Layout2
350
26
  3
Model
350
22
  0
DICTIONARY
  5
17
102
{ACAD_REACTORS
330
C
102
}
330
C
100
AcDbDictionary
281
     1
  3
Standard
350
18
  0
DICTIONARY
  5
19
102
{ACAD_REACTORS
330
C
102
}
330
C
100
AcDbDictionary
281
     1
  0
ACDBDICTIONARYWDFLT
  5
E
102
{ACAD_REACTORS
330
C
102
}
330
C
100
AcDbDictionary
281
     1
  3
Normal
350
F
100
AcDbDictionaryWithDefault
340
F
  0
DICTIONARY
  5
47
102
{ACAD_REACTORS
330
C
102
}
330
C
100
AcDbDictionary
281
     1
  3
A0
350
48
  3
A1
350
49
  3
A2
350
4A
  3
A3
350
4B
  3
A4
350
4C
  3
A5
350
4D
  3
A6
350
4E
  3
A7
350
4F
  3
A8
350
50
  3
A9
350
51
  3
B0
350
52
  3
B1
350
53
  3
B2
350
54
  3
B3
350
55
  3
B4
350
56
  3
B5
350
57
  3
B6
350
58
  3
B7
350
59
  3
B8
350
5A
  3
B9
350
5B
  3
C0
350
5C
  3
C1
350
5D
  3
C2
350
5E
  3
C3
350
5F
  3
C4
350
60
  3
C5
350
61
  3
C6
350
62
  3
C7
350
63
  3
C8
350
64
  3
C9
350
65
  3
D0
350
66
  3
D1
350
67
  3
D2
350
68
  0
LAYOUT
  5
1E
102
{ACAD_REACTORS
330
1A
102
}
330
1A
100
AcDbPlotSettings
  1

  2
none_device
  4

  6

 40
0.0
 41
0.0
 42
0.0
 43
0.0
 44
0.0
 45
0.0
 46
0.0
 47
0.0
 48
0.0
 49
0.0
140
0.0
141
0.0
142
1.0
143
1.0
 70
   688
 72
     1
 73
     0
 74
     5
  7

 75
    16
147
1.0
148
0.0
149
0.0
100
AcDbLayout
  1
Layout1
 70
     1
 71
     1
 10
0.0
 20
0.0
 11
420.0
 21
297.0
 12
0.0
 22
0.0
 32
0.0
 14
1.0000000000E+20
 24
1.0000000000E+20
 34
1.0000000000E+20
 15
-1.0000000000E+20
 25
-1.0000000000E+20
 35
-1.0000000000E+20
146
0.0
 13
0.0
 23
0.0
 33
0.0
 16
1.0
 26
0.0
 36
0.0
 17
0.0
 27
1.0
 37
0.0
 76
     0
330
1B
  0
LAYOUT
  5
26
102
{ACAD_REACTORS
330
1A
102
}
330
1A
100
AcDbPlotSettings
  1

  2
none_device
  4

  6

 40
0.0
 41
0.0
 42
0.0
 43
0.0
 44
0.0
 45
0.0
 46
0.0
 47
0.0
 48
0.0
 49
0.0
140
0.0
141
0.0
142
1.0
143
1.0
 70
   688
 72
     1
 73
     0
 74
     5
  7

 75
    16
147
1.0
148
0.0
149
0.0
100
AcDbLayout
  1
Layout2
 70
     1
 71
     2
 10
0.0
 20
0.0
 11
0.0
 21
0.0
 12
0.0
 22
0.0
 32
0.0
 14
0.0
 24
0.0
 34
0.0
 15
0.0
 25
0.0
 35
0.0
146
0.0
 13
0.0
 23
0.0
 33
0.0
 16
1.0
 26
0.0
 36
0.0
 17
0.0
 27
1.0
 37
0.0
 76
     0
330
23
  0
LAYOUT
  5
22
102
{ACAD_REACTORS
330
1A
102
}
330
1A
100
AcDbPlotSettings
  1

  2
none_device
  4
Letter_(8.50_x_11.00_Inches)
  6

 40
6.35
 41
6.35
 42
6.35000508
 43
6.35000508
 44
215.9
 45
279.4
 46
0.0
 47
0.0
 48
0.0
 49
0.0
140
0.0
141
0.0
142
1.0
143
1.0
 70
  1712
 72
     1
 73
     0
 74
     0
  7

 75
     0
147
1.0
148
0.0
149
0.0
100
AcDbLayout
  1
Model
 70
     1
 71
     0
 10
0.0
 20
0.0
 11
431.8
 21
279.4
 12
0.0
 22
0.0
 32
0.0
 14
0.0
 24
0.0
 34
0.0
 15
431.8
 25
279.4
 35
0.0
146
0.0
 13
0.0
 23
0.0
 33
0.0
 16
1.0
 26
0.0
 36
0.0
 17
0.0
 27
1.0
 37
0.0
 76
     0
330
1F
331
29
  0
MLINESTYLE
  5
18
102
{ACAD_REACTORS
330
17
102
}
330
17
100
AcDbMlineStyle
  2
Standard
 70
     0
  3

 62
   256
 51
90.0
 52
90.0
 71
     2
 49
0.5
 62
   256
  6
BYLAYER
 49
-0.5
 62
   256
  6
BYLAYER
  0
ACDBPLACEHOLDER
  5
F
102
{ACAD_REACTORS
330
E
102
}
330
E
  0
SCALE
  5
48
102
{ACAD_REACTORS
330
47
102
}
330
47
100
AcDbScale
 70
     0
300
1:1
140
1.0
141
1.0
290
     1
  0
SCALE
  5
49
102
{ACAD_REACTORS
330
47
102
}
330
47
100
AcDbScale
 70
     0
300
1:2
140
1.0
141
2.0
290
     0
  0
SCALE
  5
4A
102
{ACAD_REACTORS
330
47
102
}
330
47
100
AcDbScale
 70
     0
300
1:4
140
1.0
141
4.0
290
     0
  0
SCALE
  5
4B
102
{ACAD_REACTORS
330
47
102
}
330
47
100
AcDbScale
 70
     0
300
1:5
140
1.0
141
5.0
290
     0
  0
SCALE
  5
4C
102
{ACAD_REACTORS
330
47
102
}
330
47
100
AcDbScale
 70
     0
300
1:8
140
1.0
141
8.0
290
     0
  0
SCALE
  5
4D
102
{ACAD_REACTORS
330
47
102
}
330
47
100
AcDbScale
 70
     0
300
1:10
140
1.0
141
10.0
290
     0
  0
SCALE
  5
4E
102
{ACAD_REACTORS
330
47
102
}
330
47
100
AcDbScale
 70
     0
300
1:16
140
1.0
141
16.0
290
     0
  0
SCALE
  5
4F
102
{ACAD_REACTORS
330
47
102
}
330
47
100
AcDbScale
 70
     0
300
1:20
140
1.0
141
20.0
290
     0
  0
SCALE
  5
50
102
{ACAD_REACTORS
330
47
102
}
330
47
100
AcDbScale
 70
     0
300
1:30
140
1.0
141
30.0
290
     0
  0
SCALE
  5
51
102
{ACAD_REACTORS
330
47
102
}
330
47
100
AcDbScale
 70
     0
300
1:40
140
1.0
141
40.0
290
     0
  0
SCALE
  5
52
102
{ACAD_REACTORS
330
47
102
}
330
47
100
AcDbScale
 70
     0
300
1:50
140
1.0
141
50.0
290
     0
  0
SCALE
  5
53
102
{ACAD_REACTORS
330
47
102
}
330
47
100
AcDbScale
 70
     0
300
1:100
140
1.0
141
100.0
290
     0
  0
SCALE
  5
54
102
{ACAD_REACTORS
330
47
102
}
330
47
100
AcDbScale
 70
     0
300
2:1
140
2.0
141
1.0
290
     0
  0
SCALE
  5
55
102
{ACAD_REACTORS
330
47
102
}
330
47
100
AcDbScale
 70
     0
300
4:1
140
4.0
141
1.0
290
     0
  0
SCALE
  5
56
102
{ACAD_REACTORS
330
47
102
}
330
47
100
AcDbScale
 70
     0
300
8:1
140
8.0
141
1.0
290
     0
  0
SCALE
  5
57
102
{ACAD_REACTORS
330
47
102
}
330
47
100
AcDbScale
 70
     0
300
10:1
140
10.0
141
1.0
290
     0
  0
SCALE
  5
58
102
{ACAD_REACTORS
330
47
102
}
330
47
100
AcDbScale
 70
     0
300
100:1
140
100.0
141
1.0
290
     0
  0
SCALE
  5
59
102
{ACAD_REACTORS
330
47
102
}
330
47
100
AcDbScale
 70
     0
300
1/128" = 1'-0"
140
0.0078125
141
12.0
290
     0
  0
SCALE
  5
5A
102
{ACAD_REACTORS
330
47
102
}
330
47
100
AcDbScale
 70
     0
300
1/64" = 1'-0"
140
0.015625
141
12.0
290
     0
  0
SCALE
  5
5B
102
{ACAD_REACTORS
330
47
102
}
330
47
100
AcDbScale
 70
     0
300
1/32" = 1'-0"
140
0.03125
141
12.0
290
     0
  0
SCALE
  5
5C
102
{ACAD_REACTORS
330
47
102
}
330
47
100
AcDbScale
 70
     0
300
1/16" = 1'-0"
140
0.0625
141
12.0
290
     0
  0
SCALE
  5
5D
102
{ACAD_REACTORS
330
47
102
}
330
47
100
AcDbScale
 70
     0
300
3/32" = 1'-0"
140
0.09375
141
12.0
290
     0
  0
SCALE
  5
5E
102
{ACAD_REACTORS
330
47
102
}
330
47
100
AcDbScale
 70
     0
300
1/8" = 1'-0"
140
0.125
141
12.0
290
     0
  0
SCALE
  5
5F
102
{ACAD_REACTORS
330
47
102
}
330
47
100
AcDbScale
 70
     0
300
3/16" = 1'-0"
140
0.1875
141
12.0
290
     0
  0
SCALE
  5
60
102
{ACAD_REACTORS
330
47
102
}
330
47
100
AcDbScale
 70
     0
300
1/4" = 1'-0"
140
0.25
141
12.0
290
     0
  0
SCALE
  5
61
102
{ACAD_REACTORS
330
47
102
}
330
47
100
AcDbScale
 70
     0
300
3/8" = 1'-0"
140
0.375
141
12.0
290
     0
  0
SCALE
  5
62
102
{ACAD_REACTORS
330
47
102
}
330
47
100
AcDbScale
 70
     0
300
1/2" = 1'-0"
140
0.5
141
12.0
290
     0
  0
SCALE
  5
63
102
{ACAD_REACTORS
330
47
102
}
330
47
100
AcDbScale
 70
     0
300
3/4" = 1'-0"
140
0.75
141
12.0
290
     0
  0
SCALE
  5
64
102
{ACAD_REACTORS
330
47
102
}
330
47
100
AcDbScale
 70
     0
300
1" = 1'-0"
140
1.0
141
12.0
290
     0
  0
SCALE
  5
65
102
{ACAD_REACTORS
330
47
102
}
330
47
100
AcDbScale
 70
     0
300
1-1/2" = 1'-0"
140
1.5
141
12.0
290
     0
  0
SCALE
  5
66
102
{ACAD_REACTORS
330
47
102
}
330
47
100
AcDbScale
 70
     0
300
3" = 1'-0"
140
3.0
141
12.0
290
     0
  0
SCALE
  5
67
102
{ACAD_REACTORS
330
47
102
}
330
47
100
AcDbScale
 70
     0
300
6" = 1'-0"
140
6.0
141
12.0
290
     0
  0
SCALE
  5
68
102
{ACAD_REACTORS
330
47
102
}
330
47
100
AcDbScale
 70
     0
300
1'-0" = 1'-0"
140
12.0
141
12.0
290
     0
  0
ENDSEC
  0
EOF
