  0
SECTION
  2
HEADER
  9
$ACADVER
  1
AC1015
  9
$ACADMAINTVER
 70
     6
  9
$DWGCODEPAGE
  3
ANSI_1252
  9
$INSBASE
 10
0.0
 20
0.0
 30
0.0
  9
$EXTMIN
 10
0.0
 20
0.0
 30
0.0
  9
$EXTMAX
 10
431.8
 20
279.4
 30
0.0
  9
$LIMMIN
 10
0.0
 20
0.0
  9
$LIMMAX
 10
431.8
 20
279.4
  9
$ORTHOMODE
 70
     0
  9
$REGENMODE
 70
     1
  9
$FILLMODE
 70
     1
  9
$QTEXTMODE
 70
     0
  9
$MIRRTEXT
 70
     1
  9
$LTSCALE
 40
1.0
  9
$ATTMODE
 70
     1
  9
$TEXTSIZE
 40
3.5
  9
$TRACEWID
 40
1.0
  9
$TEXTSTYLE
  7
Standard
  9
$CLAYER
  8
0
  9
$CELTYPE
  6
ByLayer
  9
$CECOLOR
 62
   256
  9
$CELTSCALE
 40
1.0
  9
$DISPSILH
 70
     0
  9
$DIMSCALE
 40
1.0
  9
$DIMASZ
 40
6.0
  9
$DIMEXO
 40
1.0
  9
$DIMDLI
 40
3.75
  9
$DIMRND
 40
0.0
  9
$DIMDLE
 40
0.0
  9
$DIMEXE
 40
1.0
  9
$DIMTP
 40
0.0
  9
$DIMTM
 40
0.0
  9
$DIMTXT
 40
3.5
  9
$DIMCEN
 40
2.5
  9
$DIMTSZ
 40
0.0
  9
$DIMTOL
 70
     0
  9
$DIMLIM
 70
     0
  9
$DIMTIH
 70
     1
  9
$DIMTOH
 70
     1
  9
$DIMSE1
 70
     0
  9
$DIMSE2
 70
     0
  9
$DIMTAD
 70
     1
  9
$DIMZIN
 70
     0
  9
$DIMBLK
  1

  9
$DIMASO
 70
     1
  9
$DIMSHO
 70
     1
  9
$DIMPOST
  1

  9
$DIMAPOST
  1

  9
$DIMALT
 70
     0
  9
$DIMALTD
 70
     3
  9
$DIMALTF
 40
0.0393700787
  9
$DIMLFAC
 40
1.0
  9
$DIMTOFL
 70
     1
  9
$DIMTVP
 40
0.0
  9
$DIMTIX
 70
     0
  9
$DIMSOXD
 70
     0
  9
$DIMSAH
 70
     0
  9
$DIMBLK1
  1

  9
$DIMBLK2
  1

  9
$DIMSTYLE
  2
ISO-25
  9
$DIMCLRD
 70
     0
  9
$DIMCLRE
 70
     0
  9
$DIMCLRT
 70
     0
  9
$DIMTFAC
 40
1.0
  9
$DIMGAP
 40
1.524
  9
$DIMJUST
 70
     0
  9
$DIMSD1
 70
     0
  9
$DIMSD2
 70
     0
  9
$DIMTOLJ
 70
     0
  9
$DIMTZIN
 70
     0
  9
$DIMALTZ
 70
     0
  9
$DIMALTTZ
 70
     0
  9
$DIMUPT
 70
     0
  9
$DIMDEC
 70
     3
  9
$DIMTDEC
 70
     3
  9
$DIMALTU
 70
     2
  9
$DIMALTTD
 70
     3
  9
$DIMTXSTY
  7
Standard
  9
$DIMAUNIT
 70
     0
  9
$DIMADEC
 70
     2
  9
$DIMALTRND
 40
0.0
  9
$DIMAZIN
 70
     0
  9
$DIMDSEP
 70
    44
  9
$DIMATFIT
 70
     3
  9
$DIMFRAC
 70
     0
  9
$DIMLDRBLK
  1

  9
$DIMLUNIT
 70
     2
  9
$DIMLWD
 70
    -2
  9
$DIMLWE
 70
    -2
  9
$DIMTMOVE
 70
     0
  9
$LUNITS
 70
     2
  9
$LUPREC
 70
     2
  9
$SKETCHINC
 40
1.0
  9
$FILLETRAD
 40
10.0
  9
$AUNITS
 70
     0
  9
$AUPREC
 70
     2
  9
$MENU
  1
.
  9
$ELEVATION
 40
0.0
  9
$PELEVATION
 40
0.0
  9
$THICKNESS
 40
0.0
  9
$LIMCHECK
 70
     0
  9
$CHAMFERA
 40
10.0
  9
$CHAMFERB
 40
10.0
  9
$CHAMFERC
 40
20.0
  9
$CHAMFERD
 40
0.0
  9
$SKPOLY
 70
     0
  9
$TDCREATE
 40
2455593.873983831
  9
$TDUCREATE
 40
2455593.832317164
  9
$TDUPDATE
 40
2455593.873983843
  9
$TDUUPDATE
 40
2455593.832317176
  9
$TDINDWG
 40
0.0000000116
  9
$TDUSRTIMER
 40
0.0000000116
  9
$USRTIMER
 70
     1
  9
$ANGBASE
 50
0.0
  9
$ANGDIR
 70
     0
  9
$PDMODE
 70
     0
  9
$PDSIZE
 40
-1.0
  9
$PLINEWID
 40
0.0
  9
$SPLFRAME
 70
     0
  9
$SPLINETYPE
 70
     6
  9
$SPLINESEGS
 70
     8
  9
$HANDSEED
  5
139
  9
$SURFTAB1
 70
     6
  9
$SURFTAB2
 70
     6
  9
$SURFTYPE
 70
     6
  9
$SURFU
 70
     6
  9
$SURFV
 70
     6
  9
$UCSBASE
  2

  9
$UCSNAME
  2

  9
$UCSORG
 10
0.0
 20
0.0
 30
0.0
  9
$UCSXDIR
 10
1.0
 20
0.0
 30
0.0
  9
$UCSYDIR
 10
0.0
 20
1.0
 30
0.0
  9
$UCSORTHOREF
  2

  9
$UCSORTHOVIEW
 70
     0
  9
$UCSORGTOP
 10
0.0
 20
0.0
 30
0.0
  9
$UCSORGBOTTOM
 10
0.0
 20
0.0
 30
0.0
  9
$UCSORGLEFT
 10
0.0
 20
0.0
 30
0.0
  9
$UCSORGRIGHT
 10
0.0
 20
0.0
 30
0.0
  9
$UCSORGFRONT
 10
0.0
 20
0.0
 30
0.0
  9
$UCSORGBACK
 10
0.0
 20
0.0
 30
0.0
  9
$PUCSBASE
  2

  9
$PUCSNAME
  2

  9
$PUCSORG
 10
0.0
 20
0.0
 30
0.0
  9
$PUCSXDIR
 10
1.0
 20
0.0
 30
0.0
  9
$PUCSYDIR
 10
0.0
 20
1.0
 30
0.0
  9
$PUCSORTHOREF
  2

  9
$PUCSORTHOVIEW
 70
     0
  9
$PUCSORGTOP
 10
0.0
 20
0.0
 30
0.0
  9
$PUCSORGBOTTOM
 10
0.0
 20
0.0
 30
0.0
  9
$PUCSORGLEFT
 10
0.0
 20
0.0
 30
0.0
  9
$PUCSORGRIGHT
 10
0.0
 20
0.0
 30
0.0
  9
$PUCSORGFRONT
 10
0.0
 20
0.0
 30
0.0
  9
$PUCSORGBACK
 10
0.0
 20
0.0
 30
0.0
  9
$USERI1
 70
     0
  9
$USERI2
 70
     0
  9
$USERI3
 70
     0
  9
$USERI4
 70
     0
  9
$USERI5
 70
     0
  9
$USERR1
 40
0.0
  9
$USERR2
 40
0.0
  9
$USERR3
 40
0.0
  9
$USERR4
 40
0.0
  9
$USERR5
 40
0.0
  9
$WORLDVIEW
 70
     1
  9
$SHADEDGE
 70
     3
  9
$SHADEDIF
 70
    70
  9
$TILEMODE
 70
     1
  9
$MAXACTVP
 70
    64
  9
$PINSBASE
 10
0.0
 20
0.0
 30
0.0
  9
$PLIMCHECK
 70
     0
  9
$PEXTMIN
 10
1.0000000000E+20
 20
1.0000000000E+20
 30
1.0000000000E+20
  9
$PEXTMAX
 10
-1.0000000000E+20
 20
-1.0000000000E+20
 30
-1.0000000000E+20
  9
$PLIMMIN
 10
0.0
 20
0.0
  9
$PLIMMAX
 10
420.0
 20
297.0
  9
$UNITMODE
 70
     0
  9
$VISRETAIN
 70
     1
  9
$PLINEGEN
 70
     0
  9
$PSLTSCALE
 70
     1
  9
$TREEDEPTH
 70
  3020
  9
$CMLSTYLE
  2
Standard
  9
$CMLJUST
 70
     0
  9
$CMLSCALE
 40
20.0
  9
$PROXYGRAPHICS
 70
     1
  9
$MEASUREMENT
 70
     1
  9
$CELWEIGHT
370
    -1
  9
$ENDCAPS
280
     0
  9
$JOINSTYLE
280
     0
  9
$LWDISPLAY
290
     1
  9
$INSUNITS
 70
     4
  9
$HYPERLINKBASE
  1

  9
$STYLESHEET
  1

  9
$XEDIT
290
     1
  9
$CEPSNTYPE
380
     0
  9
$PSTYLEMODE
290
     1
  9
$FINGERPRINTGUID
  2
{D0BE8249-EAE4-4863-A453-CA848F90E254}
  9
$VERSIONGUID
  2
{FAEB1C32-E019-11D5-929B-00C0DF256EC4}
  9
$EXTNAMES
290
     1
  9
$PSVPSCALE
 40
0.0
  9
$OLESTARTUP
290
     0
  0
ENDSEC
  0
SECTION
  2
CLASSES
  0
CLASS
  1
ACDBDICTIONARYWDFLT
  2
AcDbDictionaryWithDefault
  3
ObjectDBX Classes
 90
        0
280
     0
281
     0
  0
CLASS
  1
VISUALSTYLE
  2
AcDbVisualStyle
  3
ObjectDBX Classes
 90
     4095
280
     0
281
     0
  0
CLASS
  1
DICTIONARYVAR
  2
AcDbDictionaryVar
  3
ObjectDBX Classes
 90
        0
280
     0
281
     0
  0
CLASS
  1
ACDBPLACEHOLDER
  2
AcDbPlaceHolder
  3
ObjectDBX Classes
 90
        0
280
     0
281
     0
  0
CLASS
  1
LAYOUT
  2
AcDbLayout
  3
ObjectDBX Classes
 90
        0
280
     0
281
     0
  0
ENDSEC
  0
SECTION
  2
TABLES
  0
TABLE
  2
VPORT
  5
8
330
0
100
AcDbSymbolTable
 70
     1
  0
VPORT
  5
29
330
8
100
AcDbSymbolTableRecord
100
AcDbViewportTableRecord
  2
*Active
 70
     0
 10
0.0
 20
0.0
 11
1.0
 21
1.0
 12
215.9
 22
139.7
 13
0.0
 23
0.0
 14
10.0
 24
10.0
 15
10.0
 25
10.0
 16
0.0
 26
0.0
 36
1.0
 17
0.0
 27
0.0
 37
0.0
 40
279.4
 41
1.5454545455
 42
50.0
 43
0.0
 44
0.0
 50
0.0
 51
0.0
 71
     0
 72
  2000
 73
     1
 74
     3
 75
     0
 76
     0
 77
     0
 78
     0
281
     0
 65
     1
110
0.0
120
0.0
130
0.0
111
1.0
121
0.0
131
0.0
112
0.0
122
1.0
132
0.0
 79
     0
146
0.0
  0
ENDTAB
  0
TABLE
  2
LTYPE
  5
5
330
0
100
AcDbSymbolTable
 70
     6
  0
LTYPE
  5
14
330
5
100
AcDbSymbolTableRecord
100
AcDbLinetypeTableRecord
  2
ByBlock
 70
     0
  3

 72
    65
 73
     0
 40
0.0
  0
LTYPE
  5
15
330
5
100
AcDbSymbolTableRecord
100
AcDbLinetypeTableRecord
  2
ByLayer
 70
     0
  3

 72
    65
 73
     0
 40
0.0
  0
LTYPE
  5
16
330
5
100
AcDbSymbolTableRecord
100
AcDbLinetypeTableRecord
  2
Continuous
 70
     0
  3
Solid line
 72
    65
 73
     0
 40
0.0
  0
LTYPE
  5
3B
330
5
100
AcDbSymbolTableRecord
100
AcDbLinetypeTableRecord
  2
HIDDEN
 70
     0
  3
Hidden __ __ __ __ __ __ __ __ __ __ __ __ __ __
 72
    65
 73
     2
 40
1.905
 49
1.27
 74
     0
 49
-0.635
 74
     0
  0
LTYPE
  5
3C
330
5
100
AcDbSymbolTableRecord
100
AcDbLinetypeTableRecord
  2
PHANTOM
 70
     0
  3
Phantom ______  __  __  ______  __  __  ______
 72
    65
 73
     6
 40
12.7
 49
6.35
 74
     0
 49
-1.27
 74
     0
 49
1.27
 74
     0
 49
-1.27
 74
     0
 49
1.27
 74
     0
 49
-1.27
 74
     0
  0
LTYPE
  5
3D
330
5
100
AcDbSymbolTableRecord
100
AcDbLinetypeTableRecord
  2
CENTER
 70
     0
  3
Center ____ _ ____ _ ____ _ ____ _ ____ _ ____
 72
    65
 73
     4
 40
10.16
 49
6.35
 74
     0
 49
-1.27
 74
     0
 49
1.27
 74
     0
 49
-1.27
 74
     0
  0
LTYPE
  5
3E
330
5
100
AcDbSymbolTableRecord
100
AcDbLinetypeTableRecord
  2
CENTERX2
 70
     0
  3
Center (2x) ________  __  ________  __  _____
 72
    65
 73
     4
 40
20.32
 49
12.7
 74
     0
 49
-2.54
 74
     0
 49
2.54
 74
     0
 49
-2.54
 74
     0
  0
LTYPE
  5
3F
330
5
100
AcDbSymbolTableRecord
100
AcDbLinetypeTableRecord
  2
DOT2
 70
     0
  3
Dot (.5x) ........................................
 72
    65
 73
     2
 40
0.635
 49
0.0
 74
     0
 49
-0.635
 74
     0
  0
ENDTAB
  0
TABLE
  2
LAYER
  5
2
330
0
100
AcDbSymbolTable
 70
     1
  0
LAYER
  5
10
330
2
100
AcDbSymbolTableRecord
100
AcDbLayerTableRecord
  2
0
 70
     0
 62
     7
  6
Continuous
370
    -3
390
F
  0
ENDTAB
  0
TABLE
  2
STYLE
  5
3
330
0
100
AcDbSymbolTable
 70
     1
  0
STYLE
  5
11
330
3
100
AcDbSymbolTableRecord
100
AcDbTextStyleTableRecord
  2
Standard
 70
     0
 40
0.0
 41
1.0
 50
0.0
 71
     0
 42
2.5
  3
txt
  4

  0
ENDTAB
  0
TABLE
  2
VIEW
  5
6
330
0
100
AcDbSymbolTable
 70
     0
  0
ENDTAB
  0
TABLE
  2
UCS
  5
7
330
0
100
AcDbSymbolTable
 70
     0
  0
ENDTAB
  0
TABLE
  2
APPID
  5
9
330
0
100
AcDbSymbolTable
 70
     1
  0
APPID
  5
12
330
9
100
AcDbSymbolTableRecord
100
AcDbRegAppTableRecord
  2
ACAD
 70
     0
  0
ENDTAB
  0
TABLE
  2
DIMSTYLE
  5
A
330
0
100
AcDbSymbolTable
 70
     1
100
AcDbDimStyleTable
  0
DIMSTYLE
105
27
330
A
100
AcDbSymbolTableRecord
100
AcDbDimStyleTableRecord
  2
ISO-25
 70
     0
 41
2.5
 42
0.625
 43
3.75
 44
1.25
 73
     0
 74
     0
 77
     1
 78
     8
140
2.5
141
2.5
143
0.0393700787
147
0.625
171
     3
172
     1
271
     2
272
     2
274
     3
278
    44
283
     0
284
     8
340
11
  0
ENDTAB
  0
TABLE
  2
BLOCK_RECORD
  5
1
330
0
100
AcDbSymbolTable
 70
     1
  0
BLOCK_RECORD
  5
1F
330
1
100
AcDbSymbolTableRecord
100
AcDbBlockTableRecord
  2
*Model_Space
340
22
  0
BLOCK_RECORD
  5
1B
330
1
100
AcDbSymbolTableRecord
100
AcDbBlockTableRecord
  2
*Paper_Space
340
1E
  0
BLOCK_RECORD
  5
23
330
1
100
AcDbSymbolTableRecord
100
AcDbBlockTableRecord
  2
*Paper_Space0
340
26
  0
ENDTAB
  0
ENDSEC
  0
SECTION
  2
BLOCKS
  0
BLOCK
  5
20
330
1F
100
AcDbEntity
  8
0
100
AcDbBlockBegin
  2
*Model_Space
 70
     0
 10
0.0
 20
0.0
 30
0.0
  3
*Model_Space
  1

  0
ENDBLK
  5
21
330
1F
100
AcDbEntity
  8
0
100
AcDbBlockEnd
  0
BLOCK
  5
1C
330
1B
100
AcDbEntity
 67
     1
  8
0
100
AcDbBlockBegin
  2
*Paper_Space
 70
     0
 10
0.0
 20
0.0
 30
0.0
  3
*Paper_Space
  1

  0
ENDBLK
  5
1D
330
1B
100
AcDbEntity
 67
     1
  8
0
100
AcDbBlockEnd
  0
BLOCK
  5
24
330
23
100
AcDbEntity
  8
0
100
AcDbBlockBegin
  2
*Paper_Space0
 70
     0
 10
0.0
 20
0.0
 30
0.0
  3
*Paper_Space0
  1

  0
ENDBLK
  5
25
330
23
100
AcDbEntity
  8
0
100
AcDbBlockEnd
  0
ENDSEC
  0
SECTION
  2
ENTITIES
  0
LINE
  5
40
330
1F
100
AcDbEntity
  8
0
  6
Continuous
 62
     7
370
    15
100
AcDbLine
 10
229.7318655508
 20
216.9582230624
 30
0.0
 11
143.7873783055
 21
216.9582230624
 31
0.0
  0
LINE
  5
41
330
1F
100
AcDbEntity
  8
0
  6
Continuous
 62
     7
370
    15
100
AcDbLine
 10
111.7596219282
 20
209.9582230624
 30
0.0
 11
111.9032154676
 21
209.9582230624
 31
0.0
  0
LINE
  5
42
330
1F
100
AcDbEntity
  8
0
  6
Continuous
 62
     7
370
    15
100
AcDbLine
 10
139.6160283887
 20
209.9582230624
 30
0.0
 11
233.9032154676
 21
209.9582230624
 31
0.0
  0
LINE
  5
43
330
1F
100
AcDbEntity
  8
0
  6
Continuous
 62
     7
370
    15
100
AcDbLine
 10
261.6160283887
 20
209.9582230624
 30
0.0
 11
261.7596219282
 21
209.9582230624
 31
0.0
  0
LINE
  5
44
330
1F
100
AcDbEntity
  8
0
  6
Continuous
 62
     7
370
    15
100
AcDbLine
 10
261.7596219282
 20
235.9582230624
 30
0.0
 11
261.6160283887
 21
235.9582230624
 31
0.0
  0
LINE
  5
45
330
1F
100
AcDbEntity
  8
0
  6
Continuous
 62
     7
370
    15
100
AcDbLine
 10
233.9032154676
 20
235.9582230624
 30
0.0
 11
139.6160283887
 21
235.9582230624
 31
0.0
  0
LINE
  5
46
330
1F
100
AcDbEntity
  8
0
  6
Continuous
 62
     7
370
    15
100
AcDbLine
 10
111.9032154676
 20
235.9582230624
 30
0.0
 11
111.7596219282
 21
235.9582230624
 31
0.0
  0
LINE
  5
47
330
1F
100
AcDbEntity
  8
0
  6
Continuous
 62
     7
370
    15
100
AcDbLine
 10
143.7873783055
 20
228.9582230624
 30
0.0
 11
229.7318655508
 21
228.9582230624
 31
0.0
  0
LINE
  5
48
330
1F
100
AcDbEntity
  8
0
  6
Continuous
 62
     7
370
    15
100
AcDbLine
 10
293.5596219282
 20
208.7082230624
 30
0.0
 11
293.7596219282
 21
208.9082230624
 31
0.0
  0
LINE
  5
49
330
1F
100
AcDbEntity
  8
0
  6
Continuous
 62
     7
370
    15
100
AcDbLine
 10
293.7596219282
 20
218.0082230624
 30
0.0
 11
293.5596219282
 21
218.2082230624
 31
0.0
  0
LINE
  5
4A
330
1F
100
AcDbEntity
  8
0
  6
Continuous
 62
     7
370
    15
100
AcDbLine
 10
293.5596219282
 20
218.2082230624
 30
0.0
 11
266.1562928227
 21
218.2082230624
 31
0.0
  0
LINE
  5
4B
330
1F
100
AcDbEntity
  8
0
  6
Continuous
 62
     7
370
    15
100
AcDbLine
 10
261.9596219282
 20
208.7082230624
 30
0.0
 11
293.5596219282
 21
208.7082230624
 31
0.0
  0
LINE
  5
4C
330
1F
100
AcDbEntity
  8
0
  6
Continuous
 62
     7
370
    15
100
AcDbLine
 10
261.7596219282
 20
208.9082230624
 30
0.0
 11
261.9596219282
 21
208.7082230624
 31
0.0
  0
LINE
  5
4D
330
1F
100
AcDbEntity
  8
0
  6
Continuous
 62
     7
370
    15
100
AcDbLine
 10
293.5596219282
 20
237.2082230624
 30
0.0
 11
261.9596219282
 21
237.2082230624
 31
0.0
  0
LINE
  5
4E
330
1F
100
AcDbEntity
  8
0
  6
Continuous
 62
     7
370
    15
100
AcDbLine
 10
266.1562928227
 20
227.7082230624
 30
0.0
 11
293.5596219282
 21
227.7082230624
 31
0.0
  0
LINE
  5
4F
330
1F
100
AcDbEntity
  8
0
  6
Continuous
 62
     7
370
    15
100
AcDbLine
 10
261.9596219282
 20
237.2082230624
 30
0.0
 11
261.7596219282
 21
237.0082230624
 31
0.0
  0
LINE
  5
50
330
1F
100
AcDbEntity
  8
0
  6
Continuous
 62
     7
370
    15
100
AcDbLine
 10
293.5596219282
 20
227.7082230624
 30
0.0
 11
293.7596219282
 21
227.9082230624
 31
0.0
  0
LINE
  5
51
330
1F
100
AcDbEntity
  8
0
  6
Continuous
 62
     7
370
    15
100
AcDbLine
 10
293.7596219282
 20
237.0082230624
 30
0.0
 11
293.5596219282
 21
237.2082230624
 31
0.0
  0
LINE
  5
52
330
1F
100
AcDbEntity
  8
0
  6
Continuous
 62
     7
370
    15
100
AcDbLine
 10
79.9596219282
 20
227.7082230624
 30
0.0
 11
107.3629510337
 21
227.7082230624
 31
0.0
  0
LINE
  5
53
330
1F
100
AcDbEntity
  8
0
  6
Continuous
 62
     7
370
    15
100
AcDbLine
 10
111.5596219282
 20
237.2082230624
 30
0.0
 11
79.9596219282
 21
237.2082230624
 31
0.0
  0
LINE
  5
54
330
1F
100
AcDbEntity
  8
0
  6
Continuous
 62
     7
370
    15
100
AcDbLine
 10
111.7596219282
 20
237.0082230624
 30
0.0
 11
111.5596219282
 21
237.2082230624
 31
0.0
  0
LINE
  5
55
330
1F
100
AcDbEntity
  8
0
  6
Continuous
 62
     7
370
    15
100
AcDbLine
 10
79.9596219282
 20
237.2082230624
 30
0.0
 11
79.7596219282
 21
237.0082230624
 31
0.0
  0
LINE
  5
56
330
1F
100
AcDbEntity
  8
0
  6
Continuous
 62
     7
370
    15
100
AcDbLine
 10
79.7596219282
 20
227.9082230624
 30
0.0
 11
79.9596219282
 21
227.7082230624
 31
0.0
  0
LINE
  5
57
330
1F
100
AcDbEntity
  8
0
  6
Continuous
 62
     7
370
    15
100
AcDbLine
 10
79.9596219282
 20
208.7082230624
 30
0.0
 11
111.5596219282
 21
208.7082230624
 31
0.0
  0
LINE
  5
58
330
1F
100
AcDbEntity
  8
0
  6
Continuous
 62
     7
370
    15
100
AcDbLine
 10
107.3629510337
 20
218.2082230624
 30
0.0
 11
79.9596219282
 21
218.2082230624
 31
0.0
  0
LINE
  5
59
330
1F
100
AcDbEntity
  8
0
  6
Continuous
 62
     7
370
    15
100
AcDbLine
 10
111.5596219282
 20
208.7082230624
 30
0.0
 11
111.7596219282
 21
208.9082230624
 31
0.0
  0
LINE
  5
5A
330
1F
100
AcDbEntity
  8
0
  6
Continuous
 62
     7
370
    15
100
AcDbLine
 10
79.9596219282
 20
218.2082230624
 30
0.0
 11
79.7596219282
 21
218.0082230624
 31
0.0
  0
LINE
  5
5B
330
1F
100
AcDbEntity
  8
0
  6
Continuous
 62
     7
370
    15
100
AcDbLine
 10
79.7596219282
 20
208.9082230624
 30
0.0
 11
79.9596219282
 21
208.7082230624
 31
0.0
  0
LINE
  5
5C
330
1F
100
AcDbEntity
  8
0
  6
Continuous
 62
     7
370
    15
100
AcDbLine
 10
293.5596219282
 20
213.4582230624
 30
0.0
 11
293.5596219282
 21
218.2082230624
 31
0.0
  0
LINE
  5
5D
330
1F
100
AcDbEntity
  8
0
  6
Continuous
 62
     7
370
    15
100
AcDbLine
 10
293.5596219282
 20
208.7082230624
 30
0.0
 11
293.5596219282
 21
213.4582230624
 31
0.0
  0
LINE
  5
5E
330
1F
100
AcDbEntity
  8
0
  6
Continuous
 62
     7
370
    15
100
AcDbLine
 10
293.7596219282
 20
213.4582230624
 30
0.0
 11
293.7596219282
 21
208.9082230624
 31
0.0
  0
LINE
  5
5F
330
1F
100
AcDbEntity
  8
0
  6
Continuous
 62
     7
370
    15
100
AcDbLine
 10
293.7596219282
 20
218.0082230624
 30
0.0
 11
293.7596219282
 21
213.4582230624
 31
0.0
  0
LINE
  5
60
330
1F
100
AcDbEntity
  8
0
  6
Continuous
 62
     7
370
    15
100
AcDbLine
 10
261.9596219282
 20
210.3344359919
 30
0.0
 11
261.9596219282
 21
208.7082230624
 31
0.0
  0
LINE
  5
61
330
1F
100
AcDbEntity
  8
0
  6
Continuous
 62
     7
370
    15
100
AcDbLine
 10
261.7596219282
 20
208.9082230624
 30
0.0
 11
261.7596219282
 21
210.1129904837
 31
0.0
  0
LINE
  5
62
330
1F
100
AcDbEntity
  8
0
  6
Continuous
 62
     7
370
    15
100
AcDbLine
 10
261.9596219282
 20
237.2082230624
 30
0.0
 11
261.9596219282
 21
235.5820101328
 31
0.0
  0
LINE
  5
63
330
1F
100
AcDbEntity
  8
0
  6
Continuous
 62
     7
370
    15
100
AcDbLine
 10
293.5596219282
 20
227.7082230624
 30
0.0
 11
293.5596219282
 21
237.2082230624
 31
0.0
  0
LINE
  5
64
330
1F
100
AcDbEntity
  8
0
  6
Continuous
 62
     7
370
    15
100
AcDbLine
 10
261.7596219282
 20
235.803455641
 30
0.0
 11
261.7596219282
 21
237.0082230624
 31
0.0
  0
LINE
  5
65
330
1F
100
AcDbEntity
  8
0
  6
Continuous
 62
     7
370
    15
100
AcDbLine
 10
293.7596219282
 20
237.0082230624
 30
0.0
 11
293.7596219282
 21
227.9082230624
 31
0.0
  0
LINE
  5
66
330
1F
100
AcDbEntity
  8
0
  6
Continuous
 62
     7
370
    15
100
AcDbLine
 10
111.5596219282
 20
235.5820101328
 30
0.0
 11
111.5596219282
 21
237.2082230624
 31
0.0
  0
LINE
  5
67
330
1F
100
AcDbEntity
  8
0
  6
Continuous
 62
     7
370
    15
100
AcDbLine
 10
79.9596219282
 20
237.2082230624
 30
0.0
 11
79.9596219282
 21
227.7082230624
 31
0.0
  0
LINE
  5
68
330
1F
100
AcDbEntity
  8
0
  6
Continuous
 62
     7
370
    15
100
AcDbLine
 10
111.7596219282
 20
237.0082230624
 30
0.0
 11
111.7596219282
 21
235.803455641
 31
0.0
  0
LINE
  5
69
330
1F
100
AcDbEntity
  8
0
  6
Continuous
 62
     7
370
    15
100
AcDbLine
 10
79.7596219282
 20
227.9082230624
 30
0.0
 11
79.7596219282
 21
237.0082230624
 31
0.0
  0
LINE
  5
6A
330
1F
100
AcDbEntity
  8
0
  6
Continuous
 62
     7
370
    15
100
AcDbLine
 10
111.5596219282
 20
208.7082230624
 30
0.0
 11
111.5596219282
 21
210.3344359919
 31
0.0
  0
LINE
  5
6B
330
1F
100
AcDbEntity
  8
0
  6
Continuous
 62
     7
370
    15
100
AcDbLine
 10
79.9596219282
 20
218.2082230624
 30
0.0
 11
79.9596219282
 21
208.7082230624
 31
0.0
  0
LINE
  5
6C
330
1F
100
AcDbEntity
  8
0
  6
Continuous
 62
     7
370
    15
100
AcDbLine
 10
111.7596219282
 20
210.1129904837
 30
0.0
 11
111.7596219282
 21
208.9082230624
 31
0.0
  0
LINE
  5
6D
330
1F
100
AcDbEntity
  8
0
  6
Continuous
 62
     7
370
    15
100
AcDbLine
 10
79.7596219282
 20
208.9082230624
 30
0.0
 11
79.7596219282
 21
218.0082230624
 31
0.0
  0
CIRCLE
  5
6E
330
1F
100
AcDbEntity
  8
0
  6
Continuous
 62
     7
370
    15
100
AcDbCircle
 10
125.7596219282
 20
222.9582230624
 30
0.0
 40
18.99999999999999
  0
CIRCLE
  5
6F
330
1F
100
AcDbEntity
  8
0
  6
Continuous
 62
     7
370
    15
100
AcDbCircle
 10
125.7596219282
 20
222.9582230624
 30
0.0
 40
17.99999999999996
  0
CIRCLE
  5
70
330
1F
100
AcDbEntity
  8
0
  6
Continuous
 62
     7
370
    15
100
AcDbCircle
 10
247.7596219282
 20
222.9582230624
 30
0.0
 40
19.0
  0
CIRCLE
  5
71
330
1F
100
AcDbEntity
  8
0
  6
Continuous
 62
     7
370
    15
100
AcDbCircle
 10
247.7596219282
 20
222.9582230624
 30
0.0
 40
18.0
  0
LINE
  5
72
330
1F
100
AcDbEntity
  8
0
  6
Continuous
 62
     7
370
    15
100
AcDbLine
 10
261.7596219282
 20
94.4260037807
 30
0.0
 11
261.5578038355
 21
94.4260037807
 31
0.0
  0
LINE
  5
73
330
1F
100
AcDbEntity
  8
0
  6
Continuous
 62
     7
370
    15
100
AcDbLine
 10
231.3051392563
 20
94.4260037807
 30
0.0
 11
142.2141046001
 21
94.4260037807
 31
0.0
  0
LINE
  5
74
330
1F
100
AcDbEntity
  8
0
  6
Continuous
 62
     7
370
    15
100
AcDbLine
 10
111.9462119796
 20
94.4260037807
 30
0.0
 11
111.7596219282
 21
94.4260037807
 31
0.0
  0
LINE
  5
75
330
1F
100
AcDbEntity
  8
0
  6
Continuous
 62
     7
370
    15
100
AcDbLine
 10
111.7596219282
 20
87.4260037807
 30
0.0
 11
111.9615296389
 21
87.4260037807
 31
0.0
  0
LINE
  5
76
330
1F
100
AcDbEntity
  8
0
  6
Continuous
 62
     7
370
    15
100
AcDbLine
 10
142.2141046001
 20
87.4260037807
 30
0.0
 11
231.4743274338
 21
87.4260037807
 31
0.0
  0
LINE
  5
77
330
1F
100
AcDbEntity
  8
0
  6
Continuous
 62
     7
370
    15
100
AcDbLine
 10
261.5743223527
 20
87.4260037807
 30
0.0
 11
261.7596219282
 21
87.4260037807
 31
0.0
  0
LINE
  5
78
330
1F
100
AcDbEntity
  8
0
  6
Continuous
 62
     7
370
    15
100
AcDbLine
 10
293.5596219282
 20
95.6760037807
 30
0.0
 11
263.2581222208
 21
95.6760037807
 31
0.0
  0
LINE
  5
79
330
1F
100
AcDbEntity
  8
0
  6
Continuous
 62
     7
370
    15
100
AcDbLine
 10
263.2285612705
 20
86.1760037807
 30
0.0
 11
293.5596219282
 21
86.1760037807
 31
0.0
  0
LINE
  5
7A
330
1F
100
AcDbEntity
  8
0
  6
Continuous
 62
     7
370
    15
100
AcDbLine
 10
293.5596219282
 20
86.1760037807
 30
0.0
 11
293.7596219282
 21
86.3760037807
 31
0.0
  0
LINE
  5
7B
330
1F
100
AcDbEntity
  8
0
  6
Continuous
 62
     7
370
    15
100
AcDbLine
 10
293.7596219282
 20
95.4760037807
 30
0.0
 11
293.5596219282
 21
95.6760037807
 31
0.0
  0
LINE
  5
7C
330
1F
100
AcDbEntity
  8
0
  6
Continuous
 62
     7
370
    15
100
AcDbLine
 10
79.9596219282
 20
86.1760037807
 30
0.0
 11
110.2631282929
 21
86.1760037807
 31
0.0
  0
LINE
  5
7D
330
1F
100
AcDbEntity
  8
0
  6
Continuous
 62
     7
370
    15
100
AcDbLine
 10
110.2890764811
 20
95.6760037807
 30
0.0
 11
79.9596219282
 21
95.6760037807
 31
0.0
  0
LINE
  5
7E
330
1F
100
AcDbEntity
  8
0
  6
Continuous
 62
     7
370
    15
100
AcDbLine
 10
79.9596219282
 20
95.6760037807
 30
0.0
 11
79.7596219282
 21
95.4760037807
 31
0.0
  0
LINE
  5
7F
330
1F
100
AcDbEntity
  8
0
  6
Continuous
 62
     7
370
    15
100
AcDbLine
 10
79.7596219282
 20
86.3760037807
 30
0.0
 11
79.9596219282
 21
86.1760037807
 31
0.0
  0
LINE
  5
80
330
1F
100
AcDbEntity
  8
0
  6
Continuous
 62
     7
370
    15
100
AcDbLine
 10
266.7596219282
 20
103.2260037807
 30
0.0
 11
266.5596219282
 21
103.4260037807
 31
0.0
  0
LINE
  5
81
330
1F
100
AcDbEntity
  8
0
  6
Continuous
 62
     7
370
    15
100
AcDbLine
 10
228.9596219282
 20
103.4260037807
 30
0.0
 11
228.7596219282
 21
103.2260037807
 31
0.0
  0
LINE
  5
82
330
1F
100
AcDbEntity
  8
0
  6
Continuous
 62
     7
370
    15
100
AcDbLine
 10
228.7596219282
 20
103.2260037807
 30
0.0
 11
228.7596219282
 21
94.4260037807
 31
0.0
  0
LINE
  5
83
330
1F
100
AcDbEntity
  8
0
  6
Continuous
 62
     7
370
    15
100
AcDbLine
 10
266.7596219282
 20
95.6760037807
 30
0.0
 11
266.7596219282
 21
103.2260037807
 31
0.0
  0
LINE
  5
84
330
1F
100
AcDbEntity
  8
0
  6
Continuous
 62
     7
370
    15
100
AcDbLine
 10
106.7596219282
 20
103.2260037807
 30
0.0
 11
106.7596219282
 21
95.6760037807
 31
0.0
  0
LINE
  5
85
330
1F
100
AcDbEntity
  8
0
  6
Continuous
 62
     7
370
    15
100
AcDbLine
 10
144.7596219282
 20
94.4260037807
 30
0.0
 11
144.7596219282
 21
103.2260037807
 31
0.0
  0
LINE
  5
86
330
1F
100
AcDbEntity
  8
0
  6
Continuous
 62
     7
370
    15
100
AcDbLine
 10
144.7596219282
 20
103.2260037807
 30
0.0
 11
144.5596219282
 21
103.4260037807
 31
0.0
  0
LINE
  5
87
330
1F
100
AcDbEntity
  8
0
  6
Continuous
 62
     7
370
    15
100
AcDbLine
 10
106.9596219282
 20
103.4260037807
 30
0.0
 11
106.7596219282
 21
103.2260037807
 31
0.0
  0
LINE
  5
88
330
1F
100
AcDbEntity
  8
0
  6
Continuous
 62
     7
370
    15
100
AcDbLine
 10
266.7596219282
 20
70.6260037807
 30
0.0
 11
266.7596219282
 21
86.1760037807
 31
0.0
  0
LINE
  5
89
330
1F
100
AcDbEntity
  8
0
  6
Continuous
 62
     7
370
    15
100
AcDbLine
 10
228.7596219282
 20
87.4260037807
 30
0.0
 11
228.7596219282
 21
70.6260037807
 31
0.0
  0
LINE
  5
8A
330
1F
100
AcDbEntity
  8
0
  6
Continuous
 62
     7
370
    15
100
AcDbLine
 10
228.7596219282
 20
70.6260037807
 30
0.0
 11
228.9596219282
 21
70.4260037807
 31
0.0
  0
LINE
  5
8B
330
1F
100
AcDbEntity
  8
0
  6
Continuous
 62
     7
370
    15
100
AcDbLine
 10
266.5596219282
 20
70.4260037807
 30
0.0
 11
266.7596219282
 21
70.6260037807
 31
0.0
  0
LINE
  5
8C
330
1F
100
AcDbEntity
  8
0
  6
Continuous
 62
     7
370
    15
100
AcDbLine
 10
106.7596219282
 20
70.6260037807
 30
0.0
 11
106.9596219282
 21
70.4260037807
 31
0.0
  0
LINE
  5
8D
330
1F
100
AcDbEntity
  8
0
  6
Continuous
 62
     7
370
    15
100
AcDbLine
 10
144.5596219282
 20
70.4260037807
 30
0.0
 11
144.7596219282
 21
70.6260037807
 31
0.0
  0
LINE
  5
8E
330
1F
100
AcDbEntity
  8
0
  6
Continuous
 62
     7
370
    15
100
AcDbLine
 10
144.7596219282
 20
70.6260037807
 30
0.0
 11
144.7596219282
 21
87.4260037807
 31
0.0
  0
LINE
  5
8F
330
1F
100
AcDbEntity
  8
0
  6
Continuous
 62
     7
370
    15
100
AcDbLine
 10
106.7596219282
 20
86.1760037807
 30
0.0
 11
106.7596219282
 21
70.6260037807
 31
0.0
  0
LINE
  5
90
330
1F
100
AcDbEntity
  8
0
  6
Continuous
 62
     7
370
    15
100
AcDbLine
 10
240.2596219282
 20
66.4260037807
 30
0.0
 11
240.2596219282
 21
56.4260037807
 31
0.0
  0
LINE
  5
91
330
1F
100
AcDbEntity
  8
0
  6
Continuous
 62
     7
370
    15
100
AcDbLine
 10
255.2596219282
 20
56.4260037807
 30
0.0
 11
255.2596219282
 21
66.4260037807
 31
0.0
  0
LINE
  5
92
330
1F
100
AcDbEntity
  8
0
  6
Continuous
 62
     7
370
    15
100
AcDbLine
 10
118.2596219282
 20
66.4260037807
 30
0.0
 11
118.2596219282
 21
56.4260037807
 31
0.0
  0
LINE
  5
93
330
1F
100
AcDbEntity
  8
0
  6
Continuous
 62
     7
370
    15
100
AcDbLine
 10
133.2596219282
 20
56.4260037807
 30
0.0
 11
133.2596219282
 21
66.4260037807
 31
0.0
  0
LINE
  5
94
330
1F
100
AcDbEntity
  8
0
  6
Continuous
 62
     7
370
    15
100
AcDbLine
 10
265.7596219282
 20
68.4260037807
 30
0.0
 11
265.7596219282
 21
70.4260037807
 31
0.0
  0
LINE
  5
95
330
1F
100
AcDbEntity
  8
0
  6
Continuous
 62
     7
370
    15
100
AcDbLine
 10
229.7596219282
 20
70.4260037807
 30
0.0
 11
229.7596219282
 21
68.4260037807
 31
0.0
  0
LINE
  5
96
330
1F
100
AcDbEntity
  8
0
  6
Continuous
 62
     7
370
    15
100
AcDbLine
 10
265.7596219282
 20
52.4260037807
 30
0.0
 11
265.7596219282
 21
54.4260037807
 31
0.0
  0
LINE
  5
97
330
1F
100
AcDbEntity
  8
0
  6
Continuous
 62
     7
370
    15
100
AcDbLine
 10
229.7596219282
 20
54.4260037807
 30
0.0
 11
229.7596219282
 21
52.4260037807
 31
0.0
  0
LINE
  5
98
330
1F
100
AcDbEntity
  8
0
  6
Continuous
 62
     7
370
    15
100
AcDbLine
 10
143.7596219282
 20
68.4260037807
 30
0.0
 11
143.7596219282
 21
70.4260037807
 31
0.0
  0
LINE
  5
99
330
1F
100
AcDbEntity
  8
0
  6
Continuous
 62
     7
370
    15
100
AcDbLine
 10
107.7596219282
 20
70.4260037807
 30
0.0
 11
107.7596219282
 21
68.4260037807
 31
0.0
  0
LINE
  5
9A
330
1F
100
AcDbEntity
  8
0
  6
Continuous
 62
     7
370
    15
100
AcDbLine
 10
143.7596219282
 20
52.4260037807
 30
0.0
 11
143.7596219282
 21
54.4260037807
 31
0.0
  0
LINE
  5
9B
330
1F
100
AcDbEntity
  8
0
  6
Continuous
 62
     7
370
    15
100
AcDbLine
 10
107.7596219282
 20
54.4260037807
 30
0.0
 11
107.7596219282
 21
52.4260037807
 31
0.0
  0
LINE
  5
9C
330
1F
100
AcDbEntity
  8
0
  6
Continuous
 62
     7
370
    15
100
AcDbLine
 10
106.7596219282
 20
52.2260037807
 30
0.0
 11
106.7596219282
 21
45.4260037807
 31
0.0
  0
LINE
  5
9D
330
1F
100
AcDbEntity
  8
0
  6
Continuous
 62
     7
370
    15
100
AcDbLine
 10
144.7596219282
 20
45.4260037807
 30
0.0
 11
144.7596219282
 21
52.2260037807
 31
0.0
  0
ARC
  5
9E
330
1F
100
AcDbEntity
  8
0
  6
Continuous
 62
     7
370
    15
100
AcDbCircle
 10
107.7596219282
 20
45.4260037807
 30
0.0
 40
1.0
100
AcDbArc
 50
180.0
 51
270.0
  0
ARC
  5
9F
330
1F
100
AcDbEntity
  8
0
  6
Continuous
 62
     7
370
    15
100
AcDbCircle
 10
143.7596219282
 20
45.4260037807
 30
0.0
 40
1.0
100
AcDbArc
 50
270.0
 51
0.0
  0
LINE
  5
A0
330
1F
100
AcDbEntity
  8
0
  6
Continuous
 62
     7
370
    15
100
AcDbLine
 10
144.7596219282
 20
52.2260037807
 30
0.0
 11
144.5596219282
 21
52.4260037807
 31
0.0
  0
LINE
  5
A1
330
1F
100
AcDbEntity
  8
0
  6
Continuous
 62
     7
370
    15
100
AcDbLine
 10
106.9596219282
 20
52.4260037807
 30
0.0
 11
106.7596219282
 21
52.2260037807
 31
0.0
  0
LINE
  5
A2
330
1F
100
AcDbEntity
  8
0
  6
Continuous
 62
     7
370
    15
100
AcDbLine
 10
130.7596219282
 20
54.4260037807
 30
0.0
 11
130.7596219282
 21
56.4260037807
 31
0.0
  0
LINE
  5
A3
330
1F
100
AcDbEntity
  8
0
  6
Continuous
 62
     7
370
    15
100
AcDbLine
 10
130.7596219282
 20
66.4260037807
 30
0.0
 11
130.7596219282
 21
68.4260037807
 31
0.0
  0
LINE
  5
A4
330
1F
100
AcDbEntity
  8
0
  6
Continuous
 62
     7
370
    15
100
AcDbLine
 10
120.7596219282
 20
68.4260037807
 30
0.0
 11
120.7596219282
 21
66.4260037807
 31
0.0
  0
LINE
  5
A5
330
1F
100
AcDbEntity
  8
0
  6
Continuous
 62
     7
370
    15
100
AcDbLine
 10
120.7596219282
 20
56.4260037807
 30
0.0
 11
120.7596219282
 21
54.4260037807
 31
0.0
  0
LINE
  5
A6
330
1F
100
AcDbEntity
  8
0
  6
Continuous
 62
     7
370
    15
100
AcDbLine
 10
266.7596219282
 20
52.2260037807
 30
0.0
 11
266.5596219282
 21
52.4260037807
 31
0.0
  0
LINE
  5
A7
330
1F
100
AcDbEntity
  8
0
  6
Continuous
 62
     7
370
    15
100
AcDbLine
 10
228.9596219282
 20
52.4260037807
 30
0.0
 11
228.7596219282
 21
52.2260037807
 31
0.0
  0
LINE
  5
A8
330
1F
100
AcDbEntity
  8
0
  6
Continuous
 62
     7
370
    15
100
AcDbLine
 10
228.7596219282
 20
52.2260037807
 30
0.0
 11
228.7596219282
 21
45.4260037807
 31
0.0
  0
LINE
  5
A9
330
1F
100
AcDbEntity
  8
0
  6
Continuous
 62
     7
370
    15
100
AcDbLine
 10
266.7596219282
 20
45.4260037807
 30
0.0
 11
266.7596219282
 21
52.2260037807
 31
0.0
  0
ARC
  5
AA
330
1F
100
AcDbEntity
  8
0
  6
Continuous
 62
     7
370
    15
100
AcDbCircle
 10
229.7596219282
 20
45.4260037807
 30
0.0
 40
1.0
100
AcDbArc
 50
180.0
 51
270.0
  0
ARC
  5
AB
330
1F
100
AcDbEntity
  8
0
  6
Continuous
 62
     7
370
    15
100
AcDbCircle
 10
265.7596219282
 20
45.4260037807
 30
0.0
 40
1.0
100
AcDbArc
 50
270.0
 51
0.0
  0
LINE
  5
AC
330
1F
100
AcDbEntity
  8
0
  6
Continuous
 62
     7
370
    15
100
AcDbLine
 10
252.7596219282
 20
54.4260037807
 30
0.0
 11
252.7596219282
 21
56.4260037807
 31
0.0
  0
LINE
  5
AD
330
1F
100
AcDbEntity
  8
0
  6
Continuous
 62
     7
370
    15
100
AcDbLine
 10
252.7596219282
 20
66.4260037807
 30
0.0
 11
252.7596219282
 21
68.4260037807
 31
0.0
  0
LINE
  5
AE
330
1F
100
AcDbEntity
  8
0
  6
Continuous
 62
     7
370
    15
100
AcDbLine
 10
242.7596219282
 20
68.4260037807
 30
0.0
 11
242.7596219282
 21
66.4260037807
 31
0.0
  0
LINE
  5
AF
330
1F
100
AcDbEntity
  8
0
  6
Continuous
 62
     7
370
    15
100
AcDbLine
 10
242.7596219282
 20
56.4260037807
 30
0.0
 11
242.7596219282
 21
54.4260037807
 31
0.0
  0
LINE
  5
B0
330
1F
100
AcDbEntity
  8
0
  6
Continuous
 62
     7
370
    15
100
AcDbLine
 10
261.7596219282
 20
87.1965982147
 30
0.0
 11
261.7596219282
 21
94.6813823099
 31
0.0
  0
LINE
  5
B1
330
1F
100
AcDbEntity
  8
0
  6
Continuous
 62
     7
370
    15
100
AcDbLine
 10
261.9596219282
 20
94.8687484876
 30
0.0
 11
261.9596219282
 21
87.0271096483
 31
0.0
  0
LINE
  5
B2
330
1F
100
AcDbEntity
  8
0
  6
Continuous
 62
     7
370
    15
100
AcDbLine
 10
293.5596219282
 20
86.1760037807
 30
0.0
 11
293.5596219282
 21
95.6760037807
 31
0.0
  0
LINE
  5
B3
330
1F
100
AcDbEntity
  8
0
  6
Continuous
 62
     7
370
    15
100
AcDbLine
 10
293.7596219282
 20
95.4760037807
 30
0.0
 11
293.7596219282
 21
86.3760037807
 31
0.0
  0
LINE
  5
B4
330
1F
100
AcDbEntity
  8
0
  6
Continuous
 62
     7
370
    15
100
AcDbLine
 10
111.5596219282
 20
86.9848776716
 30
0.0
 11
111.5596219282
 21
94.8564593218
 31
0.0
  0
LINE
  5
B5
330
1F
100
AcDbEntity
  8
0
  6
Continuous
 62
     7
370
    15
100
AcDbLine
 10
79.9596219282
 20
95.6760037807
 30
0.0
 11
79.9596219282
 21
86.1760037807
 31
0.0
  0
LINE
  5
B6
330
1F
100
AcDbEntity
  8
0
  6
Continuous
 62
     7
370
    15
100
AcDbLine
 10
79.7596219282
 20
86.3760037807
 30
0.0
 11
79.7596219282
 21
95.4760037807
 31
0.0
  0
LINE
  5
B7
330
1F
100
AcDbEntity
  8
0
  6
Continuous
 62
     7
370
    15
100
AcDbLine
 10
111.7596219282
 20
94.6958968954
 30
0.0
 11
111.7596219282
 21
87.2063782437
 31
0.0
  0
LINE
  5
B8
330
1F
100
AcDbEntity
  8
0
  6
Continuous
 62
     7
370
    15
100
AcDbLine
 10
266.7596219282
 20
103.2260037807
 30
0.0
 11
228.7596219282
 21
103.2260037807
 31
0.0
  0
LINE
  5
B9
330
1F
100
AcDbEntity
  8
0
  6
Continuous
 62
     7
370
    15
100
AcDbLine
 10
228.9596219282
 20
103.4260037807
 30
0.0
 11
266.5596219282
 21
103.4260037807
 31
0.0
  0
SPLINE
  5
BA
330
1F
100
AcDbEntity
  8
0
  6
Continuous
 62
     7
370
    15
100
AcDbSpline
210
0.0
220
0.0
230
1.0
 70
     8
 71
     3
 72
    13
 73
     9
 74
     0
 42
0.00000001
 43
0.00000001
 40
0.0
 40
0.0
 40
0.0
 40
0.0
 40
0.0163545116320404
 40
0.2819963414187335
 40
0.5781173249067924
 40
0.8129589140602282
 40
0.9954063435218676
 40
1.0
 40
1.0
 40
1.0
 40
1.0
 10
231.3092865874771
 20
94.41416711977074
 30
0.0
 10
231.3231705684861
 20
94.4180408712796
 30
0.0
 10
231.5625682305477
 20
94.48483490204264
 30
0.0
 10
232.1477626183027
 20
94.20744478207777
 30
0.0
 10
232.9278029144079
 20
93.58471165491949
 30
0.0
 10
233.53728936949
 20
92.65480838873626
 30
0.0
 10
233.773259835909
 20
91.95953363187795
 30
0.0
 10
233.83567639322
 20
91.63399879008938
 30
0.0
 10
233.8372093196431
 20
91.62600378071845
 30
0.0
  0
SPLINE
  5
BB
330
1F
100
AcDbEntity
  8
0
  6
Continuous
 62
     7
370
    15
100
AcDbSpline
210
0.0
220
0.0
230
1.0
 70
     8
 71
     3
 72
    17
 73
    13
 74
     0
 42
0.00000001
 43
0.00000001
 40
0.0
 40
0.0
 40
0.0
 40
0.0
 40
0.0754319400817587
 40
0.1510197983335233
 40
0.2454303323508295
 40
0.3399921477869102
 40
0.4628391814606175
 40
0.5857260469638893
 40
0.7093165712311055
 40
0.8327953422684754
 40
0.9290067310341262
 40
1.0
 40
1.0
 40
1.0
 40
1.0
 10
260.0955696891575
 20
91.62600378071843
 30
0.0
 10
260.1487660207072
 20
91.8689674956383
 30
0.0
 10
260.2552686408708
 20
92.35539713260368
 30
0.0
 10
260.5667066446076
 20
93.06986548903289
 30
0.0
 10
260.9798602961532
 20
93.7533591607427
 30
0.0
 10
261.5364784964095
 20
94.44142838740959
 30
0.0
 10
262.184869964393
 20
95.05405546364332
 30
0.0
 10
262.9013656165683
 20
95.54672730781678
 30
0.0
 10
263.5982100052557
 20
95.85850758003178
 30
0.0
 10
264.2020186627183
 20
95.95269955445461
 30
0.0
 10
264.6689268781377
 20
95.88850273249592
 30
0.0
 10
264.8972610152023
 20
95.7393376453228
 30
0.0
 10
264.9942091925237
 20
95.67600378071836
 30
0.0
  0
LINE
  5
BC
330
1F
100
AcDbEntity
  8
0
  6
Continuous
 62
     7
370
    15
100
AcDbLine
 10
233.8372093196
 20
91.6260037807
 30
0.0
 11
260.0955696892
 21
91.6260037807
 31
0.0
  0
LINE
  5
BD
330
1F
100
AcDbEntity
  8
0
  6
Continuous
 62
     7
370
    15
100
AcDbLine
 10
259.7561294814
 20
91.4260037807
 30
0.0
 11
234.1444807496
 21
91.4260037807
 31
0.0
  0
LINE
  5
BE
330
1F
100
AcDbEntity
  8
0
  6
Continuous
 62
     7
370
    15
100
AcDbLine
 10
234.1444807496
 20
91.4260037807
 30
0.0
 11
233.8372093196
 21
91.6260037807
 31
0.0
  0
LINE
  5
BF
330
1F
100
AcDbEntity
  8
0
  6
Continuous
 62
     7
370
    15
100
AcDbLine
 10
260.0955696892
 20
91.6260037807
 30
0.0
 11
259.7561294814
 21
91.4260037807
 31
0.0
  0
SPLINE
  5
C0
330
1F
100
AcDbEntity
  8
0
  6
Continuous
 62
     7
370
    15
100
AcDbSpline
210
0.0
220
0.0
230
1.0
 70
     8
 71
     3
 72
    12
 73
     8
 74
     0
 42
0.00000001
 43
0.00000001
 40
0.0
 40
0.0
 40
0.0
 40
0.0
 40
0.048681072700468
 40
0.2260501750269359
 40
0.4771469208462132
 40
0.7332640204892917
 40
0.9999999999999999
 40
0.9999999999999999
 40
0.9999999999999999
 40
0.9999999999999999
 10
139.6820345366896
 20
91.62600378071846
 30
0.0
 10
139.6998464983027
 20
91.7101255416237
 30
0.0
 10
139.7825562007984
 20
92.10074427127256
 30
0.0
 10
140.0885321083605
 20
92.85546373102085
 30
0.0
 10
140.6963828228071
 20
93.67743343552682
 30
0.0
 10
141.468790129313
 20
94.30376141262958
 30
0.0
 10
141.9586748264067
 20
94.36619579464627
 30
0.0
 10
142.2085918293592
 20
94.3980469909122
 30
0.0
  0
LINE
  5
C1
330
1F
100
AcDbEntity
  8
0
  6
Continuous
 62
     7
370
    15
100
AcDbLine
 10
113.4236741672
 20
91.6260037807
 30
0.0
 11
139.6820345367
 21
91.6260037807
 31
0.0
  0
SPLINE
  5
C2
330
1F
100
AcDbEntity
  8
0
  6
Continuous
 62
     7
370
    15
100
AcDbSpline
210
0.0
220
0.0
230
1.0
 70
     8
 71
     3
 72
    15
 73
    11
 74
     0
 42
0.00000001
 43
0.00000001
 40
0.0
 40
0.0
 40
0.0
 40
0.0
 40
0.0697381210165203
 40
0.2572214050909925
 40
0.3646807675011772
 40
0.4721788172517743
 40
0.5955411352861235
 40
0.7187978450469316
 40
0.8808674226720115
 40
1.0
 40
1.0
 40
1.0
 40
1.0
 10
108.6087695387241
 20
95.67600378071836
 30
0.0
 10
108.6984767922455
 20
95.74767306840879
 30
0.0
 10
109.0293521508196
 20
96.01201736981652
 30
0.0
 10
109.666098873987
 20
95.92632344072902
 30
0.0
 10
110.395853883483
 20
95.65927994051422
 30
0.0
 10
111.0352461605263
 20
95.27495147353767
 30
0.0
 10
111.7097744528666
 20
94.7251860535708
 30
0.0
 10
112.4457965814278
 20
93.9054668608428
 30
0.0
 10
113.109537462384
 20
92.88316961894269
 30
0.0
 10
113.3301926072269
 20
92.00011422969948
 30
0.0
 10
113.4236741671752
 20
91.62600378071845
 30
0.0
  0
LINE
  5
C3
330
1F
100
AcDbEntity
  8
0
  6
Continuous
 62
     7
370
    15
100
AcDbLine
 10
144.7596219282
 20
103.2260037807
 30
0.0
 11
106.7596219282
 21
103.2260037807
 31
0.0
  0
LINE
  5
C4
330
1F
100
AcDbEntity
  8
0
  6
Continuous
 62
     7
370
    15
100
AcDbLine
 10
139.6820345367
 20
91.6260037807
 30
0.0
 11
139.3747631067
 21
91.4260037807
 31
0.0
  0
LINE
  5
C5
330
1F
100
AcDbEntity
  8
0
  6
Continuous
 62
     7
370
    15
100
AcDbLine
 10
139.3747631067
 20
91.4260037807
 30
0.0
 11
113.7631143749
 21
91.4260037807
 31
0.0
  0
LINE
  5
C6
330
1F
100
AcDbEntity
  8
0
  6
Continuous
 62
     7
370
    15
100
AcDbLine
 10
113.7631143749
 20
91.4260037807
 30
0.0
 11
113.4236741672
 21
91.6260037807
 31
0.0
  0
LINE
  5
C7
330
1F
100
AcDbEntity
  8
0
  6
Continuous
 62
     7
370
    15
100
AcDbLine
 10
106.9596219282
 20
103.4260037807
 30
0.0
 11
144.5596219282
 21
103.4260037807
 31
0.0
  0
SPLINE
  5
C8
330
1F
100
AcDbEntity
  8
0
  6
Continuous
 62
     7
370
    15
100
AcDbSpline
210
0.0
220
0.0
230
1.0
 70
     8
 71
     3
 72
    16
 73
    12
 74
     0
 42
0.00000001
 43
0.00000001
 40
0.0
 40
0.0
 40
0.0
 40
0.0
 40
0.0485339531864963
 40
0.136152654166023
 40
0.2258690097861262
 40
0.3496864855929736
 40
0.4770484799385439
 40
0.603718410861693
 40
0.7330443305274768
 40
0.8813825125851292
 40
1.0
 40
1.0
 40
1.0
 40
1.0
 10
233.8372093196431
 20
90.22600378071843
 30
0.0
 10
233.8194566242827
 20
90.141839522054
 30
0.0
 10
233.7696548580301
 20
89.90573291109969
 30
0.0
 10
233.6470256634235
 20
89.53573263388259
 30
0.0
 10
233.4418074701093
 20
89.08306902961355
 30
0.0
 10
233.162793445669
 20
88.63228072273431
 30
0.0
 10
232.8176372424899
 20
88.21594900765697
 30
0.0
 10
232.4472075432012
 20
87.8780301712008
 30
0.0
 10
232.0498954644864
 20
87.61786918030931
 30
0.0
 10
231.6613812601583
 20
87.45028641736108
 30
0.0
 10
231.4169671460036
 20
87.44228288443853
 30
0.0
 10
231.3083656386183
 20
87.43872664243179
 30
0.0
  0
LINE
  5
C9
330
1F
100
AcDbEntity
  8
0
  6
Continuous
 62
     7
370
    15
100
AcDbLine
 10
260.0955696892
 20
90.2260037807
 30
0.0
 11
233.8372093196
 21
90.2260037807
 31
0.0
  0
SPLINE
  5
CA
330
1F
100
AcDbEntity
  8
0
  6
Continuous
 62
     7
370
    15
100
AcDbSpline
210
0.0
220
0.0
230
1.0
 70
     8
 71
     3
 72
    19
 73
    15
 74
     0
 42
0.00000001
 43
0.00000001
 40
0.0
 40
0.0
 40
0.0
 40
0.0
 40
0.0036810796414681
 40
0.0891585825825545
 40
0.1800418906610763
 40
0.2729620333758566
 40
0.3768953659419835
 40
0.4831360640825889
 40
0.6019919476903542
 40
0.7242605641452026
 40
0.8028604619930545
 40
0.883172825893807
 40
0.9409197866364335
 40
1.0
 40
1.0
 40
1.0
 40
1.0
 10
265.0170760647896
 20
86.17600378071836
 30
0.0
 10
265.0124465763018
 20
86.17164822513612
 30
0.0
 10
264.9003168013854
 20
86.06615331606166
 30
0.0
 10
264.6281101426479
 20
85.97049786160993
 30
0.0
 10
264.1974377525183
 20
85.9021782653137
 30
0.0
 10
263.6905544989634
 20
85.97924030802415
 30
0.0
 10
263.1251467553018
 20
86.1936026612739
 30
0.0
 10
262.4893148856921
 20
86.57252509211723
 30
0.0
 10
261.8148660009986
 20
87.12417543405837
 30
0.0
 10
261.2194247248222
 20
87.77827946817851
 30
0.0
 10
260.7477569424573
 20
88.46256146507103
 30
0.0
 10
260.4379010052911
 20
89.06034788522835
 30
0.0
 10
260.2133796720055
 20
89.6548653164409
 30
0.0
 10
260.1351373220076
 20
90.03418135179709
 30
0.0
 10
260.0955696891575
 20
90.22600378071843
 30
0.0
  0
LINE
  5
CB
330
1F
100
AcDbEntity
  8
0
  6
Continuous
 62
     7
370
    15
100
AcDbLine
 10
228.7596219282
 20
70.6260037807
 30
0.0
 11
266.7596219282
 21
70.6260037807
 31
0.0
  0
LINE
  5
CC
330
1F
100
AcDbEntity
  8
0
  6
Continuous
 62
     7
370
    15
100
AcDbLine
 10
233.8372093196
 20
90.2260037807
 30
0.0
 11
234.1444807496
 21
90.4260037807
 31
0.0
  0
LINE
  5
CD
330
1F
100
AcDbEntity
  8
0
  6
Continuous
 62
     7
370
    15
100
AcDbLine
 10
234.1444807496
 20
90.4260037807
 30
0.0
 11
259.7561294814
 21
90.4260037807
 31
0.0
  0
LINE
  5
CE
330
1F
100
AcDbEntity
  8
0
  6
Continuous
 62
     7
370
    15
100
AcDbLine
 10
259.7561294814
 20
90.4260037807
 30
0.0
 11
260.0955696892
 21
90.2260037807
 31
0.0
  0
LINE
  5
CF
330
1F
100
AcDbEntity
  8
0
  6
Continuous
 62
     7
370
    15
100
AcDbLine
 10
266.5596219282
 20
70.4260037807
 30
0.0
 11
228.9596219282
 21
70.4260037807
 31
0.0
  0
LINE
  5
D0
330
1F
100
AcDbEntity
  8
0
  6
Continuous
 62
     7
370
    15
100
AcDbLine
 10
106.7596219282
 20
70.6260037807
 30
0.0
 11
144.7596219282
 21
70.6260037807
 31
0.0
  0
LINE
  5
D1
330
1F
100
AcDbEntity
  8
0
  6
Continuous
 62
     7
370
    15
100
AcDbLine
 10
144.5596219282
 20
70.4260037807
 30
0.0
 11
106.9596219282
 21
70.4260037807
 31
0.0
  0
SPLINE
  5
D2
330
1F
100
AcDbEntity
  8
0
  6
Continuous
 62
     7
370
    15
100
AcDbSpline
210
0.0
220
0.0
230
1.0
 70
     8
 71
     3
 72
    13
 73
     9
 74
     0
 42
0.00000001
 43
0.00000001
 40
0.0
 40
0.0
 40
0.0
 40
0.0
 40
0.0163545116320386
 40
0.2819963414187334
 40
0.5781173249067932
 40
0.8129589140602261
 40
0.9954063435218679
 40
0.9999999999999999
 40
0.9999999999999999
 40
0.9999999999999999
 40
0.9999999999999999
 10
142.2099572688556
 20
87.43784044166614
 30
0.0
 10
142.1960732878466
 20
87.43396669015728
 30
0.0
 10
141.9566756257848
 20
87.36717265939434
 30
0.0
 10
141.37148123803
 20
87.64456277935906
 30
0.0
 10
140.5914409419248
 20
88.26729590651733
 30
0.0
 10
139.9819544868425
 20
89.19719917270085
 30
0.0
 10
139.745984020424
 20
89.89247392955859
 30
0.0
 10
139.6835674631126
 20
90.2180087713475
 30
0.0
 10
139.6820345366896
 20
90.22600378071844
 30
0.0
  0
SPLINE
  5
D3
330
1F
100
AcDbEntity
  8
0
  6
Continuous
 62
     7
370
    15
100
AcDbSpline
210
0.0
220
0.0
230
1.0
 70
     8
 71
     3
 72
    17
 73
    13
 74
     0
 42
0.00000001
 43
0.00000001
 40
0.0
 40
0.0
 40
0.0
 40
0.0
 40
0.0740494329521461
 40
0.1510390856615366
 40
0.2442011762351196
 40
0.3400167484967345
 40
0.4611385113191052
 40
0.5857573008780876
 40
0.7073329087133736
 40
0.8328430422616313
 40
0.927727273732023
 40
1.0
 40
1.0
 40
1.0
 40
1.0
 10
113.4236741671752
 20
90.22600378071846
 30
0.0
 10
113.3719151348839
 20
89.9873267802177
 30
0.0
 10
113.2663419170978
 20
89.5004958284214
 30
0.0
 10
112.9561120764282
 20
88.78952390949581
 30
0.0
 10
112.5413243703928
 20
88.10174075045236
 30
0.0
 10
111.9884341512159
 20
87.4165693012259
 30
0.0
 10
111.3371208429281
 20
86.80090101413184
 30
0.0
 10
110.6254020316938
 20
86.30957530049841
 30
0.0
 10
109.9240085619148
 20
85.99393752124357
 30
0.0
 10
109.3231520116778
 20
85.89967058030768
 30
0.0
 10
108.8519982268568
 20
85.96217767937428
 30
0.0
 10
108.623921220545
 20
86.11145958956878
 30
0.0
 10
108.5253088309191
 20
86.17600378071836
 30
0.0
  0
LINE
  5
D4
330
1F
100
AcDbEntity
  8
0
  6
Continuous
 62
     7
370
    15
100
AcDbLine
 10
139.6820345367
 20
90.2260037807
 30
0.0
 11
113.4236741672
 21
90.2260037807
 31
0.0
  0
LINE
  5
D5
330
1F
100
AcDbEntity
  8
0
  6
Continuous
 62
     7
370
    15
100
AcDbLine
 10
113.7631143749
 20
90.4260037807
 30
0.0
 11
139.3747631067
 21
90.4260037807
 31
0.0
  0
LINE
  5
D6
330
1F
100
AcDbEntity
  8
0
  6
Continuous
 62
     7
370
    15
100
AcDbLine
 10
139.3747631067
 20
90.4260037807
 30
0.0
 11
139.6820345367
 21
90.2260037807
 31
0.0
  0
LINE
  5
D7
330
1F
100
AcDbEntity
  8
0
  6
Continuous
 62
     7
370
    15
100
AcDbLine
 10
113.4236741672
 20
90.2260037807
 30
0.0
 11
113.7631143749
 21
90.4260037807
 31
0.0
  0
LINE
  5
D8
330
1F
100
AcDbEntity
  8
0
  6
Continuous
 62
     7
370
    15
100
AcDbLine
 10
255.2596219282
 20
56.4260037807
 30
0.0
 11
240.2596219282
 21
56.4260037807
 31
0.0
  0
LINE
  5
D9
330
1F
100
AcDbEntity
  8
0
  6
Continuous
 62
     7
370
    15
100
AcDbLine
 10
255.2596219282
 20
66.4260037807
 30
0.0
 11
240.2596219282
 21
66.4260037807
 31
0.0
  0
LINE
  5
DA
330
1F
100
AcDbEntity
  8
0
  6
Continuous
 62
     7
370
    15
100
AcDbLine
 10
133.2596219282
 20
66.4260037807
 30
0.0
 11
118.2596219282
 21
66.4260037807
 31
0.0
  0
LINE
  5
DB
330
1F
100
AcDbEntity
  8
0
  6
Continuous
 62
     7
370
    15
100
AcDbLine
 10
133.2596219282
 20
56.4260037807
 30
0.0
 11
118.2596219282
 21
56.4260037807
 31
0.0
  0
LINE
  5
DC
330
1F
100
AcDbEntity
  8
0
  6
Continuous
 62
     7
370
    15
100
AcDbLine
 10
229.7596219282
 20
68.4260037807
 30
0.0
 11
265.7596219282
 21
68.4260037807
 31
0.0
  0
LINE
  5
DD
330
1F
100
AcDbEntity
  8
0
  6
Continuous
 62
     7
370
    15
100
AcDbLine
 10
229.7596219282
 20
54.4260037807
 30
0.0
 11
265.7596219282
 21
54.4260037807
 31
0.0
  0
LINE
  5
DE
330
1F
100
AcDbEntity
  8
0
  6
Continuous
 62
     7
370
    15
100
AcDbLine
 10
107.7596219282
 20
68.4260037807
 30
0.0
 11
143.7596219282
 21
68.4260037807
 31
0.0
  0
LINE
  5
DF
330
1F
100
AcDbEntity
  8
0
  6
Continuous
 62
     7
370
    15
100
AcDbLine
 10
107.7596219282
 20
54.4260037807
 30
0.0
 11
143.7596219282
 21
54.4260037807
 31
0.0
  0
LINE
  5
E0
330
1F
100
AcDbEntity
  8
0
  6
Continuous
 62
     7
370
    15
100
AcDbLine
 10
144.7596219282
 20
52.2260037807
 30
0.0
 11
106.7596219282
 21
52.2260037807
 31
0.0
  0
LINE
  5
E1
330
1F
100
AcDbEntity
  8
0
  6
Continuous
 62
     7
370
    15
100
AcDbLine
 10
143.7596219282
 20
44.4260037807
 30
0.0
 11
107.7596399761
 21
44.4260037807
 31
0.0
  0
LINE
  5
E2
330
1F
100
AcDbEntity
  8
0
  6
Continuous
 62
     7
370
    15
100
AcDbLine
 10
106.9596219282
 20
52.4260037807
 30
0.0
 11
144.5596219282
 21
52.4260037807
 31
0.0
  0
LINE
  5
E3
330
1F
100
AcDbEntity
  8
0
  6
Continuous
 62
     7
370
    15
100
AcDbLine
 10
228.9596219282
 20
52.4260037807
 30
0.0
 11
266.5596219282
 21
52.4260037807
 31
0.0
  0
LINE
  5
E4
330
1F
100
AcDbEntity
  8
0
  6
Continuous
 62
     7
370
    15
100
AcDbLine
 10
266.7596219282
 20
52.2260037807
 30
0.0
 11
228.7596219282
 21
52.2260037807
 31
0.0
  0
LINE
  5
E5
330
1F
100
AcDbEntity
  8
0
  6
Continuous
 62
     7
370
    15
100
AcDbLine
 10
265.759621928
 20
44.4260037807
 30
0.0
 11
229.7596219282
 21
44.4260037807
 31
0.0
  0
LINE
  5
E6
330
1F
100
AcDbEntity
  8
0
  6
Continuous
 62
     8
370
    15
100
AcDbLine
 10
106.7596219282
 20
45.4260037807
 30
0.0
 11
144.7596219282
 21
45.4260037807
 31
0.0
  0
LINE
  5
E7
330
1F
100
AcDbEntity
  8
0
  6
Continuous
 62
     8
370
    15
100
AcDbLine
 10
228.7596219282
 20
45.4260037807
 30
0.0
 11
266.7596219282
 21
45.4260037807
 31
0.0
  0
LINE
  5
E8
330
1F
100
AcDbEntity
  8
0
  6
Continuous
 62
     7
370
    15
100
AcDbLine
 10
338.9625482042
 20
241.9582230624
 30
0.0
 11
338.7625482042
 21
241.7582230624
 31
0.0
  0
LINE
  5
E9
330
1F
100
AcDbEntity
  8
0
  6
Continuous
 62
     7
370
    15
100
AcDbLine
 10
338.7625482042
 20
204.1582230624
 30
0.0
 11
338.9625482042
 21
203.9582230624
 31
0.0
  0
LINE
  5
EA
330
1F
100
AcDbEntity
  8
0
  6
Continuous
 62
     7
370
    15
100
AcDbLine
 10
338.9625482042
 20
203.9582230624
 30
0.0
 11
350.5625482042
 21
203.9582230624
 31
0.0
  0
LINE
  5
EB
330
1F
100
AcDbEntity
  8
0
  6
Continuous
 62
     7
370
    15
100
AcDbLine
 10
350.5625482042
 20
241.9582230624
 30
0.0
 11
338.9625482042
 21
241.9582230624
 31
0.0
  0
LINE
  5
EC
330
1F
100
AcDbEntity
  8
0
  6
Continuous
 62
     7
370
    15
100
AcDbLine
 10
350.5625482042
 20
203.9582230624
 30
0.0
 11
350.7625482042
 21
204.1582230624
 31
0.0
  0
LINE
  5
ED
330
1F
100
AcDbEntity
  8
0
  6
Continuous
 62
     7
370
    15
100
AcDbLine
 10
350.7625482042
 20
241.7582230624
 30
0.0
 11
350.5625482042
 21
241.9582230624
 31
0.0
  0
LINE
  5
EE
330
1F
100
AcDbEntity
  8
0
  6
Continuous
 62
     7
370
    15
100
AcDbLine
 10
371.5625482042
 20
241.9582230624
 30
0.0
 11
351.9625482042
 21
241.9582230624
 31
0.0
  0
LINE
  5
EF
330
1F
100
AcDbEntity
  8
0
  6
Continuous
 62
     7
370
    15
100
AcDbLine
 10
351.9625482042
 20
203.9582230624
 30
0.0
 11
371.5625482042
 21
203.9582230624
 31
0.0
  0
LINE
  5
F0
330
1F
100
AcDbEntity
  8
0
  6
Continuous
 62
     7
370
    15
100
AcDbLine
 10
371.5625482042
 20
203.9582230624
 30
0.0
 11
371.7625482042
 21
204.1582230624
 31
0.0
  0
LINE
  5
F1
330
1F
100
AcDbEntity
  8
0
  6
Continuous
 62
     7
370
    15
100
AcDbLine
 10
371.7625482042
 20
241.7582230624
 30
0.0
 11
371.5625482042
 21
241.9582230624
 31
0.0
  0
LINE
  5
F2
330
1F
100
AcDbEntity
  8
0
  6
Continuous
 62
     7
370
    15
100
AcDbLine
 10
351.7625482042
 20
204.1582230624
 30
0.0
 11
351.9625482042
 21
203.9582230624
 31
0.0
  0
LINE
  5
F3
330
1F
100
AcDbEntity
  8
0
  6
Continuous
 62
     7
370
    15
100
AcDbLine
 10
351.9625482042
 20
241.9582230624
 30
0.0
 11
351.7625482042
 21
241.7582230624
 31
0.0
  0
LINE
  5
F4
330
1F
100
AcDbEntity
  8
0
  6
Continuous
 62
     7
370
    15
100
AcDbLine
 10
375.7625482042
 20
215.4582230624
 30
0.0
 11
385.7625482042
 21
215.4582230624
 31
0.0
  0
LINE
  5
F5
330
1F
100
AcDbEntity
  8
0
  6
Continuous
 62
     7
370
    15
100
AcDbLine
 10
385.7625482042
 20
230.4582230624
 30
0.0
 11
375.7625482042
 21
230.4582230624
 31
0.0
  0
LINE
  5
F6
330
1F
100
AcDbEntity
  8
0
  6
Continuous
 62
     7
370
    15
100
AcDbLine
 10
373.7625482042
 20
240.9582230624
 30
0.0
 11
371.7625482042
 21
240.9582230624
 31
0.0
  0
LINE
  5
F7
330
1F
100
AcDbEntity
  8
0
  6
Continuous
 62
     7
370
    15
100
AcDbLine
 10
371.7625482042
 20
204.9582230624
 30
0.0
 11
373.7625482042
 21
204.9582230624
 31
0.0
  0
LINE
  5
F8
330
1F
100
AcDbEntity
  8
0
  6
Continuous
 62
     7
370
    15
100
AcDbLine
 10
389.7625482042
 20
240.9582230624
 30
0.0
 11
387.7625482042
 21
240.9582230624
 31
0.0
  0
LINE
  5
F9
330
1F
100
AcDbEntity
  8
0
  6
Continuous
 62
     7
370
    15
100
AcDbLine
 10
387.7625482042
 20
204.9582230624
 30
0.0
 11
389.7625482042
 21
204.9582230624
 31
0.0
  0
LINE
  5
FA
330
1F
100
AcDbEntity
  8
0
  6
Continuous
 62
     7
370
    15
100
AcDbLine
 10
389.9625482042
 20
203.9582230624
 30
0.0
 11
396.7625482042
 21
203.9582230624
 31
0.0
  0
LINE
  5
FB
330
1F
100
AcDbEntity
  8
0
  6
Continuous
 62
     7
370
    15
100
AcDbLine
 10
396.7625482042
 20
241.9582230624
 30
0.0
 11
389.9625482042
 21
241.9582230624
 31
0.0
  0
ARC
  5
FC
330
1F
100
AcDbEntity
  8
0
  6
Continuous
 62
     7
370
    15
100
AcDbCircle
 10
396.7625482042
 20
204.9582230624
 30
0.0
 40
1.0
100
AcDbArc
 50
270.0
 51
0.0
  0
ARC
  5
FD
330
1F
100
AcDbEntity
  8
0
  6
Continuous
 62
     7
370
    15
100
AcDbCircle
 10
396.7625482042
 20
240.9582230624
 30
0.0
 40
1.0
100
AcDbArc
 50
360.0
 51
90.0
  0
LINE
  5
FE
330
1F
100
AcDbEntity
  8
0
  6
Continuous
 62
     7
370
    15
100
AcDbLine
 10
389.9625482042
 20
241.9582230624
 30
0.0
 11
389.7625482042
 21
241.7582230624
 31
0.0
  0
LINE
  5
FF
330
1F
100
AcDbEntity
  8
0
  6
Continuous
 62
     7
370
    15
100
AcDbLine
 10
389.7625482042
 20
204.1582230624
 30
0.0
 11
389.9625482042
 21
203.9582230624
 31
0.0
  0
LINE
  5
100
330
1F
100
AcDbEntity
  8
0
  6
Continuous
 62
     7
370
    15
100
AcDbLine
 10
387.7625482042
 20
227.9582230624
 30
0.0
 11
385.7625482042
 21
227.9582230624
 31
0.0
  0
LINE
  5
101
330
1F
100
AcDbEntity
  8
0
  6
Continuous
 62
     7
370
    15
100
AcDbLine
 10
375.7625482042
 20
227.9582230624
 30
0.0
 11
373.7625482042
 21
227.9582230624
 31
0.0
  0
LINE
  5
102
330
1F
100
AcDbEntity
  8
0
  6
Continuous
 62
     7
370
    15
100
AcDbLine
 10
373.7625482042
 20
217.9582230624
 30
0.0
 11
375.7625482042
 21
217.9582230624
 31
0.0
  0
LINE
  5
103
330
1F
100
AcDbEntity
  8
0
  6
Continuous
 62
     7
370
    15
100
AcDbLine
 10
385.7625482042
 20
217.9582230624
 30
0.0
 11
387.7625482042
 21
217.9582230624
 31
0.0
  0
CIRCLE
  5
104
330
1F
100
AcDbEntity
  8
0
  6
Continuous
 62
     7
370
    15
100
AcDbCircle
 10
351.2625482042
 20
232.4582230624
 30
0.0
 40
4.75
  0
CIRCLE
  5
105
330
1F
100
AcDbEntity
  8
0
  6
Continuous
 62
     7
370
    15
100
AcDbCircle
 10
351.2625482042
 20
232.4582230624
 30
0.0
 40
4.550000000000011
  0
CIRCLE
  5
106
330
1F
100
AcDbEntity
  8
0
  6
Continuous
 62
     7
370
    15
100
AcDbCircle
 10
351.2625482042
 20
213.4582230624
 30
0.0
 40
4.75
  0
CIRCLE
  5
107
330
1F
100
AcDbEntity
  8
0
  6
Continuous
 62
     7
370
    15
100
AcDbCircle
 10
351.2625482042
 20
213.4582230624
 30
0.0
 40
4.550000000000011
  0
LINE
  5
108
330
1F
100
AcDbEntity
  8
0
  6
Continuous
 62
     7
370
    15
100
AcDbLine
 10
338.9625482042
 20
241.9582230624
 30
0.0
 11
338.9625482042
 21
203.9582230624
 31
0.0
  0
LINE
  5
109
330
1F
100
AcDbEntity
  8
0
  6
Continuous
 62
     7
370
    15
100
AcDbLine
 10
338.7625482042
 20
204.1582230624
 30
0.0
 11
338.7625482042
 21
241.7582230624
 31
0.0
  0
LINE
  5
10A
330
1F
100
AcDbEntity
  8
0
  6
Continuous
 62
     7
370
    15
100
AcDbLine
 10
350.5625482042
 20
237.4089805802
 30
0.0
 11
350.5625482042
 21
241.9582230624
 31
0.0
  0
SPLINE
  5
10B
330
1F
100
AcDbEntity
  8
0
  6
Continuous
 62
     7
370
    15
100
AcDbSpline
210
0.0
220
0.0
230
1.0
 70
     8
 71
     3
 72
    18
 73
    14
 74
     0
 42
0.00000001
 43
0.00000001
 40
0.0
 40
0.0
 40
0.0
 40
0.0
 40
0.1036269013780875
 40
0.2072417600081635
 40
0.3112883376177278
 40
0.4188764258694742
 40
0.5359950121434159
 40
0.6031236026708832
 40
0.6702763607215415
 40
0.7473393392104417
 40
0.8243363454620992
 40
0.9255792904167244
 40
1.0
 40
1.0
 40
1.0
 40
1.0
 10
350.5625482041588
 20
227.5074655445873
 30
0.0
 10
350.0290186298504
 20
227.6357919569209
 30
0.0
 10
348.9620214840738
 20
227.8924298684467
 30
0.0
 10
347.6412536985575
 20
228.8935771954912
 30
0.0
 10
346.7050377960756
 20
230.2044295581258
 30
0.0
 10
346.2292953319576
 20
231.74110527942
 30
0.0
 10
346.2507275034222
 20
233.0864345343934
 30
0.0
 10
346.5316066624114
 20
234.1523745204682
 30
0.0
 10
346.9128716882782
 20
234.9817011668956
 30
0.0
 10
347.463570432574
 20
235.7613260775579
 30
0.0
 10
348.283010527179
 20
236.5280901611768
 30
0.0
 10
349.3053968679719
 20
237.1398281256676
 30
0.0
 10
350.1884420707291
 20
237.328885542164
 30
0.0
 10
350.5625482041588
 20
237.4089805801765
 30
0.0
  0
LINE
  5
10C
330
1F
100
AcDbEntity
  8
0
  6
Continuous
 62
     7
370
    15
100
AcDbLine
 10
350.5625482042
 20
218.4089805802
 30
0.0
 11
350.5625482042
 21
227.5074655446
 31
0.0
  0
SPLINE
  5
10D
330
1F
100
AcDbEntity
  8
0
  6
Continuous
 62
     7
370
    15
100
AcDbSpline
210
0.0
220
0.0
230
1.0
 70
     8
 71
     3
 72
    23
 73
    19
 74
     0
 42
0.00000001
 43
0.00000001
 40
0.0
 40
0.0
 40
0.0
 40
0.0
 40
0.0478738334529864
 40
0.095846622341762
 40
0.1557654601292138
 40
0.2157803105797255
 40
0.2926495792961075
 40
0.3717382170314089
 40
0.4488955160194822
 40
0.5285498403748758
 40
0.5896116133725585
 40
0.6506325899108271
 40
0.7119967545764129
 40
0.7733303167673699
 40
0.8284809952996957
 40
0.8836255110447067
 40
0.941812913767703
 40
1.0
 40
1.0
 40
1.0
 40
1.0
 10
350.5625482041589
 20
208.5074655445872
 30
0.0
 10
350.3195847323967
 20
208.5530307426742
 30
0.0
 10
349.8331555822494
 20
208.644255322324
 30
0.0
 10
349.1186832651438
 20
208.9204093621822
 30
0.0
 10
348.4352083639144
 20
209.3068925751198
 30
0.0
 10
347.750873683025
 20
209.8609016077442
 30
0.0
 10
347.1375333439308
 20
210.5731702382287
 30
0.0
 10
346.6457500028249
 20
211.4512811460216
 30
0.0
 10
346.3318500987695
 20
212.4344182854592
 30
0.0
 10
346.2310755072294
 20
213.4119844807692
 30
0.0
 10
346.3179178190836
 20
214.3472834011372
 30
0.0
 10
346.5461202365955
 20
215.1985032401955
 30
0.0
 10
346.9377332951531
 20
216.0201693706356
 30
0.0
 10
347.4652880141642
 20
216.7527967960766
 30
0.0
 10
348.1056608412779
 20
217.3660273803033
 30
0.0
 10
348.8340727292826
 20
217.8577401641995
 30
0.0
 10
349.6596150956882
 20
218.230448749757
 30
0.0
 10
350.2615710470261
 20
218.349470077933
 30
0.0
 10
350.5625482041588
 20
218.4089805801765
 30
0.0
  0
LINE
  5
10E
330
1F
100
AcDbEntity
  8
0
  6
Continuous
 62
     7
370
    15
100
AcDbLine
 10
350.5625482042
 20
203.9582230624
 30
0.0
 11
350.5625482042
 21
208.5074655446
 31
0.0
  0
LINE
  5
10F
330
1F
100
AcDbEntity
  8
0
  6
Continuous
 62
     7
370
    15
100
AcDbLine
 10
350.5625482042
 20
227.5074655446
 30
0.0
 11
350.7625482042
 21
227.4832858768
 31
0.0
  0
LINE
  5
110
330
1F
100
AcDbEntity
  8
0
  6
Continuous
 62
     7
370
    15
100
AcDbLine
 10
350.7625482042
 20
227.4832858768
 30
0.0
 11
350.7625482042
 21
218.4331602479
 31
0.0
  0
LINE
  5
111
330
1F
100
AcDbEntity
  8
0
  6
Continuous
 62
     7
370
    15
100
AcDbLine
 10
350.7625482042
 20
218.4331602479
 30
0.0
 11
350.5625482042
 21
218.4089805802
 31
0.0
  0
LINE
  5
112
330
1F
100
AcDbEntity
  8
0
  6
Continuous
 62
     7
370
    15
100
AcDbLine
 10
350.7625482042
 20
208.4832858768
 30
0.0
 11
350.7625482042
 21
204.1582230624
 31
0.0
  0
LINE
  5
113
330
1F
100
AcDbEntity
  8
0
  6
Continuous
 62
     7
370
    15
100
AcDbLine
 10
350.5625482042
 20
208.5074655446
 30
0.0
 11
350.7625482042
 21
208.4832858768
 31
0.0
  0
LINE
  5
114
330
1F
100
AcDbEntity
  8
0
  6
Continuous
 62
     7
370
    15
100
AcDbLine
 10
350.7625482042
 20
241.7582230624
 30
0.0
 11
350.7625482042
 21
237.4331602479
 31
0.0
  0
LINE
  5
115
330
1F
100
AcDbEntity
  8
0
  6
Continuous
 62
     7
370
    15
100
AcDbLine
 10
350.7625482042
 20
237.4331602479
 30
0.0
 11
350.5625482042
 21
237.4089805802
 31
0.0
  0
LINE
  5
116
330
1F
100
AcDbEntity
  8
0
  6
Continuous
 62
     7
370
    15
100
AcDbLine
 10
350.7625482042
 20
218.1818339693
 30
0.0
 11
350.7625482042
 21
218.4331602479
 31
0.0
  0
LINE
  5
117
330
1F
100
AcDbEntity
  8
0
  6
Continuous
 62
     7
370
    15
100
AcDbLine
 10
350.7625482042
 20
227.4832858768
 30
0.0
 11
350.7625482042
 21
227.7346121555
 31
0.0
  0
LINE
  5
118
330
1F
100
AcDbEntity
  8
0
  6
Continuous
 62
     7
370
    15
100
AcDbLine
 10
351.9625482042
 20
208.5074655446
 30
0.0
 11
351.9625482042
 21
203.9582230624
 31
0.0
  0
SPLINE
  5
119
330
1F
100
AcDbEntity
  8
0
  6
Continuous
 62
     7
370
    15
100
AcDbSpline
210
0.0
220
0.0
230
1.0
 70
     8
 71
     3
 72
    25
 73
    21
 74
     0
 42
0.00000001
 43
0.00000001
 40
0.0
 40
0.0
 40
0.0
 40
0.0
 40
0.0511391883152853
 40
0.1037662646575215
 40
0.154904865975933
 40
0.2075160814728018
 40
0.2588962200043545
 40
0.3116765030707591
 40
0.3648548265537594
 40
0.4193460364684832
 40
0.4772834030018101
 40
0.5365192349781722
 40
0.60277588552517
 40
0.6705034627785295
 40
0.7462731177219416
 40
0.8242183619789719
 40
0.8743251548254521
 40
0.9255236307926282
 40
0.9623368465686271
 40
1.0
 40
1.0
 40
1.0
 40
1.0
 10
351.9625482041588
 20
218.4089805801765
 30
0.0
 10
352.2274355964307
 20
218.3587729608691
 30
0.0
 10
352.7649172451706
 20
218.2568969381064
 30
0.0
 10
353.5197724552602
 20
217.9428670937262
 30
0.0
 10
354.2184280637417
 20
217.5184592437028
 30
0.0
 10
354.8282956118502
 20
216.9936531629956
 30
0.0
 10
355.3448083933711
 20
216.381233967924
 30
0.0
 10
355.7523790525883
 20
215.7050698385695
 30
0.0
 10
356.0478161163026
 20
214.9762445720753
 30
0.0
 10
356.2273823744449
 20
214.2066200022342
 30
0.0
 10
356.2837557521609
 20
213.412541615242
 30
0.0
 10
356.2101128909104
 20
212.5890646532069
 30
0.0
 10
355.9947198892434
 20
211.7666643058298
 30
0.0
 10
355.6160971903215
 20
210.941663513411
 30
0.0
 10
355.0643559095853
 20
210.1596237739421
 30
0.0
 10
354.4102759420393
 20
209.5410752315752
 30
0.0
 10
353.7259897506198
 20
209.0875646803355
 30
0.0
 10
353.1282042427641
 20
208.8054042063447
 30
0.0
 10
352.5336866368271
 20
208.6083218865229
 30
0.0
 10
352.1543706224639
 20
208.5413391316283
 30
0.0
 10
351.9625482041588
 20
208.5074655445872
 30
0.0
  0
LINE
  5
11A
330
1F
100
AcDbEntity
  8
0
  6
Continuous
 62
     7
370
    15
100
AcDbLine
 10
351.9625482042
 20
227.5074655446
 30
0.0
 11
351.9625482042
 21
218.4089805802
 31
0.0
  0
SPLINE
  5
11B
330
1F
100
AcDbEntity
  8
0
  6
Continuous
 62
     7
370
    15
100
AcDbSpline
210
0.0
220
0.0
230
1.0
 70
     8
 71
     3
 72
    23
 73
    19
 74
     0
 42
0.00000001
 43
0.00000001
 40
0.0
 40
0.0
 40
0.0
 40
0.0
 40
0.0469930236724843
 40
0.0958519605754426
 40
0.1549742003167223
 40
0.2157803844558017
 40
0.2926463055121198
 40
0.371731498933738
 40
0.4488854377180174
 40
0.5285362931240477
 40
0.5887514326311267
 40
0.6506195611241934
 40
0.7108939036008383
 40
0.7733230765491815
 40
0.8275979282693994
 40
0.8836211580300839
 40
0.9407603460967922
 40
1.0
 40
1.0
 40
1.0
 40
1.0
 10
351.9625482041587
 20
237.4089805801766
 30
0.0
 10
352.2012251373945
 20
237.3646535459074
 30
0.0
 10
352.6880559519901
 20
237.2742394203809
 30
0.0
 10
353.3990290064757
 20
236.9992220544186
 30
0.0
 10
354.0868068677039
 20
236.6118821196136
 30
0.0
 10
354.7720012673066
 20
236.0580708750251
 30
0.0
 10
355.3875599613916
 20
235.3433051946949
 30
0.0
 10
355.8793208746553
 20
234.4651522402265
 30
0.0
 10
356.1933496215515
 20
233.4820496678144
 30
0.0
 10
356.2932695588129
 20
232.5081795341959
 30
0.0
 10
356.2088640019371
 20
231.5732931792613
 30
0.0
 10
355.9814751501297
 20
230.7268805292809
 30
0.0
 10
355.5917688788912
 20
229.9005559892576
 30
0.0
 10
355.0658695568094
 20
229.1715625239374
 30
0.0
 10
354.4239680471571
 20
228.5524076926276
 30
0.0
 10
353.6993956302243
 20
228.0642298101121
 30
0.0
 10
352.8713693686481
 20
227.6865551643528
 30
0.0
 10
352.2691118777433
 20
227.567876078454
 30
0.0
 10
351.9625482041588
 20
227.5074655445873
 30
0.0
  0
LINE
  5
11C
330
1F
100
AcDbEntity
  8
0
  6
Continuous
 62
     7
370
    15
100
AcDbLine
 10
351.9625482042
 20
241.9582230624
 30
0.0
 11
351.9625482042
 21
237.4089805802
 31
0.0
  0
LINE
  5
11D
330
1F
100
AcDbEntity
  8
0
  6
Continuous
 62
     7
370
    15
100
AcDbLine
 10
371.5625482042
 20
203.9582230624
 30
0.0
 11
371.5625482042
 21
241.9582230624
 31
0.0
  0
LINE
  5
11E
330
1F
100
AcDbEntity
  8
0
  6
Continuous
 62
     7
370
    15
100
AcDbLine
 10
371.7625482042
 20
241.7582230624
 30
0.0
 11
371.7625482042
 21
204.1582230624
 31
0.0
  0
LINE
  5
11F
330
1F
100
AcDbEntity
  8
0
  6
Continuous
 62
     7
370
    15
100
AcDbLine
 10
351.9625482042
 20
218.4089805802
 30
0.0
 11
351.7625482042
 21
218.4331602479
 31
0.0
  0
LINE
  5
120
330
1F
100
AcDbEntity
  8
0
  6
Continuous
 62
     7
370
    15
100
AcDbLine
 10
351.7625482042
 20
218.4331602479
 30
0.0
 11
351.7625482042
 21
227.4832858768
 31
0.0
  0
LINE
  5
121
330
1F
100
AcDbEntity
  8
0
  6
Continuous
 62
     7
370
    15
100
AcDbLine
 10
351.7625482042
 20
227.4832858768
 30
0.0
 11
351.9625482042
 21
227.5074655446
 31
0.0
  0
LINE
  5
122
330
1F
100
AcDbEntity
  8
0
  6
Continuous
 62
     7
370
    15
100
AcDbLine
 10
351.7625482042
 20
204.1582230624
 30
0.0
 11
351.7625482042
 21
208.4832858768
 31
0.0
  0
LINE
  5
123
330
1F
100
AcDbEntity
  8
0
  6
Continuous
 62
     7
370
    15
100
AcDbLine
 10
351.7625482042
 20
208.4832858768
 30
0.0
 11
351.9625482042
 21
208.5074655446
 31
0.0
  0
LINE
  5
124
330
1F
100
AcDbEntity
  8
0
  6
Continuous
 62
     7
370
    15
100
AcDbLine
 10
351.7625482042
 20
237.4331602479
 30
0.0
 11
351.7625482042
 21
241.7582230624
 31
0.0
  0
LINE
  5
125
330
1F
100
AcDbEntity
  8
0
  6
Continuous
 62
     7
370
    15
100
AcDbLine
 10
351.9625482042
 20
237.4089805802
 30
0.0
 11
351.7625482042
 21
237.4331602479
 31
0.0
  0
LINE
  5
126
330
1F
100
AcDbEntity
  8
0
  6
Continuous
 62
     7
370
    15
100
AcDbLine
 10
351.7625482042
 20
218.4331602479
 30
0.0
 11
351.7625482042
 21
218.1818339693
 31
0.0
  0
LINE
  5
127
330
1F
100
AcDbEntity
  8
0
  6
Continuous
 62
     7
370
    15
100
AcDbLine
 10
351.7625482042
 20
227.7346121555
 30
0.0
 11
351.7625482042
 21
227.4832858768
 31
0.0
  0
LINE
  5
128
330
1F
100
AcDbEntity
  8
0
  6
Continuous
 62
     7
370
    15
100
AcDbLine
 10
375.7625482042
 20
222.9582230624
 30
0.0
 11
375.7625482042
 21
215.4582230624
 31
0.0
  0
LINE
  5
129
330
1F
100
AcDbEntity
  8
0
  6
Continuous
 62
     7
370
    15
100
AcDbLine
 10
375.7625482042
 20
230.4582230624
 30
0.0
 11
375.7625482042
 21
222.9582230624
 31
0.0
  0
LINE
  5
12A
330
1F
100
AcDbEntity
  8
0
  6
Continuous
 62
     7
370
    15
100
AcDbLine
 10
385.7625482042
 20
222.9582230624
 30
0.0
 11
385.7625482042
 21
215.4582230624
 31
0.0
  0
LINE
  5
12B
330
1F
100
AcDbEntity
  8
0
  6
Continuous
 62
     7
370
    15
100
AcDbLine
 10
385.7625482042
 20
230.4582230624
 30
0.0
 11
385.7625482042
 21
222.9582230624
 31
0.0
  0
LINE
  5
12C
330
1F
100
AcDbEntity
  8
0
  6
Continuous
 62
     7
370
    15
100
AcDbLine
 10
373.7625482042
 20
204.9582230624
 30
0.0
 11
373.7625482042
 21
240.9582230624
 31
0.0
  0
LINE
  5
12D
330
1F
100
AcDbEntity
  8
0
  6
Continuous
 62
     7
370
    15
100
AcDbLine
 10
387.7625482042
 20
204.9582230624
 30
0.0
 11
387.7625482042
 21
240.9582230624
 31
0.0
  0
LINE
  5
12E
330
1F
100
AcDbEntity
  8
0
  6
Continuous
 62
     7
370
    15
100
AcDbLine
 10
389.9625482042
 20
241.9582230624
 30
0.0
 11
389.9625482042
 21
203.9582230624
 31
0.0
  0
LINE
  5
12F
330
1F
100
AcDbEntity
  8
0
  6
Continuous
 62
     7
370
    15
100
AcDbLine
 10
397.7625482042
 20
240.9582230624
 30
0.0
 11
397.7625482042
 21
204.9582230624
 31
0.0
  0
LINE
  5
130
330
1F
100
AcDbEntity
  8
0
  6
Continuous
 62
     7
370
    15
100
AcDbLine
 10
389.7625482042
 20
204.1582230624
 30
0.0
 11
389.7625482042
 21
241.7582230624
 31
0.0
  0
LINE
  5
131
330
1F
100
AcDbEntity
  8
0
  6
Continuous
 62
     8
370
    15
100
AcDbLine
 10
396.7625482042
 20
203.9582230624
 30
0.0
 11
396.7625482042
 21
241.9582230624
 31
0.0
  0
ENDSEC
  0
SECTION
  2
OBJECTS
  0
DICTIONARY
  5
C
330
0
100
AcDbDictionary
281
     1
  3
ACAD_GROUP
350
D
  3
ACAD_LAYOUT
350
1A
  3
ACAD_MLEADERSTYLE
350
134
  3
ACAD_MLINESTYLE
350
17
  3
ACAD_PLOTSETTINGS
350
19
  3
ACAD_PLOTSTYLENAME
350
E
  3
ACAD_VISUALSTYLE
350
2A
  3
AcDbVariableDictionary
350
132
  0
DICTIONARY
  5
D
102
{ACAD_REACTORS
330
C
102
}
330
C
100
AcDbDictionary
281
     1
  0
DICTIONARY
  5
1A
102
{ACAD_REACTORS
330
C
102
}
330
C
100
AcDbDictionary
281
     1
  3
Layout1
350
1E
  3
Layout2
350
26
  3
Model
350
22
  0
DICTIONARY
  5
134
102
{ACAD_REACTORS
330
C
102
}
330
C
100
AcDbDictionary
281
     1
  0
DICTIONARY
  5
17
102
{ACAD_REACTORS
330
C
102
}
330
C
100
AcDbDictionary
281
     1
  3
Standard
350
18
  0
DICTIONARY
  5
19
102
{ACAD_REACTORS
330
C
102
}
330
C
100
AcDbDictionary
281
     1
  0
ACDBDICTIONARYWDFLT
  5
E
102
{ACAD_REACTORS
330
C
102
}
330
C
100
AcDbDictionary
281
     1
  3
Normal
350
F
100
AcDbDictionaryWithDefault
340
F
  0
DICTIONARY
  5
2A
102
{ACAD_REACTORS
330
C
102
}
330
C
100
AcDbDictionary
281
     1
  3
2dWireframe
350
2F
  3
3D Hidden
350
31
  3
3dWireframe
350
30
  3
Basic
350
32
  3
Brighten
350
36
  3
ColorChange
350
3A
  3
Conceptual
350
34
  3
Dim
350
35
  3
Facepattern
350
39
  3
Flat
350
2B
  3
FlatWithEdges
350
2C
  3
Gouraud
350
2D
  3
GouraudWithEdges
350
2E
  3
Linepattern
350
38
  3
Realistic
350
33
  3
Thicken
350
37
  0
DICTIONARY
  5
132
102
{ACAD_REACTORS
330
C
102
}
330
C
100
AcDbDictionary
281
     1
  3
DIMASSOC
350
137
  3
HIDETEXT
350
138
  3
PSOLHEIGHT
350
136
  3
PSOLWIDTH
350
135
  0
LAYOUT
  5
1E
102
{ACAD_REACTORS
330
1A
102
}
330
1A
100
AcDbPlotSettings
  1

  2
none_device
  4

  6

 40
0.0
 41
0.0
 42
0.0
 43
0.0
 44
0.0
 45
0.0
 46
0.0
 47
0.0
 48
0.0
 49
0.0
140
0.0
141
0.0
142
1.0
143
1.0
 70
   688
 72
     0
 73
     0
 74
     5
  7

 75
    16
147
1.0
148
0.0
149
0.0
100
AcDbLayout
  1
Layout1
 70
     1
 71
     1
 10
0.0
 20
0.0
 11
420.0
 21
297.0
 12
0.0
 22
0.0
 32
0.0
 14
1.0000000000E+20
 24
1.0000000000E+20
 34
1.0000000000E+20
 15
-1.0000000000E+20
 25
-1.0000000000E+20
 35
-1.0000000000E+20
146
0.0
 13
0.0
 23
0.0
 33
0.0
 16
1.0
 26
0.0
 36
0.0
 17
0.0
 27
1.0
 37
0.0
 76
     0
330
1B
  0
LAYOUT
  5
26
102
{ACAD_REACTORS
330
1A
102
}
330
1A
100
AcDbPlotSettings
  1

  2
none_device
  4

  6

 40
0.0
 41
0.0
 42
0.0
 43
0.0
 44
0.0
 45
0.0
 46
0.0
 47
0.0
 48
0.0
 49
0.0
140
0.0
141
0.0
142
1.0
143
1.0
 70
   688
 72
     0
 73
     0
 74
     5
  7

 75
    16
147
1.0
148
0.0
149
0.0
100
AcDbLayout
  1
Layout2
 70
     1
 71
     2
 10
0.0
 20
0.0
 11
0.0
 21
0.0
 12
0.0
 22
0.0
 32
0.0
 14
0.0
 24
0.0
 34
0.0
 15
0.0
 25
0.0
 35
0.0
146
0.0
 13
0.0
 23
0.0
 33
0.0
 16
1.0
 26
0.0
 36
0.0
 17
0.0
 27
1.0
 37
0.0
 76
     0
330
23
  0
LAYOUT
  5
22
102
{ACAD_REACTORS
330
1A
102
}
330
1A
100
AcDbPlotSettings
  1

  2
none_device
  4

  6

 40
0.0
 41
0.0
 42
0.0
 43
0.0
 44
0.0
 45
0.0
 46
0.0
 47
0.0
 48
0.0
 49
0.0
140
0.0
141
0.0
142
1.0
143
1.0
 70
  1712
 72
     0
 73
     0
 74
     0
  7

 75
     0
147
1.0
148
0.0
149
0.0
100
AcDbLayout
  1
Model
 70
     1
 71
     0
 10
0.0
 20
0.0
 11
431.8
 21
279.4
 12
0.0
 22
0.0
 32
0.0
 14
0.0
 24
0.0
 34
0.0
 15
431.8
 25
279.4
 35
0.0
146
0.0
 13
0.0
 23
0.0
 33
0.0
 16
1.0
 26
0.0
 36
0.0
 17
0.0
 27
1.0
 37
0.0
 76
     0
330
1F
331
29
  0
MLINESTYLE
  5
18
102
{ACAD_REACTORS
330
17
102
}
330
17
100
AcDbMlineStyle
  2
Standard
 70
     0
  3

 62
   256
 51
90.0
 52
90.0
 71
     2
 49
0.5
 62
   256
  6
BYLAYER
 49
-0.5
 62
   256
  6
BYLAYER
  0
ACDBPLACEHOLDER
  5
F
102
{ACAD_REACTORS
330
E
102
}
330
E
  0
VISUALSTYLE
  5
2F
102
{ACAD_REACTORS
330
2A
102
}
330
2A
100
AcDbVisualStyle
  2
2dWireframe
 70
     4
 71
     0
 72
     2
 73
     0
 90
        0
 40
-0.6
 41
-30.0
 62
     5
 63
     7
 74
     1
 91
        4
 64
     7
 65
   257
 75
     1
175
     1
 42
1.0
 92
        0
 66
   257
 43
1.0
 76
     1
 77
     6
 78
     2
 67
     7
 79
     5
170
     0
171
     0
290
     0
174
     0
 93
        1
 44
0.0
173
     0
291
     0
 45
0.0
1001
ACAD
1000
AcDbSavedByObjectVersion
1070
     0
  0
VISUALSTYLE
  5
31
102
{ACAD_REACTORS
330
2A
102
}
330
2A
100
AcDbVisualStyle
  2
3D Hidden
 70
     6
 71
     1
 72
     2
 73
     2
 90
        0
 40
-0.6
 41
-30.0
 62
     5
 63
     7
 74
     2
 91
        2
 64
     7
 65
   257
 75
     2
175
     1
 42
40.0
 92
        0
 66
   257
 43
1.0
 76
     1
 77
     6
 78
     2
 67
     7
 79
     3
170
     0
171
     0
290
     0
174
     0
 93
        1
 44
0.0
173
     0
291
     0
 45
0.0
1001
ACAD
1000
AcDbSavedByObjectVersion
1070
     0
  0
VISUALSTYLE
  5
30
102
{ACAD_REACTORS
330
2A
102
}
330
2A
100
AcDbVisualStyle
  2
3dWireframe
 70
     5
 71
     0
 72
     2
 73
     0
 90
        0
 40
-0.6
 41
-30.0
 62
     5
 63
     7
 74
     1
 91
        4
 64
     7
 65
   257
 75
     1
175
     1
 42
1.0
 92
        0
 66
   257
 43
1.0
 76
     1
 77
     6
 78
     2
 67
     7
 79
     5
170
     0
171
     0
290
     0
174
     0
 93
        1
 44
0.0
173
     0
291
     0
 45
0.0
1001
ACAD
1000
AcDbSavedByObjectVersion
1070
     0
  0
VISUALSTYLE
  5
32
102
{ACAD_REACTORS
330
2A
102
}
330
2A
100
AcDbVisualStyle
  2
Basic
 70
     7
 71
     1
 72
     0
 73
     1
 90
        0
 40
-0.6
 41
-30.0
 62
     5
 63
     7
 74
     0
 91
        4
 64
     7
 65
   257
 75
     1
175
     1
 42
1.0
 92
        8
 66
     7
 43
1.0
 76
     1
 77
     6
 78
     2
 67
     7
 79
     5
170
     0
171
     0
290
     0
174
     0
 93
        1
 44
0.0
173
     0
291
     1
 45
0.0
1001
ACAD
1000
AcDbSavedByObjectVersion
1070
     0
  0
VISUALSTYLE
  5
36
102
{ACAD_REACTORS
330
2A
102
}
330
2A
100
AcDbVisualStyle
  2
Brighten
 70
    12
 71
     2
 72
     2
 73
     0
 90
        0
 40
-0.6
 41
-30.0
 62
     5
 63
     7
 74
     1
 91
        4
 64
     7
 65
   257
 75
     1
175
     1
 42
1.0
 92
        8
 66
     7
 43
1.0
 76
     1
 77
     6
 78
     2
 67
     7
 79
     5
170
     0
171
     0
290
     0
174
     0
 93
        1
 44
50.0
173
     0
291
     1
 45
0.0
1001
ACAD
1000
AcDbSavedByObjectVersion
1070
     0
  0
VISUALSTYLE
  5
3A
102
{ACAD_REACTORS
330
2A
102
}
330
2A
100
AcDbVisualStyle
  2
ColorChange
 70
    16
 71
     2
 72
     2
 73
     3
 90
        0
 40
-0.6
 41
-30.0
 62
     5
 63
     8
 74
     1
 91
        4
 64
     7
 65
   257
 75
     1
175
     1
 42
1.0
 92
        8
 66
     8
 43
1.0
 76
     1
 77
     6
 78
     2
 67
     7
 79
     5
170
     0
171
     0
290
     0
174
     0
 93
        1
 44
0.0
173
     0
291
     1
 45
0.0
1001
ACAD
1000
AcDbSavedByObjectVersion
1070
     0
  0
VISUALSTYLE
  5
34
102
{ACAD_REACTORS
330
2A
102
}
330
2A
100
AcDbVisualStyle
  2
Conceptual
 70
     9
 71
     3
 72
     2
 73
     0
 90
        0
 40
-0.6
 41
-30.0
 62
     5
 63
     7
 74
     2
 91
        2
 64
     7
 65
   257
 75
     1
175
     1
 42
40.0
 92
        8
 66
     7
 43
1.0
 76
     1
 77
     6
 78
     2
 67
     7
 79
     3
170
     0
171
     0
290
     0
174
     0
 93
        1
 44
0.0
173
     0
291
     0
 45
0.0
1001
ACAD
1000
AcDbSavedByObjectVersion
1070
     0
  0
VISUALSTYLE
  5
35
102
{ACAD_REACTORS
330
2A
102
}
330
2A
100
AcDbVisualStyle
  2
Dim
 70
    11
 71
     2
 72
     2
 73
     0
 90
        0
 40
-0.6
 41
-30.0
 62
     5
 63
     7
 74
     1
 91
        4
 64
     7
 65
   257
 75
     1
175
     1
 42
1.0
 92
        8
 66
     7
 43
1.0
 76
     1
 77
     6
 78
     2
 67
     7
 79
     5
170
     0
171
     0
290
     0
174
     0
 93
        1
 44
-50.0
173
     0
291
     1
 45
0.0
1001
ACAD
1000
AcDbSavedByObjectVersion
1070
     0
  0
VISUALSTYLE
  5
39
102
{ACAD_REACTORS
330
2A
102
}
330
2A
100
AcDbVisualStyle
  2
Facepattern
 70
    15
 71
     2
 72
     2
 73
     0
 90
        0
 40
-0.6
 41
-30.0
 62
     5
 63
     7
 74
     1
 91
        4
 64
     7
 65
   257
 75
     1
175
     1
 42
1.0
 92
        8
 66
     7
 43
1.0
 76
     1
 77
     6
 78
     2
 67
     7
 79
     5
170
     0
171
     0
290
     0
174
     0
 93
        1
 44
0.0
173
     0
291
     1
 45
0.0
1001
ACAD
1000
AcDbSavedByObjectVersion
1070
     0
  0
VISUALSTYLE
  5
2B
102
{ACAD_REACTORS
330
2A
102
}
330
2A
100
AcDbVisualStyle
  2
Flat
 70
     0
 71
     2
 72
     1
 73
     1
 90
        2
 40
-0.6
 41
30.0
 62
     5
 63
     7
 74
     0
 91
        4
 64
     7
 65
   257
 75
     1
175
     1
 42
1.0
 92
        8
 66
     7
 43
1.0
 76
     1
 77
     6
 78
     2
 67
     7
 79
     5
170
     0
171
     0
290
     0
174
     0
 93
       13
 44
0.0
173
     0
291
     1
 45
0.0
1001
ACAD
1000
AcDbSavedByObjectVersion
1070
     0
  0
VISUALSTYLE
  5
2C
102
{ACAD_REACTORS
330
2A
102
}
330
2A
100
AcDbVisualStyle
  2
FlatWithEdges
 70
     1
 71
     2
 72
     1
 73
     1
 90
        2
 40
-0.6
 41
30.0
 62
     5
 63
     7
 74
     1
 91
        4
 64
     7
 65
   257
 75
     1
175
     1
 42
1.0
 92
        0
 66
   257
 43
1.0
 76
     1
 77
     6
 78
     2
 67
     7
 79
     5
170
     0
171
     0
290
     0
174
     0
 93
       13
 44
0.0
173
     0
291
     1
 45
0.0
1001
ACAD
1000
AcDbSavedByObjectVersion
1070
     0
  0
VISUALSTYLE
  5
2D
102
{ACAD_REACTORS
330
2A
102
}
330
2A
100
AcDbVisualStyle
  2
Gouraud
 70
     2
 71
     2
 72
     2
 73
     1
 90
        2
 40
-0.6
 41
30.0
 62
     5
 63
     7
 74
     0
 91
        4
 64
     7
 65
   257
 75
     1
175
     1
 42
1.0
 92
        0
 66
     7
 43
1.0
 76
     1
 77
     6
 78
     2
 67
     7
 79
     5
170
     0
171
     0
290
     0
174
     0
 93
       13
 44
0.0
173
     0
291
     1
 45
0.0
1001
ACAD
1000
AcDbSavedByObjectVersion
1070
     0
  0
VISUALSTYLE
  5
2E
102
{ACAD_REACTORS
330
2A
102
}
330
2A
100
AcDbVisualStyle
  2
GouraudWithEdges
 70
     3
 71
     2
 72
     2
 73
     1
 90
        2
 40
-0.6
 41
30.0
 62
     5
 63
     7
 74
     1
 91
        4
 64
     7
 65
   257
 75
     1
175
     1
 42
1.0
 92
        0
 66
   257
 43
1.0
 76
     1
 77
     6
 78
     2
 67
     7
 79
     5
170
     0
171
     0
290
     0
174
     0
 93
       13
 44
0.0
173
     0
291
     1
 45
0.0
1001
ACAD
1000
AcDbSavedByObjectVersion
1070
     0
  0
VISUALSTYLE
  5
38
102
{ACAD_REACTORS
330
2A
102
}
330
2A
100
AcDbVisualStyle
  2
Linepattern
 70
    14
 71
     2
 72
     2
 73
     0
 90
        0
 40
-0.6
 41
-30.0
 62
     5
 63
     7
 74
     1
 91
        4
 64
     7
 65
   257
 75
     7
175
     7
 42
1.0
 92
        8
 66
     7
 43
1.0
 76
     1
 77
     6
 78
     2
 67
     7
 79
     5
170
     0
171
     0
290
     0
174
     0
 93
        1
 44
0.0
173
     0
291
     1
 45
0.0
1001
ACAD
1000
AcDbSavedByObjectVersion
1070
     0
  0
VISUALSTYLE
  5
33
102
{ACAD_REACTORS
330
2A
102
}
330
2A
100
AcDbVisualStyle
  2
Realistic
 70
     8
 71
     2
 72
     2
 73
     0
 90
        0
 40
-0.6
 41
-30.0
 62
     5
 63
     7
 74
     1
 91
        0
 64
     7
 65
   257
 75
     1
175
     1
 42
1.0
 92
        8
 66
     8
 43
1.0
 76
     1
 77
     6
 78
     2
 67
     7
 79
     5
170
     0
171
     0
290
     0
174
     0
 93
       13
 44
0.0
173
     0
291
     0
 45
0.0
1001
ACAD
1000
AcDbSavedByObjectVersion
1070
     0
  0
VISUALSTYLE
  5
37
102
{ACAD_REACTORS
330
2A
102
}
330
2A
100
AcDbVisualStyle
  2
Thicken
 70
    13
 71
     2
 72
     2
 73
     0
 90
        0
 40
-0.6
 41
-30.0
 62
     5
 63
     7
 74
     1
 91
        4
 64
     7
 65
   257
 75
     1
175
     1
 42
1.0
 92
       12
 66
     7
 43
1.0
 76
     1
 77
     6
 78
     2
 67
     7
 79
     5
170
     0
171
     0
290
     0
174
     0
 93
        1
 44
0.0
173
     0
291
     1
 45
0.0
1001
ACAD
1000
AcDbSavedByObjectVersion
1070
     0
  0
DICTIONARYVAR
  5
137
102
{ACAD_REACTORS
330
132
102
}
330
132
100
DictionaryVariables
280
     0
  1
2
  0
DICTIONARYVAR
  5
138
102
{ACAD_REACTORS
330
132
102
}
330
132
100
DictionaryVariables
280
     0
  1
1
  0
DICTIONARYVAR
  5
136
102
{ACAD_REACTORS
330
132
102
}
330
132
100
DictionaryVariables
280
     0
  1
80.000000
  0
DICTIONARYVAR
  5
135
102
{ACAD_REACTORS
330
132
102
}
330
132
100
DictionaryVariables
280
     0
  1
5.000000
  0
ENDSEC
  0
EOF
