  0
SECTION
  2
HEADER
  9
$ACADVER
  1
AC1015
  9
$ACADMAINTVER
 70
     6
  9
$DWGCODEPAGE
  3
ANSI_1252
  9
$INSBASE
 10
0.0
 20
0.0
 30
0.0
  9
$EXTMIN
 10
0.0
 20
0.0
 30
0.0
  9
$EXTMAX
 10
431.8
 20
279.4
 30
0.0
  9
$LIMMIN
 10
0.0
 20
0.0
  9
$LIMMAX
 10
431.8
 20
279.4
  9
$ORTHOMODE
 70
     0
  9
$REGENMODE
 70
     1
  9
$FILLMODE
 70
     1
  9
$QTEXTMODE
 70
     0
  9
$MIRRTEXT
 70
     1
  9
$LTSCALE
 40
1.0
  9
$ATTMODE
 70
     1
  9
$TEXTSIZE
 40
4.9388888889
  9
$TRACEWID
 40
1.0
  9
$TEXTSTYLE
  7
Standard
  9
$CLAYER
  8
0
  9
$CELTYPE
  6
ByLayer
  9
$CECOLOR
 62
   256
  9
$CELTSCALE
 40
1.0
  9
$DISPSILH
 70
     0
  9
$DIMSCALE
 40
1.0
  9
$DIMASZ
 40
5.1366373698
  9
$DIMEXO
 40
2.0
  9
$DIMDLI
 40
3.75
  9
$DIMRND
 40
0.0
  9
$DIMDLE
 40
0.0
  9
$DIMEXE
 40
2.0
  9
$DIMTP
 40
0.0
  9
$DIMTM
 40
0.0
  9
$DIMTXT
 40
7.0555555556
  9
$DIMCEN
 40
2.5
  9
$DIMTSZ
 40
0.0
  9
$DIMTOL
 70
     0
  9
$DIMLIM
 70
     0
  9
$DIMTIH
 70
     1
  9
$DIMTOH
 70
     1
  9
$DIMSE1
 70
     0
  9
$DIMSE2
 70
     0
  9
$DIMTAD
 70
     1
  9
$DIMZIN
 70
     0
  9
$DIMBLK
  1

  9
$DIMASO
 70
     1
  9
$DIMSHO
 70
     1
  9
$DIMPOST
  1

  9
$DIMAPOST
  1

  9
$DIMALT
 70
     0
  9
$DIMALTD
 70
     3
  9
$DIMALTF
 40
0.0393700787
  9
$DIMLFAC
 40
1.0
  9
$DIMTOFL
 70
     1
  9
$DIMTVP
 40
0.0
  9
$DIMTIX
 70
     0
  9
$DIMSOXD
 70
     0
  9
$DIMSAH
 70
     0
  9
$DIMBLK1
  1

  9
$DIMBLK2
  1

  9
$DIMSTYLE
  2
ISO-25
  9
$DIMCLRD
 70
     0
  9
$DIMCLRE
 70
     0
  9
$DIMCLRT
 70
     0
  9
$DIMTFAC
 40
1.0
  9
$DIMGAP
 40
2.0
  9
$DIMJUST
 70
     0
  9
$DIMSD1
 70
     0
  9
$DIMSD2
 70
     0
  9
$DIMTOLJ
 70
     0
  9
$DIMTZIN
 70
     0
  9
$DIMALTZ
 70
     0
  9
$DIMALTTZ
 70
     0
  9
$DIMUPT
 70
     0
  9
$DIMDEC
 70
     2
  9
$DIMTDEC
 70
     2
  9
$DIMALTU
 70
     2
  9
$DIMALTTD
 70
     3
  9
$DIMTXSTY
  7
Standard
  9
$DIMAUNIT
 70
     0
  9
$DIMADEC
 70
     2
  9
$DIMALTRND
 40
0.0
  9
$DIMAZIN
 70
     0
  9
$DIMDSEP
 70
    44
  9
$DIMATFIT
 70
     3
  9
$DIMFRAC
 70
     0
  9
$DIMLDRBLK
  1

  9
$DIMLUNIT
 70
     2
  9
$DIMLWD
 70
    -2
  9
$DIMLWE
 70
    -2
  9
$DIMTMOVE
 70
     0
  9
$LUNITS
 70
     2
  9
$LUPREC
 70
     2
  9
$SKETCHINC
 40
1.0
  9
$FILLETRAD
 40
10.0
  9
$AUNITS
 70
     0
  9
$AUPREC
 70
     2
  9
$MENU
  1
.
  9
$ELEVATION
 40
0.0
  9
$PELEVATION
 40
0.0
  9
$THICKNESS
 40
0.0
  9
$LIMCHECK
 70
     0
  9
$CHAMFERA
 40
0.0
  9
$CHAMFERB
 40
0.0
  9
$CHAMFERC
 40
0.0
  9
$CHAMFERD
 40
0.0
  9
$SKPOLY
 70
     0
  9
$TDCREATE
 40
2457687.455167685
  9
$TDUCREATE
 40
2457687.371834352
  9
$TDUPDATE
 40
2457687.455168669
  9
$TDUUPDATE
 40
2457687.371835336
  9
$TDINDWG
 40
0.0000000116
  9
$TDUSRTIMER
 40
0.0000000116
  9
$USRTIMER
 70
     1
  9
$ANGBASE
 50
0.0
  9
$ANGDIR
 70
     0
  9
$PDMODE
 70
     0
  9
$PDSIZE
 40
-1.0
  9
$PLINEWID
 40
0.0
  9
$SPLFRAME
 70
     0
  9
$SPLINETYPE
 70
     6
  9
$SPLINESEGS
 70
     8
  9
$HANDSEED
  5
4AD
  9
$SURFTAB1
 70
     6
  9
$SURFTAB2
 70
     6
  9
$SURFTYPE
 70
     6
  9
$SURFU
 70
     6
  9
$SURFV
 70
     6
  9
$UCSBASE
  2

  9
$UCSNAME
  2

  9
$UCSORG
 10
0.0
 20
0.0
 30
0.0
  9
$UCSXDIR
 10
1.0
 20
0.0
 30
0.0
  9
$UCSYDIR
 10
0.0
 20
1.0
 30
0.0
  9
$UCSORTHOREF
  2

  9
$UCSORTHOVIEW
 70
     0
  9
$UCSORGTOP
 10
0.0
 20
0.0
 30
0.0
  9
$UCSORGBOTTOM
 10
0.0
 20
0.0
 30
0.0
  9
$UCSORGLEFT
 10
0.0
 20
0.0
 30
0.0
  9
$UCSORGRIGHT
 10
0.0
 20
0.0
 30
0.0
  9
$UCSORGFRONT
 10
0.0
 20
0.0
 30
0.0
  9
$UCSORGBACK
 10
0.0
 20
0.0
 30
0.0
  9
$PUCSBASE
  2

  9
$PUCSNAME
  2

  9
$PUCSORG
 10
0.0
 20
0.0
 30
0.0
  9
$PUCSXDIR
 10
1.0
 20
0.0
 30
0.0
  9
$PUCSYDIR
 10
0.0
 20
1.0
 30
0.0
  9
$PUCSORTHOREF
  2

  9
$PUCSORTHOVIEW
 70
     0
  9
$PUCSORGTOP
 10
0.0
 20
0.0
 30
0.0
  9
$PUCSORGBOTTOM
 10
0.0
 20
0.0
 30
0.0
  9
$PUCSORGLEFT
 10
0.0
 20
0.0
 30
0.0
  9
$PUCSORGRIGHT
 10
0.0
 20
0.0
 30
0.0
  9
$PUCSORGFRONT
 10
0.0
 20
0.0
 30
0.0
  9
$PUCSORGBACK
 10
0.0
 20
0.0
 30
0.0
  9
$USERI1
 70
     0
  9
$USERI2
 70
     0
  9
$USERI3
 70
     0
  9
$USERI4
 70
     0
  9
$USERI5
 70
     0
  9
$USERR1
 40
0.0
  9
$USERR2
 40
0.0
  9
$USERR3
 40
0.0
  9
$USERR4
 40
0.0
  9
$USERR5
 40
0.0
  9
$WORLDVIEW
 70
     1
  9
$SHADEDGE
 70
     3
  9
$SHADEDIF
 70
    70
  9
$TILEMODE
 70
     1
  9
$MAXACTVP
 70
    64
  9
$PINSBASE
 10
0.0
 20
0.0
 30
0.0
  9
$PLIMCHECK
 70
     0
  9
$PEXTMIN
 10
1.0000000000E+20
 20
1.0000000000E+20
 30
1.0000000000E+20
  9
$PEXTMAX
 10
-1.0000000000E+20
 20
-1.0000000000E+20
 30
-1.0000000000E+20
  9
$PLIMMIN
 10
0.0
 20
0.0
  9
$PLIMMAX
 10
420.0
 20
297.0
  9
$UNITMODE
 70
     0
  9
$VISRETAIN
 70
     1
  9
$PLINEGEN
 70
     0
  9
$PSLTSCALE
 70
     1
  9
$TREEDEPTH
 70
  3020
  9
$CMLSTYLE
  2
Standard
  9
$CMLJUST
 70
     0
  9
$CMLSCALE
 40
20.0
  9
$PROXYGRAPHICS
 70
     1
  9
$MEASUREMENT
 70
     1
  9
$CELWEIGHT
370
    -1
  9
$ENDCAPS
280
     0
  9
$JOINSTYLE
280
     0
  9
$LWDISPLAY
290
     1
  9
$INSUNITS
 70
     4
  9
$HYPERLINKBASE
  1

  9
$STYLESHEET
  1

  9
$XEDIT
290
     1
  9
$CEPSNTYPE
380
     0
  9
$PSTYLEMODE
290
     1
  9
$FINGERPRINTGUID
  2
{1CDBE2E8-366D-4C09-BE70-2B2B2D2784E8}
  9
$VERSIONGUID
  2
{FAEB1C32-E019-11D5-929B-00C0DF256EC4}
  9
$EXTNAMES
290
     1
  9
$PSVPSCALE
 40
0.0
  9
$OLESTARTUP
290
     0
  0
ENDSEC
  0
SECTION
  2
CLASSES
  0
CLASS
  1
ACDBDICTIONARYWDFLT
  2
AcDbDictionaryWithDefault
  3
ObjectDBX Classes
 90
        0
280
     0
281
     0
  0
CLASS
  1
VISUALSTYLE
  2
AcDbVisualStyle
  3
ObjectDBX Classes
 90
     4095
280
     0
281
     0
  0
CLASS
  1
MATERIAL
  2
AcDbMaterial
  3
ObjectDBX Classes
 90
     1153
280
     0
281
     0
  0
CLASS
  1
SCALE
  2
AcDbScale
  3
ObjectDBX Classes
 90
     1153
280
     0
281
     0
  0
CLASS
  1
TABLESTYLE
  2
AcDbTableStyle
  3
ObjectDBX Classes
 90
     4095
280
     0
281
     0
  0
CLASS
  1
MLEADERSTYLE
  2
AcDbMLeaderStyle
  3
ACDB_MLEADERSTYLE_CLASS
 90
     4095
280
     0
281
     0
  0
CLASS
  1
SUN
  2
AcDbSun
  3
SCENEOE
 90
     1153
280
     0
281
     0
  0
CLASS
  1
ACDBPLACEHOLDER
  2
AcDbPlaceHolder
  3
ObjectDBX Classes
 90
        0
280
     0
281
     0
  0
CLASS
  1
LAYOUT
  2
AcDbLayout
  3
ObjectDBX Classes
 90
        0
280
     0
281
     0
  0
ENDSEC
  0
SECTION
  2
TABLES
  0
TABLE
  2
VPORT
  5
8
330
0
100
AcDbSymbolTable
 70
     1
  0
VPORT
  5
29
330
8
100
AcDbSymbolTableRecord
100
AcDbViewportTableRecord
  2
*Active
 70
     0
 10
0.0
 20
0.0
 11
1.0
 21
1.0
 12
215.9
 22
139.7
 13
0.0
 23
0.0
 14
10.0
 24
10.0
 15
10.0
 25
10.0
 16
0.0
 26
0.0
 36
1.0
 17
0.0
 27
0.0
 37
0.0
 40
279.4
 41
1.5454545455
 42
50.0
 43
0.0
 44
0.0
 50
0.0
 51
0.0
 71
     0
 72
  2000
 73
     1
 74
     3
 75
     0
 76
     0
 77
     0
 78
     0
281
     0
 65
     1
110
0.0
120
0.0
130
0.0
111
1.0
121
0.0
131
0.0
112
0.0
122
1.0
132
0.0
 79
     0
146
0.0
  0
ENDTAB
  0
TABLE
  2
LTYPE
  5
5
330
0
100
AcDbSymbolTable
 70
     6
  0
LTYPE
  5
14
330
5
100
AcDbSymbolTableRecord
100
AcDbLinetypeTableRecord
  2
ByBlock
 70
     0
  3

 72
    65
 73
     0
 40
0.0
  0
LTYPE
  5
15
330
5
100
AcDbSymbolTableRecord
100
AcDbLinetypeTableRecord
  2
ByLayer
 70
     0
  3

 72
    65
 73
     0
 40
0.0
  0
LTYPE
  5
16
330
5
100
AcDbSymbolTableRecord
100
AcDbLinetypeTableRecord
  2
Continuous
 70
     0
  3
Solid line
 72
    65
 73
     0
 40
0.0
  0
LTYPE
  5
6E
330
5
100
AcDbSymbolTableRecord
100
AcDbLinetypeTableRecord
  2
HIDDEN
 70
     0
  3
Hidden __ __ __ __ __ __ __ __ __ __ __ __ __ __
 72
    65
 73
     2
 40
1.905
 49
1.27
 74
     0
 49
-0.635
 74
     0
  0
LTYPE
  5
6F
330
5
100
AcDbSymbolTableRecord
100
AcDbLinetypeTableRecord
  2
PHANTOM
 70
     0
  3
Phantom ______  __  __  ______  __  __  ______
 72
    65
 73
     6
 40
12.7
 49
6.35
 74
     0
 49
-1.27
 74
     0
 49
1.27
 74
     0
 49
-1.27
 74
     0
 49
1.27
 74
     0
 49
-1.27
 74
     0
  0
LTYPE
  5
70
330
5
100
AcDbSymbolTableRecord
100
AcDbLinetypeTableRecord
  2
CENTER
 70
     0
  3
Center ____ _ ____ _ ____ _ ____ _ ____ _ ____
 72
    65
 73
     4
 40
10.16
 49
6.35
 74
     0
 49
-1.27
 74
     0
 49
1.27
 74
     0
 49
-1.27
 74
     0
  0
LTYPE
  5
71
330
5
100
AcDbSymbolTableRecord
100
AcDbLinetypeTableRecord
  2
CENTERX2
 70
     0
  3
Center (2x) ________  __  ________  __  _____
 72
    65
 73
     4
 40
20.32
 49
12.7
 74
     0
 49
-2.54
 74
     0
 49
2.54
 74
     0
 49
-2.54
 74
     0
  0
LTYPE
  5
72
330
5
100
AcDbSymbolTableRecord
100
AcDbLinetypeTableRecord
  2
DOT2
 70
     0
  3
Dot (.5x) ........................................
 72
    65
 73
     2
 40
0.635
 49
0.0
 74
     0
 49
-0.635
 74
     0
  0
ENDTAB
  0
TABLE
  2
LAYER
  5
2
330
0
100
AcDbSymbolTable
 70
     3
  0
LAYER
  5
10
330
2
100
AcDbSymbolTableRecord
100
AcDbLayerTableRecord
  2
0
 70
     0
 62
     7
  6
Continuous
370
    -3
390
F
  0
LAYER
  5
73
330
2
100
AcDbSymbolTableRecord
100
AcDbLayerTableRecord
  2
SLD-0
 70
     0
 62
   179
  6
Continuous
370
    -3
390
F
  0
LAYER
  5
74
330
2
100
AcDbSymbolTableRecord
100
AcDbLayerTableRecord
  2
EBENE_1
 70
     0
 62
   179
  6
Continuous
370
    -3
390
F
  0
ENDTAB
  0
TABLE
  2
STYLE
  5
3
330
0
100
AcDbSymbolTable
 70
     3
  0
STYLE
  5
11
330
3
100
AcDbSymbolTableRecord
100
AcDbTextStyleTableRecord
  2
Standard
 70
     0
 40
0.0
 41
1.0
 50
0.0
 71
     0
 42
4.9388888889
  3
txt
  4

  0
STYLE
  5
96
330
3
100
AcDbSymbolTableRecord
100
AcDbTextStyleTableRecord
  2
SLDTEXTSTYLE0
 70
     0
 40
0.0
 41
0.605
 50
0.0
 71
     0
 42
4.9388888889
  3
TXT
  4

  0
STYLE
  5
16E
330
3
100
AcDbSymbolTableRecord
100
AcDbTextStyleTableRecord
  2
SLDTEXTSTYLE1
 70
     0
 40
0.0
 41
0.75
 50
0.0
 71
     0
 42
4.9388888889
  3
TXT
  4

  0
ENDTAB
  0
TABLE
  2
VIEW
  5
6
330
0
100
AcDbSymbolTable
 70
     0
  0
ENDTAB
  0
TABLE
  2
UCS
  5
7
330
0
100
AcDbSymbolTable
 70
     0
  0
ENDTAB
  0
TABLE
  2
APPID
  5
9
330
0
100
AcDbSymbolTable
 70
     1
  0
APPID
  5
12
330
9
100
AcDbSymbolTableRecord
100
AcDbRegAppTableRecord
  2
ACAD
 70
     0
  0
ENDTAB
  0
TABLE
  2
DIMSTYLE
  5
A
330
0
100
AcDbSymbolTable
 70
     1
100
AcDbDimStyleTable
  0
DIMSTYLE
105
27
330
A
100
AcDbSymbolTableRecord
100
AcDbDimStyleTableRecord
  2
ISO-25
 70
     0
 41
2.5
 42
0.625
 43
3.75
 44
1.25
 73
     0
 74
     0
 77
     1
 78
     8
140
2.5
141
2.5
143
0.0393700787
147
0.625
171
     3
172
     1
178
     0
271
     2
272
     2
274
     3
278
    44
283
     0
284
     8
340
11
  0
ENDTAB
  0
TABLE
  2
BLOCK_RECORD
  5
1
330
0
100
AcDbSymbolTable
 70
    25
  0
BLOCK_RECORD
  5
1F
330
1
100
AcDbSymbolTableRecord
100
AcDbBlockTableRecord
  2
*Model_Space
340
22
  0
BLOCK_RECORD
  5
1B
330
1
100
AcDbSymbolTableRecord
100
AcDbBlockTableRecord
  2
*Paper_Space
340
1E
  0
BLOCK_RECORD
  5
23
330
1
100
AcDbSymbolTableRecord
100
AcDbBlockTableRecord
  2
*Paper_Space0
340
26
  0
BLOCK_RECORD
  5
75
330
1
100
AcDbSymbolTableRecord
100
AcDbBlockTableRecord
  2
Block1
340
0
102
{BLKREFS
331
16D
102
}
  0
BLOCK_RECORD
  5
8C
330
1
100
AcDbSymbolTableRecord
100
AcDbBlockTableRecord
  2
SW_BLOCK_DIMENSION_0
340
0
102
{BLKREFS
331
98
102
}
  0
BLOCK_RECORD
  5
8F
330
1
100
AcDbSymbolTableRecord
100
AcDbBlockTableRecord
  2
_ORIGIN
340
0
102
{BLKREFS
331
94
331
104
102
}
  0
BLOCK_RECORD
  5
99
330
1
100
AcDbSymbolTableRecord
100
AcDbBlockTableRecord
  2
SW_BLOCK_DIMENSION_1
340
0
102
{BLKREFS
331
A0
102
}
  0
BLOCK_RECORD
  5
A1
330
1
100
AcDbSymbolTableRecord
100
AcDbBlockTableRecord
  2
SW_BLOCK_DIMENSION_2
340
0
102
{BLKREFS
331
A8
102
}
  0
BLOCK_RECORD
  5
A9
330
1
100
AcDbSymbolTableRecord
100
AcDbBlockTableRecord
  2
SW_BLOCK_DIMENSION_3
340
0
102
{BLKREFS
331
B0
102
}
  0
BLOCK_RECORD
  5
B1
330
1
100
AcDbSymbolTableRecord
100
AcDbBlockTableRecord
  2
SW_BLOCK_DIMENSION_4
340
0
102
{BLKREFS
331
B8
102
}
  0
BLOCK_RECORD
  5
B9
330
1
100
AcDbSymbolTableRecord
100
AcDbBlockTableRecord
  2
SW_BLOCK_DIMENSION_5
340
0
102
{BLKREFS
331
C0
102
}
  0
BLOCK_RECORD
  5
C1
330
1
100
AcDbSymbolTableRecord
100
AcDbBlockTableRecord
  2
SW_BLOCK_DIMENSION_6
340
0
102
{BLKREFS
331
C8
102
}
  0
BLOCK_RECORD
  5
C9
330
1
100
AcDbSymbolTableRecord
100
AcDbBlockTableRecord
  2
SW_BLOCK_DIMENSION_7
340
0
102
{BLKREFS
331
D0
102
}
  0
BLOCK_RECORD
  5
D1
330
1
100
AcDbSymbolTableRecord
100
AcDbBlockTableRecord
  2
SW_BLOCK_DIMENSION_8
340
0
102
{BLKREFS
331
D8
102
}
  0
BLOCK_RECORD
  5
D9
330
1
100
AcDbSymbolTableRecord
100
AcDbBlockTableRecord
  2
SW_BLOCK_DIMENSION_9
340
0
102
{BLKREFS
331
E0
102
}
  0
BLOCK_RECORD
  5
E1
330
1
100
AcDbSymbolTableRecord
100
AcDbBlockTableRecord
  2
SW_BLOCK_DIMENSION_10
340
0
102
{BLKREFS
331
E8
102
}
  0
BLOCK_RECORD
  5
E9
330
1
100
AcDbSymbolTableRecord
100
AcDbBlockTableRecord
  2
SW_BLOCK_DIMENSION_11
340
0
102
{BLKREFS
331
F0
102
}
  0
BLOCK_RECORD
  5
F1
330
1
100
AcDbSymbolTableRecord
100
AcDbBlockTableRecord
  2
SW_BLOCK_DIMENSION_12
340
0
102
{BLKREFS
331
F8
102
}
  0
BLOCK_RECORD
  5
F9
330
1
100
AcDbSymbolTableRecord
100
AcDbBlockTableRecord
  2
SW_BLOCK_DIMENSION_13
340
0
102
{BLKREFS
331
100
102
}
  0
BLOCK_RECORD
  5
101
330
1
100
AcDbSymbolTableRecord
100
AcDbBlockTableRecord
  2
SW_BLOCK_DIMENSION_14
340
0
102
{BLKREFS
331
110
102
}
  0
BLOCK_RECORD
  5
111
330
1
100
AcDbSymbolTableRecord
100
AcDbBlockTableRecord
  2
SW_BLOCK_DIMENSION_15
340
0
102
{BLKREFS
331
121
102
}
  0
BLOCK_RECORD
  5
122
330
1
100
AcDbSymbolTableRecord
100
AcDbBlockTableRecord
  2
SW_BLOCK_DIMENSION_16
340
0
102
{BLKREFS
331
132
102
}
  0
BLOCK_RECORD
  5
133
330
1
100
AcDbSymbolTableRecord
100
AcDbBlockTableRecord
  2
SW_BLOCK_DIMENSION_17
340
0
102
{BLKREFS
331
143
102
}
  0
BLOCK_RECORD
  5
144
330
1
100
AcDbSymbolTableRecord
100
AcDbBlockTableRecord
  2
SW_BLOCK_DIMENSION_18
340
0
102
{BLKREFS
331
154
102
}
  0
BLOCK_RECORD
  5
155
330
1
100
AcDbSymbolTableRecord
100
AcDbBlockTableRecord
  2
SW_BLOCK_DIMENSION_19
340
0
102
{BLKREFS
331
165
102
}
  0
BLOCK_RECORD
  5
166
330
1
100
AcDbSymbolTableRecord
100
AcDbBlockTableRecord
  2
SW_NOTE_0
340
0
102
{BLKREFS
331
16B
102
}
  0
BLOCK_RECORD
  5
171
330
1
100
AcDbSymbolTableRecord
100
AcDbBlockTableRecord
  2
SW_NOTE_1
340
0
102
{BLKREFS
331
178
102
}
  0
ENDTAB
  0
ENDSEC
  0
SECTION
  2
BLOCKS
  0
BLOCK
  5
20
330
1F
100
AcDbEntity
  8
0
100
AcDbBlockBegin
  2
*Model_Space
 70
     0
 10
0.0
 20
0.0
 30
0.0
  3
*Model_Space
  1

  0
ENDBLK
  5
21
330
1F
100
AcDbEntity
  8
0
100
AcDbBlockEnd
  0
BLOCK
  5
1C
330
1B
100
AcDbEntity
 67
     1
  8
0
100
AcDbBlockBegin
  2
*Paper_Space
 70
     0
 10
0.0
 20
0.0
 30
0.0
  3
*Paper_Space
  1

  0
ENDBLK
  5
1D
330
1B
100
AcDbEntity
 67
     1
  8
0
100
AcDbBlockEnd
  0
BLOCK
  5
24
330
23
100
AcDbEntity
  8
0
100
AcDbBlockBegin
  2
*Paper_Space0
 70
     0
 10
0.0
 20
0.0
 30
0.0
  3
*Paper_Space0
  1

  0
ENDBLK
  5
25
330
23
100
AcDbEntity
  8
0
100
AcDbBlockEnd
  0
BLOCK
  5
76
330
75
100
AcDbEntity
  8
0
100
AcDbBlockBegin
  2
Block1
 70
     0
 10
0.0
 20
0.0
 30
0.0
  3
Block1
  1

  0
LINE
  5
78
330
75
100
AcDbEntity
  8
EBENE_1
100
AcDbLine
 10
363.6834285714
 20
41.3579706949
 30
0.0
 11
388.6834285714
 21
41.3579706949
 31
0.0
  0
LINE
  5
79
330
75
100
AcDbEntity
  8
EBENE_1
100
AcDbLine
 10
374.9034285714
 20
41.3579706949
 30
0.0
 11
374.9034285714
 21
171.3579706949
 31
0.0
  0
LINE
  5
7A
330
75
100
AcDbEntity
  8
EBENE_1
100
AcDbLine
 10
374.9034285714
 20
51.3579706949
 30
0.0
 11
384.9034285714
 21
51.3579706949
 31
0.0
  0
LINE
  5
7B
330
75
100
AcDbEntity
  8
EBENE_1
100
AcDbLine
 10
374.9034285714
 20
61.3579706949
 30
0.0
 11
384.9034285714
 21
61.3579706949
 31
0.0
  0
LINE
  5
7C
330
75
100
AcDbEntity
  8
EBENE_1
100
AcDbLine
 10
374.9034285714
 20
71.3579706949
 30
0.0
 11
384.9034285714
 21
71.3579706949
 31
0.0
  0
LINE
  5
7D
330
75
100
AcDbEntity
  8
EBENE_1
100
AcDbLine
 10
374.9034285714
 20
81.3579706949
 30
0.0
 11
384.9034285714
 21
81.3579706949
 31
0.0
  0
LINE
  5
7E
330
75
100
AcDbEntity
  8
EBENE_1
100
AcDbLine
 10
374.9034285714
 20
91.3579706949
 30
0.0
 11
384.9034285714
 21
91.3579706949
 31
0.0
  0
LINE
  5
7F
330
75
100
AcDbEntity
  8
EBENE_1
100
AcDbLine
 10
374.9034285714
 20
101.3579706949
 30
0.0
 11
384.9034285714
 21
101.3579706949
 31
0.0
  0
LINE
  5
80
330
75
100
AcDbEntity
  8
EBENE_1
100
AcDbLine
 10
374.9034285714
 20
111.3579706949
 30
0.0
 11
384.9034285714
 21
111.3579706949
 31
0.0
  0
LINE
  5
81
330
75
100
AcDbEntity
  8
EBENE_1
100
AcDbLine
 10
374.9034285714
 20
121.3579706949
 30
0.0
 11
384.9034285714
 21
121.3579706949
 31
0.0
  0
LINE
  5
82
330
75
100
AcDbEntity
  8
EBENE_1
100
AcDbLine
 10
374.9034285714
 20
131.3579706949
 30
0.0
 11
384.9034285714
 21
131.3579706949
 31
0.0
  0
LINE
  5
83
330
75
100
AcDbEntity
  8
EBENE_1
100
AcDbLine
 10
374.9034285714
 20
141.3579706949
 30
0.0
 11
384.9034285714
 21
141.3579706949
 31
0.0
  0
LINE
  5
84
330
75
100
AcDbEntity
  8
EBENE_1
100
AcDbLine
 10
374.9034285714
 20
151.3579706949
 30
0.0
 11
384.9034285714
 21
151.3579706949
 31
0.0
  0
LINE
  5
85
330
75
100
AcDbEntity
  8
EBENE_1
100
AcDbLine
 10
374.9034285714
 20
161.3579706949
 30
0.0
 11
384.9034285714
 21
161.3579706949
 31
0.0
  0
LINE
  5
86
330
75
100
AcDbEntity
  8
EBENE_1
100
AcDbLine
 10
374.9034285714
 20
171.3579706949
 30
0.0
 11
384.9034285714
 21
171.3579706949
 31
0.0
  0
LINE
  5
87
330
75
100
AcDbEntity
  8
EBENE_1
100
AcDbLine
 10
374.9034285714
 20
66.7579706949
 30
0.0
 11
362.9034285714
 21
66.7579706949
 31
0.0
  0
LINE
  5
88
330
75
100
AcDbEntity
  8
EBENE_1
100
AcDbLine
 10
374.9034285714
 20
92.1579706949
 30
0.0
 11
362.9034285714
 21
92.1579706949
 31
0.0
  0
LINE
  5
89
330
75
100
AcDbEntity
  8
EBENE_1
100
AcDbLine
 10
374.9034285714
 20
117.5579706949
 30
0.0
 11
362.9034285714
 21
117.5579706949
 31
0.0
  0
LINE
  5
8A
330
75
100
AcDbEntity
  8
EBENE_1
100
AcDbLine
 10
374.9034285714
 20
142.9579706949
 30
0.0
 11
362.9034285714
 21
142.9579706949
 31
0.0
  0
LINE
  5
8B
330
75
100
AcDbEntity
  8
EBENE_1
100
AcDbLine
 10
374.9034285714
 20
168.3579706949
 30
0.0
 11
362.9034285714
 21
168.3579706949
 31
0.0
  0
INSERT
  5
98
330
75
100
AcDbEntity
  8
EBENE_1
100
AcDbBlockReference
  2
SW_BLOCK_DIMENSION_0
 10
397.2096946378
 20
38.9914197296
 30
0.0
  0
INSERT
  5
A0
330
75
100
AcDbEntity
  8
EBENE_1
100
AcDbBlockReference
  2
SW_BLOCK_DIMENSION_1
 10
397.2096946378
 20
48.9914197296
 30
0.0
  0
INSERT
  5
A8
330
75
100
AcDbEntity
  8
EBENE_1
100
AcDbBlockReference
  2
SW_BLOCK_DIMENSION_2
 10
397.2096946378
 20
58.9914197296
 30
0.0
  0
INSERT
  5
B0
330
75
100
AcDbEntity
  8
EBENE_1
100
AcDbBlockReference
  2
SW_BLOCK_DIMENSION_3
 10
397.2096946378
 20
68.9914197296
 30
0.0
  0
INSERT
  5
B8
330
75
100
AcDbEntity
  8
EBENE_1
100
AcDbBlockReference
  2
SW_BLOCK_DIMENSION_4
 10
397.2096946378
 20
78.9914197296
 30
0.0
  0
INSERT
  5
C0
330
75
100
AcDbEntity
  8
EBENE_1
100
AcDbBlockReference
  2
SW_BLOCK_DIMENSION_5
 10
397.2096946378
 20
88.9914197296
 30
0.0
  0
INSERT
  5
C8
330
75
100
AcDbEntity
  8
EBENE_1
100
AcDbBlockReference
  2
SW_BLOCK_DIMENSION_6
 10
397.2096946378
 20
98.9914197296
 30
0.0
  0
INSERT
  5
D0
330
75
100
AcDbEntity
  8
EBENE_1
100
AcDbBlockReference
  2
SW_BLOCK_DIMENSION_7
 10
397.2096946378
 20
108.9914197296
 30
0.0
  0
INSERT
  5
D8
330
75
100
AcDbEntity
  8
EBENE_1
100
AcDbBlockReference
  2
SW_BLOCK_DIMENSION_8
 10
397.2096946378
 20
118.9914197296
 30
0.0
  0
INSERT
  5
E0
330
75
100
AcDbEntity
  8
EBENE_1
100
AcDbBlockReference
  2
SW_BLOCK_DIMENSION_9
 10
397.2096946378
 20
128.9914197296
 30
0.0
  0
INSERT
  5
E8
330
75
100
AcDbEntity
  8
EBENE_1
100
AcDbBlockReference
  2
SW_BLOCK_DIMENSION_10
 10
397.2096946378
 20
138.9914197296
 30
0.0
  0
INSERT
  5
F0
330
75
100
AcDbEntity
  8
EBENE_1
100
AcDbBlockReference
  2
SW_BLOCK_DIMENSION_11
 10
397.2096946378
 20
148.9914197296
 30
0.0
  0
INSERT
  5
F8
330
75
100
AcDbEntity
  8
EBENE_1
100
AcDbBlockReference
  2
SW_BLOCK_DIMENSION_12
 10
397.2096946378
 20
158.9914197296
 30
0.0
  0
INSERT
  5
100
330
75
100
AcDbEntity
  8
EBENE_1
100
AcDbBlockReference
  2
SW_BLOCK_DIMENSION_13
 10
397.2096946378
 20
168.9914197296
 30
0.0
  0
INSERT
  5
110
330
75
100
AcDbEntity
  8
EBENE_1
100
AcDbBlockReference
  2
SW_BLOCK_DIMENSION_14
 10
337.2987953614
 20
36.1691980072
 30
0.0
  0
INSERT
  5
121
330
75
100
AcDbEntity
  8
EBENE_1
100
AcDbBlockReference
  2
SW_BLOCK_DIMENSION_15
 10
337.2987953614
 20
61.5691980072
 30
0.0
  0
INSERT
  5
132
330
75
100
AcDbEntity
  8
EBENE_1
100
AcDbBlockReference
  2
SW_BLOCK_DIMENSION_16
 10
337.2987953614
 20
86.9691980072
 30
0.0
  0
INSERT
  5
143
330
75
100
AcDbEntity
  8
EBENE_1
100
AcDbBlockReference
  2
SW_BLOCK_DIMENSION_17
 10
337.2987953614
 20
112.3691980072
 30
0.0
  0
INSERT
  5
154
330
75
100
AcDbEntity
  8
EBENE_1
100
AcDbBlockReference
  2
SW_BLOCK_DIMENSION_18
 10
336.8284243759
 20
137.7691980072
 30
0.0
  0
INSERT
  5
165
330
75
100
AcDbEntity
  8
EBENE_1
100
AcDbBlockReference
  2
SW_BLOCK_DIMENSION_19
 10
337.2987953614
 20
163.1691980072
 30
0.0
  0
INSERT
  5
16B
330
75
100
AcDbEntity
  8
EBENE_1
 62
   179
100
AcDbBlockReference
  2
SW_NOTE_0
 10
337.5586028241
 20
28.8175207347
 30
0.0
  0
MTEXT
  5
16C
330
75
100
AcDbEntity
  8
EBENE_1
100
AcDbMText
 10
393.160738319
 20
33.5924424874
 30
0.0
 40
3.7041666667
 41
0.0
 71
     1
 72
     1
  1
mm
  7
SLDTEXTSTYLE0
 73
     1
 44
1.0
  0
ENDBLK
  5
77
330
75
100
AcDbEntity
  8
0
100
AcDbBlockEnd
  0
BLOCK
  5
8D
330
8C
100
AcDbEntity
  8
0
100
AcDbBlockBegin
  2
SW_BLOCK_DIMENSION_0
 70
     0
 10
0.0
 20
0.0
 30
0.0
  3
SW_BLOCK_DIMENSION_0
  1

  0
INSERT
  5
94
330
8C
100
AcDbEntity
  8
EBENE_1
 62
     0
100
AcDbBlockReference
  2
_ORIGIN
 10
-1.5805038061
 20
2.3665509652
 30
0.0
 41
0.9483022837
 42
0.9483022837
 50
0.0
  0
LINE
  5
95
330
8C
100
AcDbEntity
  8
EBENE_1
 62
     0
100
AcDbLine
 10
-6.5262660664
 20
2.3665509652
 30
0.0
 11
0.0
 21
2.3665509652
 31
0.0
  0
MTEXT
  5
97
330
8C
100
AcDbEntity
  8
EBENE_1
 62
     0
100
AcDbMText
 10
0.0
 20
4.0927900738
 30
0.0
 40
3.175
 41
0.0
 71
     1
 72
     1
  1
0
  7
SLDTEXTSTYLE0
 73
     1
 44
1.0
  0
ENDBLK
  5
8E
330
8C
100
AcDbEntity
  8
0
100
AcDbBlockEnd
  0
BLOCK
  5
90
330
8F
100
AcDbEntity
  8
0
100
AcDbBlockBegin
  2
_ORIGIN
 70
     0
 10
0.0
 20
0.0
 30
0.0
  3
_ORIGIN
  1

  0
CIRCLE
  5
92
330
8F
100
AcDbEntity
  8
0
  6
ByBlock
 62
     0
370
    -2
100
AcDbCircle
 10
0.0
 20
0.0
 30
0.0
 40
0.5
  0
LINE
  5
93
330
8F
100
AcDbEntity
  8
0
  6
ByBlock
 62
     0
370
    -2
100
AcDbLine
 10
0.0
 20
0.0
 30
0.0
 11
-1.0
 21
0.0
 31
0.0
  0
ENDBLK
  5
91
330
8F
100
AcDbEntity
  8
0
100
AcDbBlockEnd
  0
BLOCK
  5
9A
330
99
100
AcDbEntity
  8
0
100
AcDbBlockBegin
  2
SW_BLOCK_DIMENSION_1
 70
     0
 10
0.0
 20
0.0
 30
0.0
  3
SW_BLOCK_DIMENSION_1
  1

  0
SOLID
  5
9C
330
99
100
AcDbEntity
  8
EBENE_1
 62
     0
100
AcDbTrace
 10
-1.5805038061
 20
2.3665509652
 30
0.0
 11
-2.0546549479
 21
-0.7154314566
 31
0.0
 12
-1.1063526643
 22
-0.7154314566
 32
0.0
 13
-1.1063526643
 23
-0.7154314566
 33
0.0
  0
LINE
  5
9D
330
99
100
AcDbEntity
  8
EBENE_1
 62
     0
100
AcDbLine
 10
-10.3062660664
 20
2.3665509652
 30
0.0
 11
0.0
 21
2.3665509652
 31
0.0
  0
LINE
  5
9E
330
99
100
AcDbEntity
  8
EBENE_1
 62
     0
100
AcDbLine
 10
-1.5805038061
 20
-7.6334490348
 30
0.0
 11
-1.5805038061
 21
2.3665509652
 31
0.0
  0
MTEXT
  5
9F
330
99
100
AcDbEntity
  8
EBENE_1
 62
     0
100
AcDbMText
 10
0.0
 20
4.0927900738
 30
0.0
 40
3.175
 41
0.0
 71
     1
 72
     1
  1
10
  7
SLDTEXTSTYLE0
 73
     1
 44
1.0
  0
ENDBLK
  5
9B
330
99
100
AcDbEntity
  8
0
100
AcDbBlockEnd
  0
BLOCK
  5
A2
330
A1
100
AcDbEntity
  8
0
100
AcDbBlockBegin
  2
SW_BLOCK_DIMENSION_2
 70
     0
 10
0.0
 20
0.0
 30
0.0
  3
SW_BLOCK_DIMENSION_2
  1

  0
SOLID
  5
A4
330
A1
100
AcDbEntity
  8
EBENE_1
 62
     0
100
AcDbTrace
 10
-1.5805038061
 20
2.3665509652
 30
0.0
 11
-2.0546549479
 21
-0.7154314566
 31
0.0
 12
-1.1063526643
 22
-0.7154314566
 32
0.0
 13
-1.1063526643
 23
-0.7154314566
 33
0.0
  0
LINE
  5
A5
330
A1
100
AcDbEntity
  8
EBENE_1
 62
     0
100
AcDbLine
 10
-10.3062660664
 20
2.3665509652
 30
0.0
 11
0.0
 21
2.3665509652
 31
0.0
  0
LINE
  5
A6
330
A1
100
AcDbEntity
  8
EBENE_1
 62
     0
100
AcDbLine
 10
-1.5805038061
 20
-7.6334490348
 30
0.0
 11
-1.5805038061
 21
2.3665509652
 31
0.0
  0
MTEXT
  5
A7
330
A1
100
AcDbEntity
  8
EBENE_1
 62
     0
100
AcDbMText
 10
0.0
 20
4.0927900738
 30
0.0
 40
3.175
 41
0.0
 71
     1
 72
     1
  1
20
  7
SLDTEXTSTYLE0
 73
     1
 44
1.0
  0
ENDBLK
  5
A3
330
A1
100
AcDbEntity
  8
0
100
AcDbBlockEnd
  0
BLOCK
  5
AA
330
A9
100
AcDbEntity
  8
0
100
AcDbBlockBegin
  2
SW_BLOCK_DIMENSION_3
 70
     0
 10
0.0
 20
0.0
 30
0.0
  3
SW_BLOCK_DIMENSION_3
  1

  0
SOLID
  5
AC
330
A9
100
AcDbEntity
  8
EBENE_1
 62
     0
100
AcDbTrace
 10
-1.5805038061
 20
2.3665509652
 30
0.0
 11
-2.0546549479
 21
-0.7154314566
 31
0.0
 12
-1.1063526643
 22
-0.7154314566
 32
0.0
 13
-1.1063526643
 23
-0.7154314566
 33
0.0
  0
LINE
  5
AD
330
A9
100
AcDbEntity
  8
EBENE_1
 62
     0
100
AcDbLine
 10
-10.3062660664
 20
2.3665509652
 30
0.0
 11
0.0
 21
2.3665509652
 31
0.0
  0
LINE
  5
AE
330
A9
100
AcDbEntity
  8
EBENE_1
 62
     0
100
AcDbLine
 10
-1.5805038061
 20
-7.6334490348
 30
0.0
 11
-1.5805038061
 21
2.3665509652
 31
0.0
  0
MTEXT
  5
AF
330
A9
100
AcDbEntity
  8
EBENE_1
 62
     0
100
AcDbMText
 10
0.0
 20
4.0927900738
 30
0.0
 40
3.175
 41
0.0
 71
     1
 72
     1
  1
30
  7
SLDTEXTSTYLE0
 73
     1
 44
1.0
  0
ENDBLK
  5
AB
330
A9
100
AcDbEntity
  8
0
100
AcDbBlockEnd
  0
BLOCK
  5
B2
330
B1
100
AcDbEntity
  8
0
100
AcDbBlockBegin
  2
SW_BLOCK_DIMENSION_4
 70
     0
 10
0.0
 20
0.0
 30
0.0
  3
SW_BLOCK_DIMENSION_4
  1

  0
SOLID
  5
B4
330
B1
100
AcDbEntity
  8
EBENE_1
 62
     0
100
AcDbTrace
 10
-1.5805038061
 20
2.3665509652
 30
0.0
 11
-2.0546549479
 21
-0.7154314566
 31
0.0
 12
-1.1063526643
 22
-0.7154314566
 32
0.0
 13
-1.1063526643
 23
-0.7154314566
 33
0.0
  0
LINE
  5
B5
330
B1
100
AcDbEntity
  8
EBENE_1
 62
     0
100
AcDbLine
 10
-10.3062660664
 20
2.3665509652
 30
0.0
 11
0.0
 21
2.3665509652
 31
0.0
  0
LINE
  5
B6
330
B1
100
AcDbEntity
  8
EBENE_1
 62
     0
100
AcDbLine
 10
-1.5805038061
 20
-7.6334490348
 30
0.0
 11
-1.5805038061
 21
2.3665509652
 31
0.0
  0
MTEXT
  5
B7
330
B1
100
AcDbEntity
  8
EBENE_1
 62
     0
100
AcDbMText
 10
0.0
 20
4.0927900738
 30
0.0
 40
3.175
 41
0.0
 71
     1
 72
     1
  1
40
  7
SLDTEXTSTYLE0
 73
     1
 44
1.0
  0
ENDBLK
  5
B3
330
B1
100
AcDbEntity
  8
0
100
AcDbBlockEnd
  0
BLOCK
  5
BA
330
B9
100
AcDbEntity
  8
0
100
AcDbBlockBegin
  2
SW_BLOCK_DIMENSION_5
 70
     0
 10
0.0
 20
0.0
 30
0.0
  3
SW_BLOCK_DIMENSION_5
  1

  0
SOLID
  5
BC
330
B9
100
AcDbEntity
  8
EBENE_1
 62
     0
100
AcDbTrace
 10
-1.5805038061
 20
2.3665509652
 30
0.0
 11
-2.0546549479
 21
-0.7154314566
 31
0.0
 12
-1.1063526643
 22
-0.7154314566
 32
0.0
 13
-1.1063526643
 23
-0.7154314566
 33
0.0
  0
LINE
  5
BD
330
B9
100
AcDbEntity
  8
EBENE_1
 62
     0
100
AcDbLine
 10
-10.3062660664
 20
2.3665509652
 30
0.0
 11
0.0
 21
2.3665509652
 31
0.0
  0
LINE
  5
BE
330
B9
100
AcDbEntity
  8
EBENE_1
 62
     0
100
AcDbLine
 10
-1.5805038061
 20
-7.6334490348
 30
0.0
 11
-1.5805038061
 21
2.3665509652
 31
0.0
  0
MTEXT
  5
BF
330
B9
100
AcDbEntity
  8
EBENE_1
 62
     0
100
AcDbMText
 10
0.0
 20
4.0927900738
 30
0.0
 40
3.175
 41
0.0
 71
     1
 72
     1
  1
50
  7
SLDTEXTSTYLE0
 73
     1
 44
1.0
  0
ENDBLK
  5
BB
330
B9
100
AcDbEntity
  8
0
100
AcDbBlockEnd
  0
BLOCK
  5
C2
330
C1
100
AcDbEntity
  8
0
100
AcDbBlockBegin
  2
SW_BLOCK_DIMENSION_6
 70
     0
 10
0.0
 20
0.0
 30
0.0
  3
SW_BLOCK_DIMENSION_6
  1

  0
SOLID
  5
C4
330
C1
100
AcDbEntity
  8
EBENE_1
 62
     0
100
AcDbTrace
 10
-1.5805038061
 20
2.3665509652
 30
0.0
 11
-2.0546549479
 21
-0.7154314566
 31
0.0
 12
-1.1063526643
 22
-0.7154314566
 32
0.0
 13
-1.1063526643
 23
-0.7154314566
 33
0.0
  0
LINE
  5
C5
330
C1
100
AcDbEntity
  8
EBENE_1
 62
     0
100
AcDbLine
 10
-10.3062660664
 20
2.3665509652
 30
0.0
 11
0.0
 21
2.3665509652
 31
0.0
  0
LINE
  5
C6
330
C1
100
AcDbEntity
  8
EBENE_1
 62
     0
100
AcDbLine
 10
-1.5805038061
 20
-7.6334490348
 30
0.0
 11
-1.5805038061
 21
2.3665509652
 31
0.0
  0
MTEXT
  5
C7
330
C1
100
AcDbEntity
  8
EBENE_1
 62
     0
100
AcDbMText
 10
0.0
 20
4.0927900738
 30
0.0
 40
3.175
 41
0.0
 71
     1
 72
     1
  1
60
  7
SLDTEXTSTYLE0
 73
     1
 44
1.0
  0
ENDBLK
  5
C3
330
C1
100
AcDbEntity
  8
0
100
AcDbBlockEnd
  0
BLOCK
  5
CA
330
C9
100
AcDbEntity
  8
0
100
AcDbBlockBegin
  2
SW_BLOCK_DIMENSION_7
 70
     0
 10
0.0
 20
0.0
 30
0.0
  3
SW_BLOCK_DIMENSION_7
  1

  0
SOLID
  5
CC
330
C9
100
AcDbEntity
  8
EBENE_1
 62
     0
100
AcDbTrace
 10
-1.5805038061
 20
2.3665509652
 30
0.0
 11
-2.0546549479
 21
-0.7154314566
 31
0.0
 12
-1.1063526643
 22
-0.7154314566
 32
0.0
 13
-1.1063526643
 23
-0.7154314566
 33
0.0
  0
LINE
  5
CD
330
C9
100
AcDbEntity
  8
EBENE_1
 62
     0
100
AcDbLine
 10
-10.3062660664
 20
2.3665509652
 30
0.0
 11
0.0
 21
2.3665509652
 31
0.0
  0
LINE
  5
CE
330
C9
100
AcDbEntity
  8
EBENE_1
 62
     0
100
AcDbLine
 10
-1.5805038061
 20
-7.6334490348
 30
0.0
 11
-1.5805038061
 21
2.3665509652
 31
0.0
  0
MTEXT
  5
CF
330
C9
100
AcDbEntity
  8
EBENE_1
 62
     0
100
AcDbMText
 10
0.0
 20
4.0927900738
 30
0.0
 40
3.175
 41
0.0
 71
     1
 72
     1
  1
70
  7
SLDTEXTSTYLE0
 73
     1
 44
1.0
  0
ENDBLK
  5
CB
330
C9
100
AcDbEntity
  8
0
100
AcDbBlockEnd
  0
BLOCK
  5
D2
330
D1
100
AcDbEntity
  8
0
100
AcDbBlockBegin
  2
SW_BLOCK_DIMENSION_8
 70
     0
 10
0.0
 20
0.0
 30
0.0
  3
SW_BLOCK_DIMENSION_8
  1

  0
SOLID
  5
D4
330
D1
100
AcDbEntity
  8
EBENE_1
 62
     0
100
AcDbTrace
 10
-1.5805038061
 20
2.3665509652
 30
0.0
 11
-2.0546549479
 21
-0.7154314566
 31
0.0
 12
-1.1063526643
 22
-0.7154314566
 32
0.0
 13
-1.1063526643
 23
-0.7154314566
 33
0.0
  0
LINE
  5
D5
330
D1
100
AcDbEntity
  8
EBENE_1
 62
     0
100
AcDbLine
 10
-10.3062660664
 20
2.3665509652
 30
0.0
 11
0.0
 21
2.3665509652
 31
0.0
  0
LINE
  5
D6
330
D1
100
AcDbEntity
  8
EBENE_1
 62
     0
100
AcDbLine
 10
-1.5805038061
 20
-7.6334490348
 30
0.0
 11
-1.5805038061
 21
2.3665509652
 31
0.0
  0
MTEXT
  5
D7
330
D1
100
AcDbEntity
  8
EBENE_1
 62
     0
100
AcDbMText
 10
0.0
 20
4.0927900738
 30
0.0
 40
3.175
 41
0.0
 71
     1
 72
     1
  1
80
  7
SLDTEXTSTYLE0
 73
     1
 44
1.0
  0
ENDBLK
  5
D3
330
D1
100
AcDbEntity
  8
0
100
AcDbBlockEnd
  0
BLOCK
  5
DA
330
D9
100
AcDbEntity
  8
0
100
AcDbBlockBegin
  2
SW_BLOCK_DIMENSION_9
 70
     0
 10
0.0
 20
0.0
 30
0.0
  3
SW_BLOCK_DIMENSION_9
  1

  0
SOLID
  5
DC
330
D9
100
AcDbEntity
  8
EBENE_1
 62
     0
100
AcDbTrace
 10
-1.5805038061
 20
2.3665509652
 30
0.0
 11
-2.0546549479
 21
-0.7154314566
 31
0.0
 12
-1.1063526643
 22
-0.7154314566
 32
0.0
 13
-1.1063526643
 23
-0.7154314566
 33
0.0
  0
LINE
  5
DD
330
D9
100
AcDbEntity
  8
EBENE_1
 62
     0
100
AcDbLine
 10
-10.3062660664
 20
2.3665509652
 30
0.0
 11
0.0
 21
2.3665509652
 31
0.0
  0
LINE
  5
DE
330
D9
100
AcDbEntity
  8
EBENE_1
 62
     0
100
AcDbLine
 10
-1.5805038061
 20
-7.6334490348
 30
0.0
 11
-1.5805038061
 21
2.3665509652
 31
0.0
  0
MTEXT
  5
DF
330
D9
100
AcDbEntity
  8
EBENE_1
 62
     0
100
AcDbMText
 10
0.0
 20
4.0927900738
 30
0.0
 40
3.175
 41
0.0
 71
     1
 72
     1
  1
90
  7
SLDTEXTSTYLE0
 73
     1
 44
1.0
  0
ENDBLK
  5
DB
330
D9
100
AcDbEntity
  8
0
100
AcDbBlockEnd
  0
BLOCK
  5
E2
330
E1
100
AcDbEntity
  8
0
100
AcDbBlockBegin
  2
SW_BLOCK_DIMENSION_10
 70
     0
 10
0.0
 20
0.0
 30
0.0
  3
SW_BLOCK_DIMENSION_10
  1

  0
SOLID
  5
E4
330
E1
100
AcDbEntity
  8
EBENE_1
 62
     0
100
AcDbTrace
 10
-1.5805038061
 20
2.3665509652
 30
0.0
 11
-2.0546549479
 21
-0.7154314566
 31
0.0
 12
-1.1063526643
 22
-0.7154314566
 32
0.0
 13
-1.1063526643
 23
-0.7154314566
 33
0.0
  0
LINE
  5
E5
330
E1
100
AcDbEntity
  8
EBENE_1
 62
     0
100
AcDbLine
 10
-10.3062660664
 20
2.3665509652
 30
0.0
 11
0.0
 21
2.3665509652
 31
0.0
  0
LINE
  5
E6
330
E1
100
AcDbEntity
  8
EBENE_1
 62
     0
100
AcDbLine
 10
-1.5805038061
 20
-7.6334490348
 30
0.0
 11
-1.5805038061
 21
2.3665509652
 31
0.0
  0
MTEXT
  5
E7
330
E1
100
AcDbEntity
  8
EBENE_1
 62
     0
100
AcDbMText
 10
0.0
 20
4.0927900738
 30
0.0
 40
3.175
 41
0.0
 71
     1
 72
     1
  1
100
  7
SLDTEXTSTYLE0
 73
     1
 44
1.0
  0
ENDBLK
  5
E3
330
E1
100
AcDbEntity
  8
0
100
AcDbBlockEnd
  0
BLOCK
  5
EA
330
E9
100
AcDbEntity
  8
0
100
AcDbBlockBegin
  2
SW_BLOCK_DIMENSION_11
 70
     0
 10
0.0
 20
0.0
 30
0.0
  3
SW_BLOCK_DIMENSION_11
  1

  0
SOLID
  5
EC
330
E9
100
AcDbEntity
  8
EBENE_1
 62
     0
100
AcDbTrace
 10
-1.5805038061
 20
2.3665509652
 30
0.0
 11
-2.0546549479
 21
-0.7154314566
 31
0.0
 12
-1.1063526643
 22
-0.7154314566
 32
0.0
 13
-1.1063526643
 23
-0.7154314566
 33
0.0
  0
LINE
  5
ED
330
E9
100
AcDbEntity
  8
EBENE_1
 62
     0
100
AcDbLine
 10
-10.3062660664
 20
2.3665509652
 30
0.0
 11
0.0
 21
2.3665509652
 31
0.0
  0
LINE
  5
EE
330
E9
100
AcDbEntity
  8
EBENE_1
 62
     0
100
AcDbLine
 10
-1.5805038061
 20
-7.6334490348
 30
0.0
 11
-1.5805038061
 21
2.3665509652
 31
0.0
  0
MTEXT
  5
EF
330
E9
100
AcDbEntity
  8
EBENE_1
 62
     0
100
AcDbMText
 10
0.0
 20
4.0927900738
 30
0.0
 40
3.175
 41
0.0
 71
     1
 72
     1
  1
110
  7
SLDTEXTSTYLE0
 73
     1
 44
1.0
  0
ENDBLK
  5
EB
330
E9
100
AcDbEntity
  8
0
100
AcDbBlockEnd
  0
BLOCK
  5
F2
330
F1
100
AcDbEntity
  8
0
100
AcDbBlockBegin
  2
SW_BLOCK_DIMENSION_12
 70
     0
 10
0.0
 20
0.0
 30
0.0
  3
SW_BLOCK_DIMENSION_12
  1

  0
SOLID
  5
F4
330
F1
100
AcDbEntity
  8
EBENE_1
 62
     0
100
AcDbTrace
 10
-1.5805038061
 20
2.3665509652
 30
0.0
 11
-2.0546549479
 21
-0.7154314566
 31
0.0
 12
-1.1063526643
 22
-0.7154314566
 32
0.0
 13
-1.1063526643
 23
-0.7154314566
 33
0.0
  0
LINE
  5
F5
330
F1
100
AcDbEntity
  8
EBENE_1
 62
     0
100
AcDbLine
 10
-10.3062660664
 20
2.3665509652
 30
0.0
 11
0.0
 21
2.3665509652
 31
0.0
  0
LINE
  5
F6
330
F1
100
AcDbEntity
  8
EBENE_1
 62
     0
100
AcDbLine
 10
-1.5805038061
 20
-7.6334490348
 30
0.0
 11
-1.5805038061
 21
2.3665509652
 31
0.0
  0
MTEXT
  5
F7
330
F1
100
AcDbEntity
  8
EBENE_1
 62
     0
100
AcDbMText
 10
0.0
 20
4.0927900738
 30
0.0
 40
3.175
 41
0.0
 71
     1
 72
     1
  1
120
  7
SLDTEXTSTYLE0
 73
     1
 44
1.0
  0
ENDBLK
  5
F3
330
F1
100
AcDbEntity
  8
0
100
AcDbBlockEnd
  0
BLOCK
  5
FA
330
F9
100
AcDbEntity
  8
0
100
AcDbBlockBegin
  2
SW_BLOCK_DIMENSION_13
 70
     0
 10
0.0
 20
0.0
 30
0.0
  3
SW_BLOCK_DIMENSION_13
  1

  0
SOLID
  5
FC
330
F9
100
AcDbEntity
  8
EBENE_1
 62
     0
100
AcDbTrace
 10
-1.5805038061
 20
2.3665509652
 30
0.0
 11
-2.0546549479
 21
-0.7154314566
 31
0.0
 12
-1.1063526643
 22
-0.7154314566
 32
0.0
 13
-1.1063526643
 23
-0.7154314566
 33
0.0
  0
LINE
  5
FD
330
F9
100
AcDbEntity
  8
EBENE_1
 62
     0
100
AcDbLine
 10
-10.3062660664
 20
2.3665509652
 30
0.0
 11
0.0
 21
2.3665509652
 31
0.0
  0
LINE
  5
FE
330
F9
100
AcDbEntity
  8
EBENE_1
 62
     0
100
AcDbLine
 10
-1.5805038061
 20
-7.6334490348
 30
0.0
 11
-1.5805038061
 21
2.3665509652
 31
0.0
  0
MTEXT
  5
FF
330
F9
100
AcDbEntity
  8
EBENE_1
 62
     0
100
AcDbMText
 10
0.0
 20
4.0927900738
 30
0.0
 40
3.175
 41
0.0
 71
     1
 72
     1
  1
130
  7
SLDTEXTSTYLE0
 73
     1
 44
1.0
  0
ENDBLK
  5
FB
330
F9
100
AcDbEntity
  8
0
100
AcDbBlockEnd
  0
BLOCK
  5
102
330
101
100
AcDbEntity
  8
0
100
AcDbBlockBegin
  2
SW_BLOCK_DIMENSION_14
 70
     0
 10
0.0
 20
0.0
 30
0.0
  3
SW_BLOCK_DIMENSION_14
  1

  0
INSERT
  5
104
330
101
100
AcDbEntity
  8
EBENE_1
 62
     0
100
AcDbBlockReference
  2
_ORIGIN
 10
16.3971707594
 20
5.1887726877
 30
0.0
 41
0.9483022837
 42
0.9483022837
 50
0.0
  0
LINE
  5
105
330
101
100
AcDbEntity
  8
EBENE_1
 62
     0
100
AcDbLine
 10
3.2925925916
 20
9.671990294
 30
0.0
 11
2.2342592711
 21
9.671990294
 31
0.0
  0
LINE
  5
106
330
101
100
AcDbEntity
  8
EBENE_1
 62
     0
100
AcDbLine
 10
2.2342592711
 20
9.671990294
 30
0.0
 11
2.2342592711
 21
4.9388883635
 31
0.0
  0
LINE
  5
107
330
101
100
AcDbEntity
  8
EBENE_1
 62
     0
100
AcDbLine
 10
2.2342592711
 20
4.9388883635
 30
0.0
 11
3.2925925916
 21
4.9388883635
 31
0.0
  0
LINE
  5
108
330
101
100
AcDbEntity
  8
EBENE_1
 62
     0
100
AcDbLine
 10
11.5240741288
 20
9.671990294
 30
0.0
 11
12.5824074494
 21
9.671990294
 31
0.0
  0
LINE
  5
109
330
101
100
AcDbEntity
  8
EBENE_1
 62
     0
100
AcDbLine
 10
12.5824074494
 20
9.671990294
 30
0.0
 11
12.5824074494
 21
4.9388883635
 31
0.0
  0
LINE
  5
10A
330
101
100
AcDbEntity
  8
EBENE_1
 62
     0
100
AcDbLine
 10
12.5824074494
 20
4.9388883635
 30
0.0
 11
11.5240741288
 21
4.9388883635
 31
0.0
  0
LINE
  5
10B
330
101
100
AcDbEntity
  8
EBENE_1
 62
     0
100
AcDbLine
 10
24.38463321
 20
5.1887726877
 30
0.0
 11
14.8166669533
 21
5.1887726877
 31
0.0
  0
MTEXT
  5
10C
330
101
100
AcDbEntity
  8
EBENE_1
 62
     0
100
AcDbMText
 10
1.190625
 20
4.0927900738
 30
0.0
 40
3.175
 41
0.0
 71
     1
 72
     1
  1

  7
SLDTEXTSTYLE0
 73
     1
 44
1.0
  0
MTEXT
  5
10D
330
101
100
AcDbEntity
  8
EBENE_1
 62
     0
100
AcDbMText
 10
3.2925925916
 20
9.0316784373
 30
0.0
 40
3.175
 41
0.0
 71
     1
 72
     1
  1
0,00
  7
SLDTEXTSTYLE0
 73
     1
 44
1.0
  0
MTEXT
  5
10E
330
101
100
AcDbEntity
  8
EBENE_1
 62
     0
100
AcDbMText
 10
6.2324074097
 20
4.0927898409
 30
0.0
 40
3.175
 41
0.0
 71
     1
 72
     1
  1
0
  7
SLDTEXTSTYLE0
 73
     1
 44
1.0
  0
MTEXT
  5
10F
330
101
100
AcDbEntity
  8
EBENE_1
 62
     0
100
AcDbMText
 10
14.8313658863
 20
4.0927900738
 30
0.0
 40
3.175
 41
0.0
 71
     1
 72
     1
  1

  7
SLDTEXTSTYLE0
 73
     1
 44
1.0
  0
ENDBLK
  5
103
330
101
100
AcDbEntity
  8
0
100
AcDbBlockEnd
  0
BLOCK
  5
112
330
111
100
AcDbEntity
  8
0
100
AcDbBlockBegin
  2
SW_BLOCK_DIMENSION_15
 70
     0
 10
0.0
 20
0.0
 30
0.0
  3
SW_BLOCK_DIMENSION_15
  1

  0
SOLID
  5
114
330
111
100
AcDbEntity
  8
EBENE_1
 62
     0
100
AcDbTrace
 10
16.3971707594
 20
5.1887726877
 30
0.0
 11
15.9230196175
 21
2.1067902658
 31
0.0
 12
16.8713219012
 22
2.1067902658
 32
0.0
 13
16.8713219012
 23
2.1067902658
 33
0.0
  0
LINE
  5
115
330
111
100
AcDbEntity
  8
EBENE_1
 62
     0
100
AcDbLine
 10
3.2925925916
 20
9.671990294
 30
0.0
 11
2.2342592711
 21
9.671990294
 31
0.0
  0
LINE
  5
116
330
111
100
AcDbEntity
  8
EBENE_1
 62
     0
100
AcDbLine
 10
2.2342592711
 20
9.671990294
 30
0.0
 11
2.2342592711
 21
4.9388883635
 31
0.0
  0
LINE
  5
117
330
111
100
AcDbEntity
  8
EBENE_1
 62
     0
100
AcDbLine
 10
2.2342592711
 20
4.9388883635
 30
0.0
 11
3.2925925916
 21
4.9388883635
 31
0.0
  0
LINE
  5
118
330
111
100
AcDbEntity
  8
EBENE_1
 62
     0
100
AcDbLine
 10
11.5240741288
 20
9.671990294
 30
0.0
 11
12.5824074494
 21
9.671990294
 31
0.0
  0
LINE
  5
119
330
111
100
AcDbEntity
  8
EBENE_1
 62
     0
100
AcDbLine
 10
12.5824074494
 20
9.671990294
 30
0.0
 11
12.5824074494
 21
4.9388883635
 31
0.0
  0
LINE
  5
11A
330
111
100
AcDbEntity
  8
EBENE_1
 62
     0
100
AcDbLine
 10
12.5824074494
 20
4.9388883635
 30
0.0
 11
11.5240741288
 21
4.9388883635
 31
0.0
  0
LINE
  5
11B
330
111
100
AcDbEntity
  8
EBENE_1
 62
     0
100
AcDbLine
 10
23.60463321
 20
5.1887726877
 30
0.0
 11
14.8166669533
 21
5.1887726877
 31
0.0
  0
LINE
  5
11C
330
111
100
AcDbEntity
  8
EBENE_1
 62
     0
100
AcDbLine
 10
16.3971707594
 20
-20.2112273123
 30
0.0
 11
16.3971707594
 21
5.1887726877
 31
0.0
  0
MTEXT
  5
11D
330
111
100
AcDbEntity
  8
EBENE_1
 62
     0
100
AcDbMText
 10
1.190625
 20
4.0927900738
 30
0.0
 40
3.175
 41
0.0
 71
     1
 72
     1
  1

  7
SLDTEXTSTYLE0
 73
     1
 44
1.0
  0
MTEXT
  5
11E
330
111
100
AcDbEntity
  8
EBENE_1
 62
     0
100
AcDbMText
 10
3.2925925916
 20
9.0316784373
 30
0.0
 40
3.175
 41
0.0
 71
     1
 72
     1
  1
1,00
  7
SLDTEXTSTYLE0
 73
     1
 44
1.0
  0
MTEXT
  5
11F
330
111
100
AcDbEntity
  8
EBENE_1
 62
     0
100
AcDbMText
 10
2.1166665247
 20
4.0927898409
 30
0.0
 40
3.175
 41
0.0
 71
     1
 72
     1
  1
25,40
  7
SLDTEXTSTYLE0
 73
     1
 44
1.0
  0
MTEXT
  5
120
330
111
100
AcDbEntity
  8
EBENE_1
 62
     0
100
AcDbMText
 10
14.8313658863
 20
4.0927900738
 30
0.0
 40
3.175
 41
0.0
 71
     1
 72
     1
  1

  7
SLDTEXTSTYLE0
 73
     1
 44
1.0
  0
ENDBLK
  5
113
330
111
100
AcDbEntity
  8
0
100
AcDbBlockEnd
  0
BLOCK
  5
123
330
122
100
AcDbEntity
  8
0
100
AcDbBlockBegin
  2
SW_BLOCK_DIMENSION_16
 70
     0
 10
0.0
 20
0.0
 30
0.0
  3
SW_BLOCK_DIMENSION_16
  1

  0
SOLID
  5
125
330
122
100
AcDbEntity
  8
EBENE_1
 62
     0
100
AcDbTrace
 10
16.3971707594
 20
5.1887726877
 30
0.0
 11
15.9230196175
 21
2.1067902658
 31
0.0
 12
16.8713219012
 22
2.1067902658
 32
0.0
 13
16.8713219012
 23
2.1067902658
 33
0.0
  0
LINE
  5
126
330
122
100
AcDbEntity
  8
EBENE_1
 62
     0
100
AcDbLine
 10
3.2925925916
 20
9.671990294
 30
0.0
 11
2.2342592711
 21
9.671990294
 31
0.0
  0
LINE
  5
127
330
122
100
AcDbEntity
  8
EBENE_1
 62
     0
100
AcDbLine
 10
2.2342592711
 20
9.671990294
 30
0.0
 11
2.2342592711
 21
4.9388883635
 31
0.0
  0
LINE
  5
128
330
122
100
AcDbEntity
  8
EBENE_1
 62
     0
100
AcDbLine
 10
2.2342592711
 20
4.9388883635
 30
0.0
 11
3.2925925916
 21
4.9388883635
 31
0.0
  0
LINE
  5
129
330
122
100
AcDbEntity
  8
EBENE_1
 62
     0
100
AcDbLine
 10
11.5240741288
 20
9.671990294
 30
0.0
 11
12.5824074494
 21
9.671990294
 31
0.0
  0
LINE
  5
12A
330
122
100
AcDbEntity
  8
EBENE_1
 62
     0
100
AcDbLine
 10
12.5824074494
 20
9.671990294
 30
0.0
 11
12.5824074494
 21
4.9388883635
 31
0.0
  0
LINE
  5
12B
330
122
100
AcDbEntity
  8
EBENE_1
 62
     0
100
AcDbLine
 10
12.5824074494
 20
4.9388883635
 30
0.0
 11
11.5240741288
 21
4.9388883635
 31
0.0
  0
LINE
  5
12C
330
122
100
AcDbEntity
  8
EBENE_1
 62
     0
100
AcDbLine
 10
23.60463321
 20
5.1887726877
 30
0.0
 11
14.8166669533
 21
5.1887726877
 31
0.0
  0
LINE
  5
12D
330
122
100
AcDbEntity
  8
EBENE_1
 62
     0
100
AcDbLine
 10
16.3971707594
 20
-20.2112273123
 30
0.0
 11
16.3971707594
 21
5.1887726877
 31
0.0
  0
MTEXT
  5
12E
330
122
100
AcDbEntity
  8
EBENE_1
 62
     0
100
AcDbMText
 10
1.190625
 20
4.0927900738
 30
0.0
 40
3.175
 41
0.0
 71
     1
 72
     1
  1

  7
SLDTEXTSTYLE0
 73
     1
 44
1.0
  0
MTEXT
  5
12F
330
122
100
AcDbEntity
  8
EBENE_1
 62
     0
100
AcDbMText
 10
3.2925925916
 20
9.0316784373
 30
0.0
 40
3.175
 41
0.0
 71
     1
 72
     1
  1
2,00
  7
SLDTEXTSTYLE0
 73
     1
 44
1.0
  0
MTEXT
  5
130
330
122
100
AcDbEntity
  8
EBENE_1
 62
     0
100
AcDbMText
 10
2.1166665247
 20
4.0927898409
 30
0.0
 40
3.175
 41
0.0
 71
     1
 72
     1
  1
50,80
  7
SLDTEXTSTYLE0
 73
     1
 44
1.0
  0
MTEXT
  5
131
330
122
100
AcDbEntity
  8
EBENE_1
 62
     0
100
AcDbMText
 10
14.8313658863
 20
4.0927900738
 30
0.0
 40
3.175
 41
0.0
 71
     1
 72
     1
  1

  7
SLDTEXTSTYLE0
 73
     1
 44
1.0
  0
ENDBLK
  5
124
330
122
100
AcDbEntity
  8
0
100
AcDbBlockEnd
  0
BLOCK
  5
134
330
133
100
AcDbEntity
  8
0
100
AcDbBlockBegin
  2
SW_BLOCK_DIMENSION_17
 70
     0
 10
0.0
 20
0.0
 30
0.0
  3
SW_BLOCK_DIMENSION_17
  1

  0
SOLID
  5
136
330
133
100
AcDbEntity
  8
EBENE_1
 62
     0
100
AcDbTrace
 10
16.3971707594
 20
5.1887726877
 30
0.0
 11
15.9230196175
 21
2.1067902658
 31
0.0
 12
16.8713219012
 22
2.1067902658
 32
0.0
 13
16.8713219012
 23
2.1067902658
 33
0.0
  0
LINE
  5
137
330
133
100
AcDbEntity
  8
EBENE_1
 62
     0
100
AcDbLine
 10
3.2925925916
 20
9.671990294
 30
0.0
 11
2.2342592711
 21
9.671990294
 31
0.0
  0
LINE
  5
138
330
133
100
AcDbEntity
  8
EBENE_1
 62
     0
100
AcDbLine
 10
2.2342592711
 20
9.671990294
 30
0.0
 11
2.2342592711
 21
4.9388883635
 31
0.0
  0
LINE
  5
139
330
133
100
AcDbEntity
  8
EBENE_1
 62
     0
100
AcDbLine
 10
2.2342592711
 20
4.9388883635
 30
0.0
 11
3.2925925916
 21
4.9388883635
 31
0.0
  0
LINE
  5
13A
330
133
100
AcDbEntity
  8
EBENE_1
 62
     0
100
AcDbLine
 10
11.5240741288
 20
9.671990294
 30
0.0
 11
12.5824074494
 21
9.671990294
 31
0.0
  0
LINE
  5
13B
330
133
100
AcDbEntity
  8
EBENE_1
 62
     0
100
AcDbLine
 10
12.5824074494
 20
9.671990294
 30
0.0
 11
12.5824074494
 21
4.9388883635
 31
0.0
  0
LINE
  5
13C
330
133
100
AcDbEntity
  8
EBENE_1
 62
     0
100
AcDbLine
 10
12.5824074494
 20
4.9388883635
 30
0.0
 11
11.5240741288
 21
4.9388883635
 31
0.0
  0
LINE
  5
13D
330
133
100
AcDbEntity
  8
EBENE_1
 62
     0
100
AcDbLine
 10
23.60463321
 20
5.1887726877
 30
0.0
 11
14.8166669533
 21
5.1887726877
 31
0.0
  0
LINE
  5
13E
330
133
100
AcDbEntity
  8
EBENE_1
 62
     0
100
AcDbLine
 10
16.3971707594
 20
-20.2112273123
 30
0.0
 11
16.3971707594
 21
5.1887726877
 31
0.0
  0
MTEXT
  5
13F
330
133
100
AcDbEntity
  8
EBENE_1
 62
     0
100
AcDbMText
 10
1.190625
 20
4.0927900738
 30
0.0
 40
3.175
 41
0.0
 71
     1
 72
     1
  1

  7
SLDTEXTSTYLE0
 73
     1
 44
1.0
  0
MTEXT
  5
140
330
133
100
AcDbEntity
  8
EBENE_1
 62
     0
100
AcDbMText
 10
3.2925925916
 20
9.0316784373
 30
0.0
 40
3.175
 41
0.0
 71
     1
 72
     1
  1
3,00
  7
SLDTEXTSTYLE0
 73
     1
 44
1.0
  0
MTEXT
  5
141
330
133
100
AcDbEntity
  8
EBENE_1
 62
     0
100
AcDbMText
 10
2.1166665247
 20
4.0927898409
 30
0.0
 40
3.175
 41
0.0
 71
     1
 72
     1
  1
76,20
  7
SLDTEXTSTYLE0
 73
     1
 44
1.0
  0
MTEXT
  5
142
330
133
100
AcDbEntity
  8
EBENE_1
 62
     0
100
AcDbMText
 10
14.8313658863
 20
4.0927900738
 30
0.0
 40
3.175
 41
0.0
 71
     1
 72
     1
  1

  7
SLDTEXTSTYLE0
 73
     1
 44
1.0
  0
ENDBLK
  5
135
330
133
100
AcDbEntity
  8
0
100
AcDbBlockEnd
  0
BLOCK
  5
145
330
144
100
AcDbEntity
  8
0
100
AcDbBlockBegin
  2
SW_BLOCK_DIMENSION_18
 70
     0
 10
0.0
 20
0.0
 30
0.0
  3
SW_BLOCK_DIMENSION_18
  1

  0
SOLID
  5
147
330
144
100
AcDbEntity
  8
EBENE_1
 62
     0
100
AcDbTrace
 10
16.8675417449
 20
5.1887726877
 30
0.0
 11
16.3933906031
 21
2.1067902658
 31
0.0
 12
17.3416928867
 22
2.1067902658
 32
0.0
 13
17.3416928867
 23
2.1067902658
 33
0.0
  0
LINE
  5
148
330
144
100
AcDbEntity
  8
EBENE_1
 62
     0
100
AcDbLine
 10
3.5277780844
 20
9.671990294
 30
0.0
 11
2.4694447638
 21
9.671990294
 31
0.0
  0
LINE
  5
149
330
144
100
AcDbEntity
  8
EBENE_1
 62
     0
100
AcDbLine
 10
2.4694447638
 20
9.671990294
 30
0.0
 11
2.4694447638
 21
4.9388883635
 31
0.0
  0
LINE
  5
14A
330
144
100
AcDbEntity
  8
EBENE_1
 62
     0
100
AcDbLine
 10
2.4694447638
 20
4.9388883635
 30
0.0
 11
3.5277780844
 21
4.9388883635
 31
0.0
  0
LINE
  5
14B
330
144
100
AcDbEntity
  8
EBENE_1
 62
     0
100
AcDbLine
 10
11.7592596216
 20
9.671990294
 30
0.0
 11
12.8175929422
 21
9.671990294
 31
0.0
  0
LINE
  5
14C
330
144
100
AcDbEntity
  8
EBENE_1
 62
     0
100
AcDbLine
 10
12.8175929422
 20
9.671990294
 30
0.0
 11
12.8175929422
 21
4.9388883635
 31
0.0
  0
LINE
  5
14D
330
144
100
AcDbEntity
  8
EBENE_1
 62
     0
100
AcDbLine
 10
12.8175929422
 20
4.9388883635
 30
0.0
 11
11.7592596216
 21
4.9388883635
 31
0.0
  0
LINE
  5
14E
330
144
100
AcDbEntity
  8
EBENE_1
 62
     0
100
AcDbLine
 10
24.0750041956
 20
5.1887726877
 30
0.0
 11
15.2870379388
 21
5.1887726877
 31
0.0
  0
LINE
  5
14F
330
144
100
AcDbEntity
  8
EBENE_1
 62
     0
100
AcDbLine
 10
16.8675417449
 20
-20.2112273123
 30
0.0
 11
16.8675417449
 21
5.1887726877
 31
0.0
  0
MTEXT
  5
150
330
144
100
AcDbEntity
  8
EBENE_1
 62
     0
100
AcDbMText
 10
1.190625
 20
4.0927900738
 30
0.0
 40
3.175
 41
0.0
 71
     1
 72
     1
  1

  7
SLDTEXTSTYLE0
 73
     1
 44
1.0
  0
MTEXT
  5
151
330
144
100
AcDbEntity
  8
EBENE_1
 62
     0
100
AcDbMText
 10
3.5277780844
 20
9.0316784373
 30
0.0
 40
3.175
 41
0.0
 71
     1
 72
     1
  1
4,00
  7
SLDTEXTSTYLE0
 73
     1
 44
1.0
  0
MTEXT
  5
152
330
144
100
AcDbEntity
  8
EBENE_1
 62
     0
100
AcDbMText
 10
1.1759259505
 20
4.0927898409
 30
0.0
 40
3.175
 41
0.0
 71
     1
 72
     1
  1
101,60
  7
SLDTEXTSTYLE0
 73
     1
 44
1.0
  0
MTEXT
  5
153
330
144
100
AcDbEntity
  8
EBENE_1
 62
     0
100
AcDbMText
 10
15.3017368719
 20
4.0927900738
 30
0.0
 40
3.175
 41
0.0
 71
     1
 72
     1
  1

  7
SLDTEXTSTYLE0
 73
     1
 44
1.0
  0
ENDBLK
  5
146
330
144
100
AcDbEntity
  8
0
100
AcDbBlockEnd
  0
BLOCK
  5
156
330
155
100
AcDbEntity
  8
0
100
AcDbBlockBegin
  2
SW_BLOCK_DIMENSION_19
 70
     0
 10
0.0
 20
0.0
 30
0.0
  3
SW_BLOCK_DIMENSION_19
  1

  0
SOLID
  5
158
330
155
100
AcDbEntity
  8
EBENE_1
 62
     0
100
AcDbTrace
 10
16.3971707594
 20
5.1887726877
 30
0.0
 11
15.9230196175
 21
2.1067902658
 31
0.0
 12
16.8713219012
 22
2.1067902658
 32
0.0
 13
16.8713219012
 23
2.1067902658
 33
0.0
  0
LINE
  5
159
330
155
100
AcDbEntity
  8
EBENE_1
 62
     0
100
AcDbLine
 10
3.2925925916
 20
9.671990294
 30
0.0
 11
2.2342592711
 21
9.671990294
 31
0.0
  0
LINE
  5
15A
330
155
100
AcDbEntity
  8
EBENE_1
 62
     0
100
AcDbLine
 10
2.2342592711
 20
9.671990294
 30
0.0
 11
2.2342592711
 21
4.9388883635
 31
0.0
  0
LINE
  5
15B
330
155
100
AcDbEntity
  8
EBENE_1
 62
     0
100
AcDbLine
 10
2.2342592711
 20
4.9388883635
 30
0.0
 11
3.2925925916
 21
4.9388883635
 31
0.0
  0
LINE
  5
15C
330
155
100
AcDbEntity
  8
EBENE_1
 62
     0
100
AcDbLine
 10
11.5240741288
 20
9.671990294
 30
0.0
 11
12.5824074494
 21
9.671990294
 31
0.0
  0
LINE
  5
15D
330
155
100
AcDbEntity
  8
EBENE_1
 62
     0
100
AcDbLine
 10
12.5824074494
 20
9.671990294
 30
0.0
 11
12.5824074494
 21
4.9388883635
 31
0.0
  0
LINE
  5
15E
330
155
100
AcDbEntity
  8
EBENE_1
 62
     0
100
AcDbLine
 10
12.5824074494
 20
4.9388883635
 30
0.0
 11
11.5240741288
 21
4.9388883635
 31
0.0
  0
LINE
  5
15F
330
155
100
AcDbEntity
  8
EBENE_1
 62
     0
100
AcDbLine
 10
23.60463321
 20
5.1887726877
 30
0.0
 11
14.8166669533
 21
5.1887726877
 31
0.0
  0
LINE
  5
160
330
155
100
AcDbEntity
  8
EBENE_1
 62
     0
100
AcDbLine
 10
16.3971707594
 20
-20.2112273123
 30
0.0
 11
16.3971707594
 21
5.1887726877
 31
0.0
  0
MTEXT
  5
161
330
155
100
AcDbEntity
  8
EBENE_1
 62
     0
100
AcDbMText
 10
1.190625
 20
4.0927900738
 30
0.0
 40
3.175
 41
0.0
 71
     1
 72
     1
  1

  7
SLDTEXTSTYLE0
 73
     1
 44
1.0
  0
MTEXT
  5
162
330
155
100
AcDbEntity
  8
EBENE_1
 62
     0
100
AcDbMText
 10
3.2925925916
 20
9.0316784373
 30
0.0
 40
3.175
 41
0.0
 71
     1
 72
     1
  1
5,00
  7
SLDTEXTSTYLE0
 73
     1
 44
1.0
  0
MTEXT
  5
163
330
155
100
AcDbEntity
  8
EBENE_1
 62
     0
100
AcDbMText
 10
3.8805556251
 20
4.0927898409
 30
0.0
 40
3.175
 41
0.0
 71
     1
 72
     1
  1
127
  7
SLDTEXTSTYLE0
 73
     1
 44
1.0
  0
MTEXT
  5
164
330
155
100
AcDbEntity
  8
EBENE_1
 62
     0
100
AcDbMText
 10
14.8313658863
 20
4.0927900738
 30
0.0
 40
3.175
 41
0.0
 71
     1
 72
     1
  1

  7
SLDTEXTSTYLE0
 73
     1
 44
1.0
  0
ENDBLK
  5
157
330
155
100
AcDbEntity
  8
0
100
AcDbBlockEnd
  0
BLOCK
  5
167
330
166
100
AcDbEntity
  8
0
100
AcDbBlockBegin
  2
SW_NOTE_0
 70
     0
 10
0.0
 20
0.0
 30
0.0
  3
SW_NOTE_0
  1

  0
MTEXT
  5
169
330
166
100
AcDbEntity
  8
EBENE_1
 62
     0
100
AcDbMText
 10
6.7138020833
 20
4.7749217527
 30
0.0
 40
3.7041666667
 41
0.0
 71
     2
 72
     1
  1
(Inch)
  7
SLDTEXTSTYLE0
 73
     1
 44
1.0
  0
MTEXT
  5
16A
330
166
100
AcDbEntity
  8
EBENE_1
 62
     0
100
AcDbMText
 10
6.7309508326
 20
-1.1639672404
 30
0.0
 40
3.7041666667
 41
0.0
 71
     2
 72
     1
  1
mm
  7
SLDTEXTSTYLE0
 73
     1
 44
1.0
  0
ENDBLK
  5
168
330
166
100
AcDbEntity
  8
0
100
AcDbBlockEnd
  0
BLOCK
  5
172
330
171
100
AcDbEntity
  8
0
100
AcDbBlockBegin
  2
SW_NOTE_1
 70
     0
 10
0.0
 20
0.0
 30
0.0
  3
SW_NOTE_1
  1

  0
MTEXT
  5
174
330
171
100
AcDbEntity
  8
0
  6
Continuous
 62
     0
370
     0
100
AcDbMText
 10
19.893359375
 20
4.0927900738
 30
0.0
 40
3.175
 41
0.0
 71
     2
 72
     1
  1
ABP-Beyerle GmbH
  7
SLDTEXTSTYLE0
 73
     1
 44
1.0
  0
MTEXT
  5
175
330
171
100
AcDbEntity
  8
0
  6
Continuous
 62
     0
370
     0
100
AcDbMText
 10
20.6558884293
 20
-0.1405432084
 30
0.0
 40
3.175
 41
0.0
 71
     2
 72
     1
  1
Im Schollengarten 24b, 76646 Bruchsal
  7
SLDTEXTSTYLE0
 73
     1
 44
1.0
  0
MTEXT
  5
176
330
171
100
AcDbEntity
  8
0
  6
Continuous
 62
     0
370
     0
100
AcDbMText
 10
20.7863491923
 20
-4.3738764906
 30
0.0
 40
3.175
 41
0.0
 71
     2
 72
     1
  1
Tel. +49 (0)7251-9127-0, Fax. +49 (0)7251-9127-29
  7
SLDTEXTSTYLE0
 73
     1
 44
1.0
  0
MTEXT
  5
177
330
171
100
AcDbEntity
  8
0
  6
Continuous
 62
     0
370
     0
100
AcDbMText
 10
20.8392552227
 20
-8.6072097727
 30
0.0
 40
3.175
 41
0.0
 71
     2
 72
     1
  1
info@abp-beyerle.de, www.abp-beyerle.de
  7
SLDTEXTSTYLE0
 73
     1
 44
1.0
  0
ENDBLK
  5
173
330
171
100
AcDbEntity
  8
0
100
AcDbBlockEnd
  0
ENDSEC
  0
SECTION
  2
ENTITIES
  0
INSERT
  5
16D
330
1F
100
AcDbEntity
  8
EBENE_1
100
AcDbBlockReference
  2
Block1
 10
19.561342692
 20
-6.9223244521
 30
0.0
  0
MTEXT
  5
16F
330
1F
100
AcDbEntity
  8
0
  6
Continuous
 62
     7
370
     0
100
AcDbMText
 10
402.5
 20
14.7189135832
 30
0.0
 40
6.35
 41
0.0
 71
     1
 72
     1
  1
1:1
  7
SLDTEXTSTYLE1
 73
     1
 44
1.0
  0
MTEXT
  5
170
330
1F
100
AcDbEntity
  8
0
  6
Continuous
 62
     7
370
     0
100
AcDbMText
 10
168.4090458961
 20
14.7189131175
 30
0.0
 40
6.35
 41
0.0
 71
     1
 72
     1
  1
USU47-2100DB
  7
SLDTEXTSTYLE1
 73
     1
 44
1.0
  0
INSERT
  5
178
330
1F
100
AcDbEntity
  8
0
  6
Continuous
 62
     7
370
     0
100
AcDbBlockReference
  2
SW_NOTE_1
 10
35.4202146835
 20
20.1681939512
 30
0.0
  0
LINE
  5
179
330
1F
100
AcDbEntity
  8
0
  6
Continuous
 62
     7
370
    15
100
AcDbLine
 10
1483.4402919076
 20
2171.9699557953
 30
0.0
 11
1433.052790191
 21
2171.9699557953
 31
0.0
  0
LINE
  5
17A
330
1F
100
AcDbEntity
  8
0
  6
Continuous
 62
     7
370
    15
100
AcDbLine
 10
1401.8278241418
 20
2171.9699557953
 30
0.0
 11
225.2135396264
 21
2171.9699557953
 31
0.0
  0
LINE
  5
17B
330
1F
100
AcDbEntity
  8
0
  6
Continuous
 62
     7
370
    15
100
AcDbLine
 10
195.213508632
 20
2171.9699557953
 30
0.0
 11
-474.7864791863
 21
2171.9699557953
 31
0.0
  0
LINE
  5
17C
330
1F
100
AcDbEntity
  8
0
  6
Continuous
 62
     7
370
    15
100
AcDbLine
 10
-504.786479447
 20
2171.9699557953
 30
0.0
 11
-526.9472405054
 21
2171.9699557953
 31
0.0
  0
LINE
  5
17D
330
1F
100
AcDbEntity
  8
0
  6
Continuous
 62
     7
370
    15
100
AcDbLine
 10
-558.1722289063
 20
2171.9699557953
 30
0.0
 11
-616.5597319342
 21
2171.9699557953
 31
0.0
  0
LINE
  5
17E
330
1F
100
AcDbEntity
  8
0
  6
Continuous
 62
     7
370
    15
100
AcDbLine
 10
-616.5597319342
 20
2146.9699554227
 30
0.0
 11
-558.1722289063
 21
2146.9699554227
 31
0.0
  0
LINE
  5
17F
330
1F
100
AcDbEntity
  8
0
  6
Continuous
 62
     7
370
    15
100
AcDbLine
 10
-526.9472405054
 20
2146.9699554227
 30
0.0
 11
-504.786479447
 21
2146.9699554227
 31
0.0
  0
LINE
  5
180
330
1F
100
AcDbEntity
  8
0
  6
Continuous
 62
     7
370
    15
100
AcDbLine
 10
-474.7864791863
 20
2146.9699554227
 30
0.0
 11
195.213508632
 21
2146.9699554227
 31
0.0
  0
LINE
  5
181
330
1F
100
AcDbEntity
  8
0
  6
Continuous
 62
     7
370
    15
100
AcDbLine
 10
225.2135396264
 20
2146.9699554227
 30
0.0
 11
1401.8278241418
 21
2146.9699554227
 31
0.0
  0
LINE
  5
182
330
1F
100
AcDbEntity
  8
0
  6
Continuous
 62
     7
370
    15
100
AcDbLine
 10
1433.052790191
 20
2146.9699554227
 30
0.0
 11
1483.4402919076
 21
2146.9699554227
 31
0.0
  0
ARC
  5
183
330
1F
100
AcDbEntity
  8
0
  6
Continuous
 62
     7
370
    15
100
AcDbCircle
 10
291.4143091921
 20
66.969955609
 30
0.0
 40
1.500000000000057
100
AcDbArc
 50
181.0
 51
270.0
  0
ARC
  5
184
330
1F
100
AcDbEntity
  8
0
  6
Continuous
 62
     7
370
    15
100
AcDbCircle
 10
260.4662174027
 20
66.969955609
 30
0.0
 40
1.500000000000057
100
AcDbArc
 50
270.0
 51
359.0
  0
LINE
  5
185
330
1F
100
AcDbEntity
  8
0
  6
Continuous
 62
     7
370
    15
100
AcDbLine
 10
289.9145603441
 20
66.9437581755
 30
0.0
 11
289.8704529069
 21
69.4700414397
 31
0.0
  0
LINE
  5
186
330
1F
100
AcDbEntity
  8
0
  6
Continuous
 62
     7
370
    15
100
AcDbLine
 10
262.0101094507
 20
69.4700414397
 30
0.0
 11
261.9660020135
 21
66.9437581755
 31
0.0
  0
LINE
  5
187
330
1F
100
AcDbEntity
  8
0
  6
Continuous
 62
     7
370
    15
100
AcDbLine
 10
-616.5597319342
 20
2159.469955609
 30
0.0
 11
-616.5597319342
 21
2171.9699557953
 31
0.0
  0
LINE
  5
188
330
1F
100
AcDbEntity
  8
0
  6
Continuous
 62
     7
370
    15
100
AcDbLine
 10
-616.5597319342
 20
2146.9699554227
 30
0.0
 11
-616.5597319342
 21
2159.469955609
 31
0.0
  0
SPLINE
  5
189
330
1F
100
AcDbEntity
  8
0
  6
Continuous
 62
     7
370
    15
100
AcDbSpline
210
0.0
220
0.0
230
1.0
 70
    11
 71
     3
 72
    28
 73
    24
 74
     0
 42
0.000000001
 43
0.00000001
 40
0.0
 40
0.0
 40
0.0
 40
0.0
 40
0.0475553488591531
 40
0.0949656620366262
 40
0.1460696750894267
 40
0.2034579990806962
 40
0.2467844369035548
 40
0.2901855362763174
 40
0.3330343784471017
 40
0.3834830280389037
 40
0.441092589399645
 40
0.4950488599171693
 40
0.5415909544449479
 40
0.5869405056711835
 40
0.6370239441451662
 40
0.6937078255810637
 40
0.7381345917872548
 40
0.7826957759786995
 40
0.8249698297618872
 40
0.8737311429806351
 40
0.930692482447623
 40
0.9860187903644466
 40
1.0
 40
1.0
 40
1.0
 40
1.0
 10
1360.990297820414
 20
2159.469955608988
 30
0.0
 10
1360.920280473269
 20
2158.697163955863
 30
0.0
 10
1360.780459319912
 20
2157.153937532002
 30
0.0
 10
1359.707727119068
 20
2155.068143071645
 30
0.0
 10
1358.053224010154
 20
2153.31692498555
 30
0.0
 10
1355.925179411123
 20
2152.203357452292
 30
0.0
 10
1353.599724945108
 20
2151.82085860612
 30
0.0
 10
1351.484981317691
 20
2152.078742941399
 30
0.0
 10
1349.489772372999
 20
2152.914542803404
 30
0.0
 10
1347.673768818388
 20
2154.385862603716
 30
0.0
 10
1346.303246778718
 20
2156.555493027096
 30
0.0
 10
1345.762922043089
 20
2159.105232777419
 30
0.0
 10
1346.051958201031
 20
2161.48917148263
 30
0.0
 10
1346.967322980295
 20
2163.566827571647
 30
0.0
 10
1348.507880678845
 20
2165.361591938596
 30
0.0
 10
1350.5422428759
 20
2166.58030152273
 30
0.0
 10
1352.851035109883
 20
2167.103071526866
 30
0.0
 10
1355.014658603183
 20
2166.954282570367
 30
0.0
 10
1357.04477176083
 20
2166.217207618834
 30
0.0
 10
1358.903940948297
 20
2164.869521994237
 30
0.0
 10
1360.37966214407
 20
2162.817881715253
 30
0.0
 10
1360.952572264814
 20
2160.817144782063
 30
0.0
 10
1360.983965043827
 20
2159.696100669471
 30
0.0
 10
1360.990297820414
 20
2159.469955608988
 30
0.0
  0
SPLINE
  5
18A
330
1F
100
AcDbEntity
  8
0
  6
Continuous
 62
     7
370
    15
100
AcDbSpline
210
0.0
220
0.0
230
1.0
 70
     8
 71
     3
 72
    21
 73
    17
 74
     0
 42
0.000000001
 43
0.00000001
 40
0.0
 40
0.0
 40
0.0
 40
0.0
 40
0.0339776218639481
 40
0.1041878061507115
 40
0.174517023565322
 40
0.2439495540287846
 40
0.3257004281411051
 40
0.4190527046625004
 40
0.506486026282228
 40
0.5819045944361327
 40
0.6553919511768257
 40
0.7365507815756995
 40
0.8284040543965048
 40
0.9003933912289581
 40
0.9726024655737298
 40
1.0
 40
1.0
 40
1.0
 40
1.0
 10
129.5281172059427
 20
2152.701992549742
 30
0.0
 10
129.2456188793213
 20
2152.538785325281
 30
0.0
 10
128.3793757676113
 20
2152.038332329115
 30
0.0
 10
126.5853857769726
 20
2151.844332615608
 30
0.0
 10
124.4887681363311
 20
2152.07256057127
 30
0.0
 10
122.4886205796675
 20
2152.916540832498
 30
0.0
 10
120.6741633960714
 20
2154.385172584304
 30
0.0
 10
119.3031964698572
 20
2156.555678803417
 30
0.0
 10
118.7630751124681
 20
2159.105214344359
 30
0.0
 10
119.0517908348036
 20
2161.48909535544
 30
0.0
 10
119.9675440818845
 20
2163.567239642518
 30
0.0
 10
121.5070750025023
 20
2165.35976231738
 30
0.0
 10
123.5456277842219
 20
2166.587325661845
 30
0.0
 10
125.8415730457433
 20
2167.083098415705
 30
0.0
 10
127.6229480927083
 20
2167.038684890968
 30
0.0
 10
128.5231216031202
 20
2166.682239095344
 30
0.0
 10
128.7707209847819
 20
2166.584196043009
 30
0.0
  0
SPLINE
  5
18B
330
1F
100
AcDbEntity
  8
0
  6
Continuous
 62
     7
370
    15
100
AcDbSpline
210
0.0
220
0.0
230
1.0
 70
    11
 71
     3
 72
    28
 73
    24
 74
     0
 42
0.000000001
 43
0.00000001
 40
0.0
 40
0.0
 40
0.0
 40
0.0
 40
0.0475550759492183
 40
0.0949665350032824
 40
0.1460690478602843
 40
0.2034574919272662
 40
0.2467864296438474
 40
0.2901851897049359
 40
0.3330341215299372
 40
0.3834846900447336
 40
0.4410931225193981
 40
0.4950495059316224
 40
0.5415914089993298
 40
0.5869420113508886
 40
0.6370255546163016
 40
0.6937095546539802
 40
0.7381340438765771
 40
0.7826953213050354
 40
0.824969463539789
 40
0.8737308787836356
 40
0.9306923374329406
 40
0.986018761111044
 40
1.0
 40
1.0
 40
1.0
 40
1.0
 10
747.9902625344646
 20
2159.469955608988
 30
0.0
 10
747.9203069088065
 20
2158.697156479652
 30
0.0
 10
747.7806069243125
 20
2157.153892083547
 30
0.0
 10
746.7076453888608
 20
2155.068213519033
 30
0.0
 10
745.0533312570062
 20
2153.316882826808
 30
0.0
 10
742.9252206636099
 20
2152.203343884697
 30
0.0
 10
740.599768829808
 20
2151.820861798926
 30
0.0
 10
738.4850237951175
 20
2152.078751865934
 30
0.0
 10
736.4898529916018
 20
2152.914575553646
 30
0.0
 10
734.673717136445
 20
2154.385787626424
 30
0.0
 10
733.3033423096247
 20
2156.555538088513
 30
0.0
 10
732.7630607188646
 20
2159.105212669167
 30
0.0
 10
733.0518512472377
 20
2161.489212275631
 30
0.0
 10
733.9674510685954
 20
2163.566796437259
 30
0.0
 10
735.5079467090083
 20
2165.361600190978
 30
0.0
 10
737.5423008296433
 20
2166.580273345629
 30
0.0
 10
739.8510342892388
 20
2167.103081454653
 30
0.0
 10
742.0146244746514
 20
2166.954279395721
 30
0.0
 10
744.044736120937
 20
2166.217208589655
 30
0.0
 10
745.9039057820886
 20
2164.869521665802
 30
0.0
 10
747.3796268237946
 20
2162.817881809405
 30
0.0
 10
747.952536980578
 20
2160.817144777363
 30
0.0
 10
747.9839297581657
 20
2159.696100668682
 30
0.0
 10
747.9902625344646
 20
2159.469955608988
 30
0.0
  0
LINE
  5
18C
330
1F
100
AcDbEntity
  8
0
  6
Continuous
 62
     7
370
    15
100
AcDbLine
 10
1483.4402919076
 20
2159.469955609
 30
0.0
 11
1483.4402919076
 21
2171.9699557953
 31
0.0
  0
LINE
  5
18D
330
1F
100
AcDbEntity
  8
0
  6
Continuous
 62
     7
370
    15
100
AcDbLine
 10
1483.4402919076
 20
2146.9699554227
 30
0.0
 11
1483.4402919076
 21
2159.469955609
 31
0.0
  0
ARC
  5
18E
330
1F
100
AcDbEntity
  8
0
  6
Continuous
 62
     7
370
    15
100
AcDbCircle
 10
1353.4392632974
 20
2159.469955609
 30
0.0
 40
14.99999999999975
100
AcDbArc
 50
56.4426902381
 51
123.5573097619
  0
ARC
  5
18F
330
1F
100
AcDbEntity
  8
0
  6
Continuous
 62
     7
370
    15
100
AcDbCircle
 10
1353.4392632974
 20
2159.469955609
 30
0.0
 40
15.00000000000013
100
AcDbArc
 50
236.4426902381
 51
303.5573097619
  0
ARC
  5
190
330
1F
100
AcDbEntity
  8
0
  6
Continuous
 62
     7
370
    15
100
AcDbCircle
 10
1353.4392632974
 20
2159.469955609
 30
0.0
 40
30.00000000000043
100
AcDbArc
 50
204.6243183522
 51
335.3756816478
  0
ARC
  5
191
330
1F
100
AcDbEntity
  8
0
  6
Continuous
 62
     7
370
    15
100
AcDbCircle
 10
1353.4392632974
 20
2159.469955609
 30
0.0
 40
30.00000000000003
100
AcDbArc
 50
24.6243183522
 51
155.3756816478
  0
ARC
  5
192
330
1F
100
AcDbEntity
  8
0
  6
Continuous
 62
     7
370
    15
100
AcDbCircle
 10
126.7732632974
 20
2159.469955609
 30
0.0
 40
14.99999999999927
100
AcDbArc
 50
56.4426902381
 51
123.5573097619
  0
ARC
  5
193
330
1F
100
AcDbEntity
  8
0
  6
Continuous
 62
     7
370
    15
100
AcDbCircle
 10
126.7732632974
 20
2159.469955609
 30
0.0
 40
14.99999999999997
100
AcDbArc
 50
236.4426902381
 51
303.5573097619
  0
ARC
  5
194
330
1F
100
AcDbEntity
  8
0
  6
Continuous
 62
     7
370
    15
100
AcDbCircle
 10
126.7732632974
 20
2159.469955609
 30
0.0
 40
30.00000000000019
100
AcDbArc
 50
204.6243183522
 51
335.3756816478
  0
ARC
  5
195
330
1F
100
AcDbEntity
  8
0
  6
Continuous
 62
     7
370
    15
100
AcDbCircle
 10
126.7732632974
 20
2159.469955609
 30
0.0
 40
29.99999999999982
100
AcDbArc
 50
24.6243183522
 51
155.3756816478
  0
ARC
  5
196
330
1F
100
AcDbEntity
  8
0
  6
Continuous
 62
     7
370
    15
100
AcDbCircle
 10
-486.5597367026
 20
2159.469955609
 30
0.0
 40
30.00000000000052
100
AcDbArc
 50
293.1065278582
 51
335.3756816478
  0
ARC
  5
197
330
1F
100
AcDbEntity
  8
0
  6
Continuous
 62
     7
370
    15
100
AcDbCircle
 10
-486.5597367026
 20
2159.469955609
 30
0.0
 40
30.00000000000022
100
AcDbArc
 50
204.6243183522
 51
232.5868544859
  0
ARC
  5
198
330
1F
100
AcDbEntity
  8
0
  6
Continuous
 62
     7
370
    15
100
AcDbCircle
 10
-486.5597367026
 20
2159.469955609
 30
0.0
 40
29.99999999999996
100
AcDbArc
 50
142.7725226055
 51
155.3756816478
  0
ARC
  5
199
330
1F
100
AcDbEntity
  8
0
  6
Continuous
 62
     7
370
    15
100
AcDbCircle
 10
-486.5597367026
 20
2159.469955609
 30
0.0
 40
29.99999999999979
100
AcDbArc
 50
24.6243183522
 51
46.8091742926
  0
ARC
  5
19A
330
1F
100
AcDbEntity
  8
0
  6
Continuous
 62
     7
370
    15
100
AcDbCircle
 10
740.1062632974
 20
2159.469955609
 30
0.0
 40
14.99999999999931
100
AcDbArc
 50
56.4426902381
 51
123.5573097619
  0
ARC
  5
19B
330
1F
100
AcDbEntity
  8
0
  6
Continuous
 62
     7
370
    15
100
AcDbCircle
 10
740.1062632974
 20
2159.469955609
 30
0.0
 40
15.00000000000006
100
AcDbArc
 50
236.4426902381
 51
303.5573097619
  0
ARC
  5
19C
330
1F
100
AcDbEntity
  8
0
  6
Continuous
 62
     7
370
    15
100
AcDbCircle
 10
740.1062632974
 20
2159.469955609
 30
0.0
 40
30.00000000000032
100
AcDbArc
 50
204.6243183522
 51
335.3756816478
  0
ARC
  5
19D
330
1F
100
AcDbEntity
  8
0
  6
Continuous
 62
     7
370
    15
100
AcDbCircle
 10
740.1062632974
 20
2159.469955609
 30
0.0
 40
29.99999999999993
100
AcDbArc
 50
24.6243183522
 51
155.3756816478
  0
CIRCLE
  5
19E
330
1F
100
AcDbEntity
  8
0
  6
Continuous
 62
     7
370
    15
100
AcDbCircle
 10
126.7732632974
 20
2159.469955609
 30
0.0
 40
6.450000000000156
  0
CIRCLE
  5
19F
330
1F
100
AcDbEntity
  8
0
  6
Continuous
 62
     7
370
    15
100
AcDbCircle
 10
126.7732632974
 20
2159.469955609
 30
0.0
 40
7.450000000000131
  0
LINE
  5
1A0
330
1F
100
AcDbEntity
  8
0
  6
Continuous
 62
     7
370
    15
100
AcDbLine
 10
129.5236468576
 20
2160.3468061157
 30
0.0
 11
127.3890853189
 21
2162.2902590398
 31
0.0
  0
LINE
  5
1A1
330
1F
100
AcDbEntity
  8
0
  6
Continuous
 62
     7
370
    15
100
AcDbLine
 10
127.3890853189
 20
2162.2902590398
 30
0.0
 11
124.6386885904
 21
2161.4134085912
 31
0.0
  0
LINE
  5
1A2
330
1F
100
AcDbEntity
  8
0
  6
Continuous
 62
     7
370
    15
100
AcDbLine
 10
124.6386885904
 20
2161.4134085912
 30
0.0
 11
124.0229130052
 21
2158.5931051022
 31
0.0
  0
LINE
  5
1A3
330
1F
100
AcDbEntity
  8
0
  6
Continuous
 62
     7
370
    15
100
AcDbLine
 10
124.0229130052
 20
2158.5931051022
 30
0.0
 11
126.1574745439
 21
2156.6496521782
 31
0.0
  0
LINE
  5
1A4
330
1F
100
AcDbEntity
  8
0
  6
Continuous
 62
     7
370
    15
100
AcDbLine
 10
128.9078116678
 20
2157.5265026268
 30
0.0
 11
129.5236468576
 21
2160.3468061157
 31
0.0
  0
LINE
  5
1A5
330
1F
100
AcDbEntity
  8
0
  6
Continuous
 62
     7
370
    15
100
AcDbLine
 10
126.1574745439
 20
2156.6496521782
 30
0.0
 11
128.9078116678
 21
2157.5265026268
 31
0.0
  0
CIRCLE
  5
1A6
330
1F
100
AcDbEntity
  8
0
  6
Continuous
 62
     7
370
    15
100
AcDbCircle
 10
1353.4392632974
 20
2159.469955609
 30
0.0
 40
6.44999999999999
  0
LINE
  5
1A7
330
1F
100
AcDbEntity
  8
0
  6
Continuous
 62
     7
370
    15
100
AcDbLine
 10
1356.1896205209
 20
2160.3468061157
 30
0.0
 11
1354.0550589822
 21
2162.2902590398
 31
0.0
  0
LINE
  5
1A8
330
1F
100
AcDbEntity
  8
0
  6
Continuous
 62
     7
370
    15
100
AcDbLine
 10
1354.0550589822
 20
2162.2902590398
 30
0.0
 11
1351.3046622537
 21
2161.4134085912
 31
0.0
  0
LINE
  5
1A9
330
1F
100
AcDbEntity
  8
0
  6
Continuous
 62
     7
370
    15
100
AcDbLine
 10
1351.3046622537
 20
2161.4134085912
 30
0.0
 11
1350.6889462732
 21
2158.5931051022
 31
0.0
  0
LINE
  5
1AA
330
1F
100
AcDbEntity
  8
0
  6
Continuous
 62
     7
370
    15
100
AcDbLine
 10
1350.6889462732
 20
2158.5931051022
 30
0.0
 11
1352.8235078119
 21
2156.6496521782
 31
0.0
  0
LINE
  5
1AB
330
1F
100
AcDbEntity
  8
0
  6
Continuous
 62
     7
370
    15
100
AcDbLine
 10
1352.8235078119
 20
2156.6496521782
 30
0.0
 11
1355.5737853311
 21
2157.5265026268
 31
0.0
  0
LINE
  5
1AC
330
1F
100
AcDbEntity
  8
0
  6
Continuous
 62
     7
370
    15
100
AcDbLine
 10
1355.5737853311
 20
2157.5265026268
 30
0.0
 11
1356.1896205209
 21
2160.3468061157
 31
0.0
  0
CIRCLE
  5
1AD
330
1F
100
AcDbEntity
  8
0
  6
Continuous
 62
     7
370
    15
100
AcDbCircle
 10
1353.4392632974
 20
2159.469955609
 30
0.0
 40
7.450000000000169
  0
CIRCLE
  5
1AE
330
1F
100
AcDbEntity
  8
0
  6
Continuous
 62
     7
370
    15
100
AcDbCircle
 10
740.1062632974
 20
2159.469955609
 30
0.0
 40
6.450000000000212
  0
CIRCLE
  5
1AF
330
1F
100
AcDbEntity
  8
0
  6
Continuous
 62
     7
370
    15
100
AcDbCircle
 10
740.1062632974
 20
2159.469955609
 30
0.0
 40
7.450000000000158
  0
LINE
  5
1B0
330
1F
100
AcDbEntity
  8
0
  6
Continuous
 62
     7
370
    15
100
AcDbLine
 10
742.8566336892
 20
2160.3468061157
 30
0.0
 11
740.7220721506
 21
2162.2902590398
 31
0.0
  0
LINE
  5
1B1
330
1F
100
AcDbEntity
  8
0
  6
Continuous
 62
     7
370
    15
100
AcDbLine
 10
740.7220721506
 20
2162.2902590398
 30
0.0
 11
737.971675422
 21
2161.4134085912
 31
0.0
  0
LINE
  5
1B2
330
1F
100
AcDbEntity
  8
0
  6
Continuous
 62
     7
370
    15
100
AcDbLine
 10
737.971675422
 20
2161.4134085912
 30
0.0
 11
737.3559594415
 21
2158.5931051022
 31
0.0
  0
LINE
  5
1B3
330
1F
100
AcDbEntity
  8
0
  6
Continuous
 62
     7
370
    15
100
AcDbLine
 10
737.3559594415
 20
2158.5931051022
 30
0.0
 11
739.4904017709
 21
2156.6496521782
 31
0.0
  0
LINE
  5
1B4
330
1F
100
AcDbEntity
  8
0
  6
Continuous
 62
     7
370
    15
100
AcDbLine
 10
739.4904017709
 20
2156.6496521782
 30
0.0
 11
742.2407984994
 21
2157.5265026268
 31
0.0
  0
LINE
  5
1B5
330
1F
100
AcDbEntity
  8
0
  6
Continuous
 62
     7
370
    15
100
AcDbLine
 10
742.2407984994
 20
2157.5265026268
 30
0.0
 11
742.8566336892
 21
2160.3468061157
 31
0.0
  0
LINE
  5
1B6
330
1F
100
AcDbEntity
  8
0
  6
Continuous
 62
     7
370
    15
100
AcDbLine
 10
-589.7864803411
 20
2119.4699565031
 30
0.0
 11
-589.7864803411
 21
69.4700414397
 31
0.0
  0
LINE
  5
1B7
330
1F
100
AcDbEntity
  8
0
  6
Continuous
 62
     7
370
    15
100
AcDbLine
 10
310.2135181688
 20
69.4700414397
 30
0.0
 11
310.2135181688
 21
2119.4699565031
 31
0.0
  0
LINE
  5
1B8
330
1F
100
AcDbEntity
  8
0
  6
Continuous
 62
     7
370
    15
100
AcDbLine
 10
310.2135181688
 20
2119.4699565031
 30
0.0
 11
225.2135396264
 21
2119.4699565031
 31
0.0
  0
LINE
  5
1B9
330
1F
100
AcDbEntity
  8
0
  6
Continuous
 62
     7
370
    15
100
AcDbLine
 10
195.213508632
 20
2119.4699565031
 30
0.0
 11
-474.7864791863
 21
2119.4699565031
 31
0.0
  0
LINE
  5
1BA
330
1F
100
AcDbEntity
  8
0
  6
Continuous
 62
     7
370
    15
100
AcDbLine
 10
-504.786479447
 20
2119.4699565031
 30
0.0
 11
-589.7864803411
 21
2119.4699565031
 31
0.0
  0
LINE
  5
1BB
330
1F
100
AcDbEntity
  8
0
  6
Continuous
 62
     7
370
    15
100
AcDbLine
 10
-589.7864803411
 20
69.4700414397
 30
0.0
 11
310.2135181688
 21
69.4700414397
 31
0.0
  0
ARC
  5
1BC
330
1F
100
AcDbEntity
  8
0
  6
Continuous
 62
     7
370
    15
100
AcDbCircle
 10
210.2135206493
 20
2197.969955609
 30
0.0
 40
28.90000000000025
100
AcDbArc
 50
326.2875615636
 51
238.7327151764
  0
ARC
  5
1BD
330
1F
100
AcDbEntity
  8
0
  6
Continuous
 62
     7
370
    15
100
AcDbCircle
 10
210.2135206493
 20
2197.969955609
 30
0.0
 40
28.90000000000025
100
AcDbArc
 50
301.2672848236
 51
326.2875615636
  0
ARC
  5
1BE
330
1F
100
AcDbEntity
  8
0
  6
Continuous
 62
     7
370
    15
100
AcDbCircle
 10
210.2135206493
 20
2197.969955609
 30
0.0
 40
29.00000000000042
100
AcDbArc
 50
301.1473899215
 51
326.2875615636
  0
ARC
  5
1BF
330
1F
100
AcDbEntity
  8
0
  6
Continuous
 62
     7
370
    15
100
AcDbCircle
 10
210.2135206493
 20
2197.969955609
 30
0.0
 40
29.00000000000049
100
AcDbArc
 50
326.2875615636
 51
238.8526100785
  0
ARC
  5
1C0
330
1F
100
AcDbEntity
  8
0
  6
Continuous
 62
     7
370
    15
100
AcDbCircle
 10
-489.7864793507
 20
2197.969955609
 30
0.0
 40
28.90000000000026
100
AcDbArc
 50
326.2875615636
 51
238.7327151764
  0
ARC
  5
1C1
330
1F
100
AcDbEntity
  8
0
  6
Continuous
 62
     7
370
    15
100
AcDbCircle
 10
-489.7864793507
 20
2197.969955609
 30
0.0
 40
28.90000000000027
100
AcDbArc
 50
301.2672848236
 51
326.2875615636
  0
ARC
  5
1C2
330
1F
100
AcDbEntity
  8
0
  6
Continuous
 62
     7
370
    15
100
AcDbCircle
 10
-489.7864793507
 20
2197.969955609
 30
0.0
 40
29.00000000000041
100
AcDbArc
 50
301.1473899215
 51
326.2875615636
  0
ARC
  5
1C3
330
1F
100
AcDbEntity
  8
0
  6
Continuous
 62
     7
370
    15
100
AcDbCircle
 10
-489.7864793507
 20
2197.969955609
 30
0.0
 40
29.00000000000041
100
AcDbArc
 50
326.2875615636
 51
238.8526100785
  0
CIRCLE
  5
1C4
330
1F
100
AcDbEntity
  8
0
  6
Continuous
 62
     7
370
    15
100
AcDbCircle
 10
210.2135206493
 20
2009.469955609
 30
0.0
 40
12.33393612946676
  0
CIRCLE
  5
1C5
330
1F
100
AcDbEntity
  8
0
  6
Continuous
 62
     7
370
    15
100
AcDbCircle
 10
210.2135206493
 20
2009.469955609
 30
0.0
 40
12.49999999999994
  0
CIRCLE
  5
1C6
330
1F
100
AcDbEntity
  8
0
  6
Continuous
 62
     7
370
    15
100
AcDbCircle
 10
210.2135206493
 20
2064.469955609
 30
0.0
 40
12.33393612946676
  0
CIRCLE
  5
1C7
330
1F
100
AcDbEntity
  8
0
  6
Continuous
 62
     7
370
    15
100
AcDbCircle
 10
210.2135206493
 20
2064.469955609
 30
0.0
 40
12.49999999999994
  0
CIRCLE
  5
1C8
330
1F
100
AcDbEntity
  8
0
  6
Continuous
 62
     7
370
    15
100
AcDbCircle
 10
-489.7864793507
 20
2064.469955609
 30
0.0
 40
12.33393612946679
  0
CIRCLE
  5
1C9
330
1F
100
AcDbEntity
  8
0
  6
Continuous
 62
     7
370
    15
100
AcDbCircle
 10
-489.7864793507
 20
2064.469955609
 30
0.0
 40
12.5
  0
CIRCLE
  5
1CA
330
1F
100
AcDbEntity
  8
0
  6
Continuous
 62
     7
370
    15
100
AcDbCircle
 10
-489.7864793507
 20
2009.469955609
 30
0.0
 40
12.33393612946679
  0
CIRCLE
  5
1CB
330
1F
100
AcDbEntity
  8
0
  6
Continuous
 62
     7
370
    15
100
AcDbCircle
 10
-489.7864793507
 20
2009.469955609
 30
0.0
 40
12.5
  0
CIRCLE
  5
1CC
330
1F
100
AcDbEntity
  8
0
  6
Continuous
 62
     7
370
    15
100
AcDbCircle
 10
-489.7864793507
 20
2137.969955609
 30
0.0
 40
12.33393612946691
  0
CIRCLE
  5
1CD
330
1F
100
AcDbEntity
  8
0
  6
Continuous
 62
     7
370
    15
100
AcDbCircle
 10
-489.7864793507
 20
2137.969955609
 30
0.0
 40
12.50000000000011
  0
CIRCLE
  5
1CE
330
1F
100
AcDbEntity
  8
0
  6
Continuous
 62
     7
370
    15
100
AcDbCircle
 10
-489.7864793507
 20
2197.969955609
 30
0.0
 40
12.33393612946668
  0
CIRCLE
  5
1CF
330
1F
100
AcDbEntity
  8
0
  6
Continuous
 62
     7
370
    15
100
AcDbCircle
 10
-489.7864793507
 20
2197.969955609
 30
0.0
 40
12.50000000000011
  0
CIRCLE
  5
1D0
330
1F
100
AcDbEntity
  8
0
  6
Continuous
 62
     7
370
    15
100
AcDbCircle
 10
210.2135206493
 20
2137.969955609
 30
0.0
 40
12.33393612946676
  0
CIRCLE
  5
1D1
330
1F
100
AcDbEntity
  8
0
  6
Continuous
 62
     7
370
    15
100
AcDbCircle
 10
210.2135206493
 20
2137.969955609
 30
0.0
 40
12.49999999999994
  0
CIRCLE
  5
1D2
330
1F
100
AcDbEntity
  8
0
  6
Continuous
 62
     7
370
    15
100
AcDbCircle
 10
210.2135206493
 20
2197.969955609
 30
0.0
 40
12.33393612946676
  0
CIRCLE
  5
1D3
330
1F
100
AcDbEntity
  8
0
  6
Continuous
 62
     7
370
    15
100
AcDbCircle
 10
210.2135206493
 20
2197.969955609
 30
0.0
 40
12.49999999999994
  0
LINE
  5
1D4
330
1F
100
AcDbEntity
  8
0
  6
Continuous
 62
     7
370
    15
100
AcDbLine
 10
-474.9864797778
 20
2005.9699500062
 30
0.0
 11
-474.9864797778
 21
2197.9699554004
 31
0.0
  0
ARC
  5
1D5
330
1F
100
AcDbEntity
  8
0
  6
Continuous
 62
     7
370
    15
100
AcDbCircle
 10
-489.7864793507
 20
2005.969955609
 30
0.0
 40
14.80000000000007
100
AcDbArc
 50
180.0
 51
0.0
  0
LINE
  5
1D6
330
1F
100
AcDbEntity
  8
0
  6
Continuous
 62
     7
370
    15
100
AcDbLine
 10
-504.5864797868
 20
2197.9699554004
 30
0.0
 11
-504.5864797868
 21
2005.9699500062
 31
0.0
  0
ARC
  5
1D7
330
1F
100
AcDbEntity
  8
0
  6
Continuous
 62
     7
370
    15
100
AcDbCircle
 10
-489.7864793507
 20
2197.969955609
 30
0.0
 40
14.79999999999995
100
AcDbArc
 50
0.0
 51
180.0
  0
ARC
  5
1D8
330
1F
100
AcDbEntity
  8
0
  6
Continuous
 62
     7
370
    15
100
AcDbCircle
 10
-489.7864793507
 20
2005.969955609
 30
0.0
 40
15.0
100
AcDbArc
 50
180.0
 51
0.0
  0
LINE
  5
1D9
330
1F
100
AcDbEntity
  8
0
  6
Continuous
 62
     7
370
    15
100
AcDbLine
 10
-504.786479447
 20
2005.9699500062
 30
0.0
 11
-504.5864797868
 21
2005.9699500062
 31
0.0
  0
LINE
  5
1DA
330
1F
100
AcDbEntity
  8
0
  6
Continuous
 62
     7
370
    15
100
AcDbLine
 10
-474.7864791863
 20
2005.9699500062
 30
0.0
 11
-474.9864797778
 21
2005.9699500062
 31
0.0
  0
LINE
  5
1DB
330
1F
100
AcDbEntity
  8
0
  6
Continuous
 62
     7
370
    15
100
AcDbLine
 10
-474.9864797778
 20
2197.9699554004
 30
0.0
 11
-474.7864791863
 21
2197.9699554004
 31
0.0
  0
LINE
  5
1DC
330
1F
100
AcDbEntity
  8
0
  6
Continuous
 62
     7
370
    15
100
AcDbLine
 10
-474.7864791863
 20
2197.9699554004
 30
0.0
 11
-474.7864791863
 21
2005.9699500062
 31
0.0
  0
LINE
  5
1DD
330
1F
100
AcDbEntity
  8
0
  6
Continuous
 62
     7
370
    15
100
AcDbLine
 10
-504.786479447
 20
2005.9699500062
 30
0.0
 11
-504.786479447
 21
2197.9699554004
 31
0.0
  0
LINE
  5
1DE
330
1F
100
AcDbEntity
  8
0
  6
Continuous
 62
     7
370
    15
100
AcDbLine
 10
-504.5864797868
 20
2197.9699554004
 30
0.0
 11
-504.786479447
 21
2197.9699554004
 31
0.0
  0
ARC
  5
1DF
330
1F
100
AcDbEntity
  8
0
  6
Continuous
 62
     7
370
    15
100
AcDbCircle
 10
-489.7864793507
 20
2197.969955609
 30
0.0
 40
14.99999999999994
100
AcDbArc
 50
0.0
 51
180.0
  0
LINE
  5
1E0
330
1F
100
AcDbEntity
  8
0
  6
Continuous
 62
     7
370
    15
100
AcDbLine
 10
225.0135064386
 20
2005.9699500062
 30
0.0
 11
225.0135064386
 21
2197.9699554004
 31
0.0
  0
LINE
  5
1E1
330
1F
100
AcDbEntity
  8
0
  6
Continuous
 62
     7
370
    15
100
AcDbLine
 10
225.0135064386
 20
2197.9699554004
 30
0.0
 11
225.2135396264
 21
2197.9699554004
 31
0.0
  0
LINE
  5
1E2
330
1F
100
AcDbEntity
  8
0
  6
Continuous
 62
     7
370
    15
100
AcDbLine
 10
225.2135396264
 20
2197.9699554004
 30
0.0
 11
225.2135396264
 21
2005.9699500062
 31
0.0
  0
LINE
  5
1E3
330
1F
100
AcDbEntity
  8
0
  6
Continuous
 62
     7
370
    15
100
AcDbLine
 10
225.2135396264
 20
2005.9699500062
 30
0.0
 11
225.0135064386
 21
2005.9699500062
 31
0.0
  0
ARC
  5
1E4
330
1F
100
AcDbEntity
  8
0
  6
Continuous
 62
     7
370
    15
100
AcDbCircle
 10
210.2135206493
 20
2005.969955609
 30
0.0
 40
14.80000000000004
100
AcDbArc
 50
180.0
 51
0.0
  0
LINE
  5
1E5
330
1F
100
AcDbEntity
  8
0
  6
Continuous
 62
     7
370
    15
100
AcDbLine
 10
195.4135418199
 20
2197.9699554004
 30
0.0
 11
195.4135418199
 21
2005.9699500062
 31
0.0
  0
ARC
  5
1E6
330
1F
100
AcDbEntity
  8
0
  6
Continuous
 62
     7
370
    15
100
AcDbCircle
 10
210.2135206493
 20
2197.969955609
 30
0.0
 40
14.80000000000004
100
AcDbArc
 50
0.0
 51
180.0
  0
ARC
  5
1E7
330
1F
100
AcDbEntity
  8
0
  6
Continuous
 62
     7
370
    15
100
AcDbCircle
 10
210.2135206493
 20
2005.969955609
 30
0.0
 40
15.00000000000003
100
AcDbArc
 50
180.0
 51
0.0
  0
LINE
  5
1E8
330
1F
100
AcDbEntity
  8
0
  6
Continuous
 62
     7
370
    15
100
AcDbLine
 10
195.213508632
 20
2005.9699500062
 30
0.0
 11
195.4135418199
 21
2005.9699500062
 31
0.0
  0
LINE
  5
1E9
330
1F
100
AcDbEntity
  8
0
  6
Continuous
 62
     7
370
    15
100
AcDbLine
 10
195.213508632
 20
2005.9699500062
 30
0.0
 11
195.213508632
 21
2197.9699554004
 31
0.0
  0
LINE
  5
1EA
330
1F
100
AcDbEntity
  8
0
  6
Continuous
 62
     7
370
    15
100
AcDbLine
 10
195.4135418199
 20
2197.9699554004
 30
0.0
 11
195.213508632
 21
2197.9699554004
 31
0.0
  0
ARC
  5
1EB
330
1F
100
AcDbEntity
  8
0
  6
Continuous
 62
     7
370
    15
100
AcDbCircle
 10
210.2135206493
 20
2197.969955609
 30
0.0
 40
15.00000000000003
100
AcDbArc
 50
0.0
 51
180.0
  0
LINE
  5
1EC
330
1F
100
AcDbEntity
  8
0
  6
Continuous
 62
     7
370
    15
100
AcDbLine
 10
310.9402776025
 20
61.4699060179
 30
0.0
 11
310.9402776025
 21
65.4698545195
 31
0.0
  0
LINE
  5
1ED
330
1F
100
AcDbEntity
  8
0
  6
Continuous
 62
     7
370
    15
100
AcDbLine
 10
251.4402389787
 20
61.4699060179
 30
0.0
 11
310.9402776025
 21
61.4699060179
 31
0.0
  0
LINE
  5
1EE
330
1F
100
AcDbEntity
  8
0
  6
Continuous
 62
     7
370
    15
100
AcDbLine
 10
251.4402389787
 20
65.4698545195
 30
0.0
 11
251.4402389787
 21
61.4699060179
 31
0.0
  0
LINE
  5
1EF
330
1F
100
AcDbEntity
  8
0
  6
Continuous
 62
     7
370
    15
100
AcDbLine
 10
251.4402389787
 20
65.4698545195
 30
0.0
 11
310.9402776025
 21
65.4698545195
 31
0.0
  0
LINE
  5
1F0
330
1F
100
AcDbEntity
  8
0
  6
Continuous
 62
     7
370
    15
100
AcDbLine
 10
251.4402389787
 20
61.4699060179
 30
0.0
 11
248.9402413629
 21
61.4699060179
 31
0.0
  0
LINE
  5
1F1
330
1F
100
AcDbEntity
  8
0
  6
Continuous
 62
     7
370
    15
100
AcDbLine
 10
248.9402413629
 20
61.4699060179
 30
0.0
 11
248.9402413629
 21
65.4698545195
 31
0.0
  0
LINE
  5
1F2
330
1F
100
AcDbEntity
  8
0
  6
Continuous
 62
     7
370
    15
100
AcDbLine
 10
248.9402413629
 20
65.4698545195
 30
0.0
 11
251.4402389787
 21
65.4698545195
 31
0.0
  0
LINE
  5
1F3
330
1F
100
AcDbEntity
  8
0
  6
Continuous
 62
     7
370
    15
100
AcDbLine
 10
313.4402752183
 20
65.4698545195
 30
0.0
 11
313.4402752183
 21
61.4699060179
 31
0.0
  0
LINE
  5
1F4
330
1F
100
AcDbEntity
  8
0
  6
Continuous
 62
     7
370
    15
100
AcDbLine
 10
313.4402752183
 20
61.4699060179
 30
0.0
 11
310.9402776025
 21
61.4699060179
 31
0.0
  0
LINE
  5
1F5
330
1F
100
AcDbEntity
  8
0
  6
Continuous
 62
     7
370
    15
100
AcDbLine
 10
310.9402776025
 20
65.4698545195
 30
0.0
 11
313.4402752183
 21
65.4698545195
 31
0.0
  0
ARC
  5
1F6
330
1F
100
AcDbEntity
  8
0
  6
Continuous
 62
     7
370
    15
100
AcDbCircle
 10
260.9111205959
 20
66.6021628629
 30
0.0
 40
1.826796923822876
100
AcDbArc
 50
321.6960866769
 51
10.7772575011
  0
LINE
  5
1F7
330
1F
100
AcDbEntity
  8
0
  6
Continuous
 62
     7
370
    15
100
AcDbLine
 10
262.7056956552
 20
66.9437581755
 30
0.0
 11
289.1748070978
 21
66.9437581755
 31
0.0
  0
ARC
  5
1F8
330
1F
100
AcDbEntity
  8
0
  6
Continuous
 62
     7
370
    15
100
AcDbCircle
 10
290.9691254109
 20
66.6021579353
 30
0.0
 40
1.826545628457925
100
AcDbArc
 50
169.2210846817
 51
218.3099428822
  0
SPLINE
  5
1F9
330
1F
100
AcDbEntity
  8
0
  6
Continuous
 62
     7
370
    15
100
AcDbSpline
210
0.0
220
0.0
230
1.0
 70
     8
 71
     3
 72
     9
 73
     5
 74
     0
 42
0.000000001
 43
0.00000001
 40
0.0
 40
0.0
 40
0.0
 40
0.0
 40
0.4999999160526068
 40
1.0
 40
1.0
 40
1.0
 40
1.0
 10
-540.2688264586079
 20
2157.713519184658
 30
0.0
 10
-540.2062170515101
 20
2158.190553163606
 30
0.0
 10
-540.0809982162904
 20
2159.144621281684
 30
0.0
 10
-539.955775718852
 20
2160.098688919214
 30
0.0
 10
-539.8931644596207
 20
2160.575722818071
 30
0.0
  0
SPLINE
  5
1FA
330
1F
100
AcDbEntity
  8
0
  6
Continuous
 62
     7
370
    15
100
AcDbSpline
210
0.0
220
0.0
230
1.0
 70
     8
 71
     3
 72
    14
 73
    10
 74
     0
 42
0.000000001
 43
0.00000001
 40
0.0
 40
0.0
 40
0.0
 40
0.0
 40
0.1719841747712346
 40
0.3436902531868626
 40
0.5228375949586669
 40
0.7237836739133263
 40
0.95140431748038
 40
0.9912734036636593
 40
1.0
 40
1.0
 40
1.0
 40
1.0
 10
-539.8931644596207
 20
2160.575722818071
 30
0.0
 10
-539.8912660250845
 20
2160.576509644176
 30
0.0
 10
-539.8874722257583
 20
2160.578082024099
 30
0.0
 10
-539.8582504393734
 20
2160.590200431136
 30
0.0
 10
-539.8143353662479
 20
2160.608410640586
 30
0.0
 10
-539.7545973873246
 20
2160.633182731853
 30
0.0
 10
-539.704002535437
 20
2160.654163254651
 30
0.0
 10
-539.6743617045685
 20
2160.666454396453
 30
0.0
 10
-539.6691552139388
 20
2160.668614547094
 30
0.0
 10
-539.6682202555287
 20
2160.66900245733
 30
0.0
  0
SPLINE
  5
1FB
330
1F
100
AcDbEntity
  8
0
  6
Continuous
 62
     7
370
    15
100
AcDbSpline
210
0.0
220
0.0
230
1.0
 70
     8
 71
     3
 72
     9
 73
     5
 74
     0
 42
0.000000001
 43
0.00000001
 40
0.0
 40
0.0
 40
0.0
 40
0.0
 40
0.4999999964360772
 40
1.0
 40
1.0
 40
1.0
 40
1.0
 10
-539.6682202555287
 20
2160.66900245733
 30
0.0
 10
-539.7356225540249
 20
2160.151662903122
 30
0.0
 10
-539.8704271519779
 20
2159.116983787331
 30
0.0
 10
-540.0071912497244
 20
2158.082561855108
 30
0.0
 10
-540.0755732990849
 20
2157.565350885311
 30
0.0
  0
SPLINE
  5
1FC
330
1F
100
AcDbEntity
  8
0
  6
Continuous
 62
     7
370
    15
100
AcDbSpline
210
0.0
220
0.0
230
1.0
 70
     8
 71
     3
 72
    14
 73
    10
 74
     0
 42
0.000000001
 43
0.00000001
 40
0.0
 40
0.0
 40
0.0
 40
0.0
 40
0.1719822211253591
 40
0.3436858816036606
 40
0.5228342987276883
 40
0.7237822875114649
 40
0.9513988689243527
 40
0.9912719020625288
 40
1.0
 40
1.0
 40
1.0
 40
1.0
 10
-540.2688264586079
 20
2157.713519184658
 30
0.0
 10
-540.2671963021724
 20
2157.712269361013
 30
0.0
 10
-540.2639386296755
 20
2157.709771738068
 30
0.0
 10
-540.2388355037976
 20
2157.690522280165
 30
0.0
 10
-540.2011054470798
 20
2157.66159654683
 30
0.0
 10
-540.1497819751175
 20
2157.622249206318
 30
0.0
 10
-540.1063161365272
 20
2157.588920773655
 30
0.0
 10
-540.0808499176806
 20
2157.569397917976
 30
0.0
 10
-540.0763766387544
 20
2157.565967026467
 30
0.0
 10
-540.0755732990849
 20
2157.565350885311
 30
0.0
  0
SPLINE
  5
1FD
330
1F
100
AcDbEntity
  8
0
  6
Continuous
 62
     7
370
    15
100
AcDbSpline
210
0.0
220
0.0
230
1.0
 70
     8
 71
     3
 72
     9
 73
     5
 74
     0
 42
0.000000001
 43
0.00000001
 40
0.0
 40
0.0
 40
0.0
 40
0.0
 40
0.4999995125929555
 40
0.9999999999999999
 40
0.9999999999999999
 40
0.9999999999999999
 40
0.9999999999999999
 10
-545.2263086773503
 20
2158.364188399905
 30
0.0
 10
-544.8444913813665
 20
2158.071448794959
 30
0.0
 10
-544.0808560449964
 20
2157.485969014334
 30
0.0
 10
-543.3172192165454
 20
2156.900491178739
 30
0.0
 10
-542.9354004301179
 20
2156.607751975575
 30
0.0
  0
SPLINE
  5
1FE
330
1F
100
AcDbEntity
  8
0
  6
Continuous
 62
     7
370
    15
100
AcDbSpline
210
0.0
220
0.0
230
1.0
 70
     8
 71
     3
 72
    14
 73
    10
 74
     0
 42
0.000000001
 43
0.00000001
 40
0.0
 40
0.0
 40
0.0
 40
0.0
 40
0.1719819697263497
 40
0.3436877719764831
 40
0.5228334665488382
 40
0.7237789726900817
 40
0.9513957690535121
 40
0.9912701672320585
 40
1.0
 40
1.0
 40
1.0
 40
1.0
 10
-542.9354004301179
 20
2156.607751975575
 30
0.0
 10
-542.935667076772
 20
2156.605715250425
 30
0.0
 10
-542.9361999419004
 20
2156.601645070684
 30
0.0
 10
-542.9403208832413
 20
2156.570278131488
 30
0.0
 10
-542.9465027413396
 20
2156.523141318159
 30
0.0
 10
-542.9549278797739
 20
2156.459021802247
 30
0.0
 10
-542.9620407644202
 20
2156.404712788684
 30
0.0
 10
-542.9662272884708
 20
2156.372898132063
 30
0.0
 10
-542.9669598914595
 20
2156.367308070936
 30
0.0
 10
-542.9670914746869
 20
2156.366304036969
 30
0.0
  0
SPLINE
  5
1FF
330
1F
100
AcDbEntity
  8
0
  6
Continuous
 62
     7
370
    15
100
AcDbSpline
210
0.0
220
0.0
230
1.0
 70
     8
 71
     3
 72
     9
 73
     5
 74
     0
 42
0.000000001
 43
0.00000001
 40
0.0
 40
0.0
 40
0.0
 40
0.0
 40
0.499999654431701
 40
0.9999999999999999
 40
0.9999999999999999
 40
0.9999999999999999
 40
0.9999999999999999
 10
-542.9670914746869
 20
2156.366304036969
 30
0.0
 10
-543.3814190255
 20
2156.683346238861
 30
0.0
 10
-544.2100746998404
 20
2157.317431080884
 30
0.0
 10
-545.0375291138072
 20
2157.953082720952
 30
0.0
 10
-545.4512566067326
 20
2158.270908760646
 30
0.0
  0
SPLINE
  5
200
330
1F
100
AcDbEntity
  8
0
  6
Continuous
 62
     7
370
    15
100
AcDbSpline
210
0.0
220
0.0
230
1.0
 70
     8
 71
     3
 72
    14
 73
    10
 74
     0
 42
0.000000001
 43
0.00000001
 40
0.0
 40
0.0
 40
0.0
 40
0.0
 40
0.0087363657017912
 40
0.0486050589605034
 40
0.276223459242059
 40
0.477167557798905
 40
0.6563131340075006
 40
0.8280175201963181
 40
1.0
 40
1.0
 40
1.0
 40
1.0
 10
-545.4512566067326
 20
2158.270908760646
 30
0.0
 10
-545.4503203894469
 20
2158.271296630039
 30
0.0
 10
-545.4451117136747
 20
2158.273454554213
 30
0.0
 10
-545.4154725353046
 20
2158.285752518664
 30
0.0
 10
-545.3648750494542
 20
2158.306726836695
 30
0.0
 10
-545.3051379271376
 20
2158.331500945852
 30
0.0
 10
-545.2612226597711
 20
2158.349710697732
 30
0.0
 10
-545.2320009205196
 20
2158.3618292158
 30
0.0
 10
-545.2282071149905
 20
2158.363401581111
 30
0.0
 10
-545.2263086773503
 20
2158.364188399905
 30
0.0
  0
CIRCLE
  5
201
330
1F
100
AcDbEntity
  8
0
  6
Continuous
 62
     7
370
    15
100
AcDbCircle
 10
-542.5597367026
 20
2159.469955609
 30
0.0
 40
14.83208158365346
  0
SPLINE
  5
202
330
1F
100
AcDbEntity
  8
0
  6
Continuous
 62
     7
370
    15
100
AcDbSpline
210
0.0
220
0.0
230
1.0
 70
     8
 71
     3
 72
     9
 73
     5
 74
     0
 42
0.000000001
 43
0.00000001
 40
0.0
 40
0.0
 40
0.0
 40
0.0
 40
0.5000000734786175
 40
1.0
 40
1.0
 40
1.0
 40
1.0
 10
-545.4512566067326
 20
2158.270908760646
 30
0.0
 10
-545.3838527613133
 20
2158.788248275008
 30
0.0
 10
-545.2490450902851
 20
2159.822927151679
 30
0.0
 10
-545.1122815819864
 20
2160.857349323008
 30
0.0
 10
-545.0438998378861
 20
2161.374560332665
 30
0.0
  0
SPLINE
  5
203
330
1F
100
AcDbEntity
  8
0
  6
Continuous
 62
     7
370
    15
100
AcDbSpline
210
0.0
220
0.0
230
1.0
 70
     8
 71
     3
 72
     9
 73
     5
 74
     0
 42
0.000000001
 43
0.00000001
 40
0.0
 40
0.0
 40
0.0
 40
0.0
 40
0.4999995416768427
 40
1.0
 40
1.0
 40
1.0
 40
1.0
 10
-540.0755732990849
 20
2157.565350885311
 30
0.0
 10
-540.5573032262041
 20
2157.365053362754
 30
0.0
 10
-541.5207639635951
 20
2156.964457950435
 30
0.0
 10
-542.4849820097073
 20
2156.565688796634
 30
0.0
 10
-542.9670914746869
 20
2156.366304036969
 30
0.0
  0
SPLINE
  5
204
330
1F
100
AcDbEntity
  8
0
  6
Continuous
 62
     7
370
    15
100
AcDbSpline
210
0.0
220
0.0
230
1.0
 70
     8
 71
     3
 72
     9
 73
     5
 74
     0
 42
0.000000001
 43
0.00000001
 40
0.0
 40
0.0
 40
0.0
 40
0.0
 40
0.5000001262990322
 40
1.0
 40
1.0
 40
1.0
 40
1.0
 10
-542.1523816622841
 20
2162.573607181007
 30
0.0
 10
-541.7380539962073
 20
2162.256565129147
 30
0.0
 10
-540.9093988733702
 20
2161.622481185598
 30
0.0
 10
-540.081946391805
 20
2160.986828646564
 30
0.0
 10
-539.6682202555287
 20
2160.66900245733
 30
0.0
  0
SPLINE
  5
205
330
1F
100
AcDbEntity
  8
0
  6
Continuous
 62
     7
370
    15
100
AcDbSpline
210
0.0
220
0.0
230
1.0
 70
     8
 71
     3
 72
     9
 73
     5
 74
     0
 42
0.000000001
 43
0.00000001
 40
0.0
 40
0.0
 40
0.0
 40
0.0
 40
0.4999995416768427
 40
1.0
 40
1.0
 40
1.0
 40
1.0
 10
-545.0438998378861
 20
2161.374560332665
 30
0.0
 10
-544.5621699107672
 20
2161.574857855222
 30
0.0
 10
-543.5987091733763
 20
2161.97545326754
 30
0.0
 10
-542.6344911272638
 20
2162.374222421341
 30
0.0
 10
-542.1523816622841
 20
2162.573607181007
 30
0.0
  0
SPLINE
  5
206
330
1F
100
AcDbEntity
  8
0
  6
Continuous
 62
     7
370
    15
100
AcDbSpline
210
0.0
220
0.0
230
1.0
 70
     8
 71
     3
 72
     9
 73
     5
 74
     0
 42
0.000000001
 43
0.00000001
 40
0.0
 40
0.0
 40
0.0
 40
0.0
 40
0.4999995125929555
 40
0.9999999999999999
 40
0.9999999999999999
 40
0.9999999999999999
 40
0.9999999999999999
 10
-539.8931644596207
 20
2160.575722818071
 30
0.0
 10
-540.2749817556047
 20
2160.868462423016
 30
0.0
 10
-541.038617091975
 20
2161.453942203641
 30
0.0
 10
-541.8022539204259
 20
2162.039420039237
 30
0.0
 10
-542.1840727068532
 20
2162.332159242401
 30
0.0
  0
SPLINE
  5
207
330
1F
100
AcDbEntity
  8
0
  6
Continuous
 62
     7
370
    15
100
AcDbSpline
210
0.0
220
0.0
230
1.0
 70
     8
 71
     3
 72
    14
 73
    10
 74
     0
 42
0.000000001
 43
0.00000001
 40
0.0
 40
0.0
 40
0.0
 40
0.0
 40
0.0087298327679415
 40
0.0486042309464879
 40
0.2762210273099183
 40
0.4771665334511619
 40
0.6563122280235169
 40
0.8280180302736503
 40
1.0
 40
1.0
 40
1.0
 40
1.0
 10
-542.1523816622841
 20
2162.573607181007
 30
0.0
 10
-542.1525132455118
 20
2162.57260314704
 30
0.0
 10
-542.1532458485005
 20
2162.567013085913
 30
0.0
 10
-542.157432372551
 20
2162.535198429292
 30
0.0
 10
-542.1645452571975
 20
2162.480889415729
 30
0.0
 10
-542.1729703956318
 20
2162.416769899816
 30
0.0
 10
-542.1791522537301
 20
2162.369633086487
 30
0.0
 10
-542.1832731950707
 20
2162.338266147292
 30
0.0
 10
-542.1838060601993
 20
2162.33419596755
 30
0.0
 10
-542.1840727068532
 20
2162.332159242401
 30
0.0
  0
SPLINE
  5
208
330
1F
100
AcDbEntity
  8
0
  6
Continuous
 62
     7
370
    15
100
AcDbSpline
210
0.0
220
0.0
230
1.0
 70
     8
 71
     3
 72
    14
 73
    10
 74
     0
 42
0.000000001
 43
0.00000001
 40
0.0
 40
0.0
 40
0.0
 40
0.0
 40
0.0087280979374713
 40
0.0486011310756473
 40
0.2762177124885351
 40
0.4771657012723117
 40
0.6563141183963395
 40
0.828017778874641
 40
1.0
 40
1.0
 40
1.0
 40
1.0
 10
-545.0438998378861
 20
2161.374560332665
 30
0.0
 10
-545.0430964982169
 20
2161.373944191508
 30
0.0
 10
-545.0386232192906
 20
2161.370513299999
 30
0.0
 10
-545.0131570004442
 20
2161.350990444321
 30
0.0
 10
-544.9696911618538
 20
2161.317662011657
 30
0.0
 10
-544.9183676898914
 20
2161.278314671146
 30
0.0
 10
-544.8806376331734
 20
2161.249388937812
 30
0.0
 10
-544.8555345072958
 20
2161.230139479907
 30
0.0
 10
-544.8522768347988
 20
2161.227641856963
 30
0.0
 10
-544.8506466783631
 20
2161.226392033318
 30
0.0
  0
SPLINE
  5
209
330
1F
100
AcDbEntity
  8
0
  6
Continuous
 62
     7
370
    15
100
AcDbSpline
210
0.0
220
0.0
230
1.0
 70
     8
 71
     3
 72
     9
 73
     5
 74
     0
 42
0.000000001
 43
0.00000001
 40
0.0
 40
0.0
 40
0.0
 40
0.0
 40
0.5000000839473933
 40
1.0
 40
1.0
 40
1.0
 40
1.0
 10
-544.8506466783631
 20
2161.226392033318
 30
0.0
 10
-544.9132579375944
 20
2160.749358134461
 30
0.0
 10
-545.0384804350327
 20
2159.795290496931
 30
0.0
 10
-545.1636992702524
 20
2158.841222378853
 30
0.0
 10
-545.2263086773503
 20
2158.364188399905
 30
0.0
  0
SPLINE
  5
20A
330
1F
100
AcDbEntity
  8
0
  6
Continuous
 62
     7
370
    15
100
AcDbSpline
210
0.0
220
0.0
230
1.0
 70
     8
 71
     3
 72
     9
 73
     5
 74
     0
 42
0.000000001
 43
0.00000001
 40
0.0
 40
0.0
 40
0.0
 40
0.0
 40
0.4999994041138966
 40
1.0
 40
1.0
 40
1.0
 40
1.0
 10
-542.1840727068532
 20
2162.332159242401
 30
0.0
 10
-542.6285010356115
 20
2162.147864597735
 30
0.0
 10
-543.517358752444
 20
2161.779274869129
 30
0.0
 10
-544.4062170166179
 20
2161.410686458346
 30
0.0
 10
-544.8506466783631
 20
2161.226392033318
 30
0.0
  0
SPLINE
  5
20B
330
1F
100
AcDbEntity
  8
0
  6
Continuous
 62
     7
370
    15
100
AcDbSpline
210
0.0
220
0.0
230
1.0
 70
     8
 71
     3
 72
     9
 73
     5
 74
     0
 42
0.000000001
 43
0.00000001
 40
0.0
 40
0.0
 40
0.0
 40
0.0
 40
0.4999994041138966
 40
1.0
 40
1.0
 40
1.0
 40
1.0
 10
-542.9354004301179
 20
2156.607751975575
 30
0.0
 10
-542.4909721013597
 20
2156.79204662024
 30
0.0
 10
-541.6021143845273
 20
2157.160636348847
 30
0.0
 10
-540.7132561203533
 20
2157.52922475963
 30
0.0
 10
-540.2688264586079
 20
2157.713519184658
 30
0.0
  0
CIRCLE
  5
20C
330
1F
100
AcDbEntity
  8
0
  6
Continuous
 62
     7
370
    15
100
AcDbCircle
 10
-542.5597367026
 20
2159.469955609
 30
0.0
 40
15.00000000000019
  0
SPLINE
  5
20D
330
1F
100
AcDbEntity
  8
0
  6
Continuous
 62
     7
370
    15
100
AcDbSpline
210
0.0
220
0.0
230
1.0
 70
     8
 71
     3
 72
     9
 73
     5
 74
     0
 42
0.000000001
 43
0.00000001
 40
0.0
 40
0.0
 40
0.0
 40
0.0
 40
0.5000026860849432
 40
1.0
 40
1.0
 40
1.0
 40
1.0
 10
1419.73115208372
 20
2157.713519184658
 30
0.0
 10
1419.793786463214
 20
2158.190551842193
 30
0.0
 10
1419.919054549242
 20
2159.144612031889
 30
0.0
 10
1420.044205443921
 20
2160.098687597828
 30
0.0
 10
1420.106780555094
 20
2160.575722818071
 30
0.0
  0
SPLINE
  5
20E
330
1F
100
AcDbEntity
  8
0
  6
Continuous
 62
     7
370
    15
100
AcDbSpline
210
0.0
220
0.0
230
1.0
 70
     8
 71
     3
 72
    14
 73
    10
 74
     0
 42
0.000000001
 43
0.00000001
 40
0.0
 40
0.0
 40
0.0
 40
0.0
 40
0.1720599424383605
 40
0.343805129079956
 40
0.5227812076817046
 40
0.7240193422298269
 40
0.9514546442913073
 40
0.991439171437803
 40
1.0
 40
1.0
 40
1.0
 40
1.0
 10
1420.106780555094
 20
2160.575722818071
 30
0.0
 10
1420.108718353246
 20
2160.576510476201
 30
0.0
 10
1420.112590404663
 20
2160.578084351569
 30
0.0
 10
1420.141806989316
 20
2160.590182456729
 30
0.0
 10
1420.185615642418
 20
2160.60845761757
 30
0.0
 10
1420.245456433149
 20
2160.633092120338
 30
0.0
 10
1420.295952590892
 20
2160.654297614107
 30
0.0
 10
1420.325634766258
 20
2160.666409592816
 30
0.0
 10
1420.330814970859
 20
2160.668613759173
 30
0.0
 10
1420.331728484477
 20
2160.66900245733
 30
0.0
  0
SPLINE
  5
20F
330
1F
100
AcDbEntity
  8
0
  6
Continuous
 62
     7
370
    15
100
AcDbSpline
210
0.0
220
0.0
230
1.0
 70
     8
 71
     3
 72
     9
 73
     5
 74
     0
 42
0.000000001
 43
0.00000001
 40
0.0
 40
0.0
 40
0.0
 40
0.0
 40
0.4999986045185357
 40
1.0
 40
1.0
 40
1.0
 40
1.0
 10
1420.331728484477
 20
2160.66900245733
 30
0.0
 10
1420.264345337877
 20
2160.151662183241
 30
0.0
 10
1420.129578668549
 20
2159.116978747299
 30
0.0
 10
1419.992786578164
 20
2158.082561134981
 30
0.0
 10
1419.924390342082
 20
2157.565350885311
 30
0.0
  0
SPLINE
  5
210
330
1F
100
AcDbEntity
  8
0
  6
Continuous
 62
     7
370
    15
100
AcDbSpline
210
0.0
220
0.0
230
1.0
 70
     8
 71
     3
 72
    14
 73
    10
 74
     0
 42
0.000000001
 43
0.00000001
 40
0.0
 40
0.0
 40
0.0
 40
0.0
 40
0.1719975622327977
 40
0.3436968366756006
 40
0.5228474039547947
 40
0.7237208845035793
 40
0.9515912634633773
 40
0.9913306378505051
 40
0.9999999999999999
 40
0.9999999999999999
 40
0.9999999999999999
 40
0.9999999999999999
 10
1419.73115208372
 20
2157.713519184658
 30
0.0
 10
1419.732791203628
 20
2157.712269832203
 30
0.0
 10
1419.736066600792
 20
2157.709773293989
 30
0.0
 10
1419.761144010715
 20
2157.690518801814
 30
0.0
 10
1419.798883655111
 20
2157.661612736415
 30
0.0
 10
1419.850153982399
 20
2157.622189320319
 30
0.0
 10
1419.893725247225
 20
2157.588982657097
 30
0.0
 10
1419.919159346748
 20
2157.569408610509
 30
0.0
 10
1419.923595827303
 20
2157.565967196821
 30
0.0
 10
1419.924390342082
 20
2157.565350885311
 30
0.0
  0
CIRCLE
  5
211
330
1F
100
AcDbEntity
  8
0
  6
Continuous
 62
     7
370
    15
100
AcDbCircle
 10
1417.4402632974
 20
2159.469955609
 30
0.0
 40
14.83208158365328
  0
SPLINE
  5
212
330
1F
100
AcDbEntity
  8
0
  6
Continuous
 62
     7
370
    15
100
AcDbSpline
210
0.0
220
0.0
230
1.0
 70
     8
 71
     3
 72
     9
 73
     5
 74
     0
 42
0.000000001
 43
0.00000001
 40
0.0
 40
0.0
 40
0.0
 40
0.0
 40
0.4999986045185357
 40
1.0
 40
1.0
 40
1.0
 40
1.0
 10
1414.548766639079
 20
2158.270908760646
 30
0.0
 10
1414.616149785679
 20
2158.788249034735
 30
0.0
 10
1414.750916455006
 20
2159.822932470676
 30
0.0
 10
1414.887708545391
 20
2160.857350082995
 30
0.0
 10
1414.956104781474
 20
2161.374560332665
 30
0.0
  0
SPLINE
  5
213
330
1F
100
AcDbEntity
  8
0
  6
Continuous
 62
     7
370
    15
100
AcDbSpline
210
0.0
220
0.0
230
1.0
 70
     8
 71
     3
 72
     9
 73
     5
 74
     0
 42
0.000000001
 43
0.00000001
 40
0.0
 40
0.0
 40
0.0
 40
0.0
 40
0.4999987052023287
 40
1.0
 40
1.0
 40
1.0
 40
1.0
 10
1417.032849814738
 20
2156.366304036969
 30
0.0
 10
1416.618537393357
 20
2156.683346540673
 30
0.0
 10
1415.789910404787
 20
2157.31743319011
 30
0.0
 10
1414.962481941883
 20
2157.953083021775
 30
0.0
 10
1414.548766639079
 20
2158.270908760646
 30
0.0
  0
SPLINE
  5
214
330
1F
100
AcDbEntity
  8
0
  6
Continuous
 62
     7
370
    15
100
AcDbSpline
210
0.0
220
0.0
230
1.0
 70
     8
 71
     3
 72
     9
 73
     5
 74
     0
 42
0.000000001
 43
0.00000001
 40
0.0
 40
0.0
 40
0.0
 40
0.0
 40
0.4999709664411436
 40
1.0
 40
1.0
 40
1.0
 40
1.0
 10
1419.924390342082
 20
2157.565350885311
 30
0.0
 10
1419.442691339881
 20
2157.365047670304
 30
0.0
 10
1418.479237390485
 20
2156.964417976877
 30
0.0
 10
1417.514997670194
 20
2156.565683068067
 30
0.0
 10
1417.032849814738
 20
2156.366304036969
 30
0.0
  0
SPLINE
  5
215
330
1F
100
AcDbEntity
  8
0
  6
Continuous
 62
     7
370
    15
100
AcDbSpline
210
0.0
220
0.0
230
1.0
 70
     8
 71
     3
 72
     9
 73
     5
 74
     0
 42
0.000000001
 43
0.00000001
 40
0.0
 40
0.0
 40
0.0
 40
0.0
 40
0.4999987052023287
 40
1.0
 40
1.0
 40
1.0
 40
1.0
 10
1417.847645308818
 20
2162.573607181007
 30
0.0
 10
1418.261957730198
 20
2162.256564677302
 30
0.0
 10
1419.090584718768
 20
2161.622478027866
 30
0.0
 10
1419.918013181672
 20
2160.9868281962
 30
0.0
 10
1420.331728484477
 20
2160.66900245733
 30
0.0
  0
SPLINE
  5
216
330
1F
100
AcDbEntity
  8
0
  6
Continuous
 62
     7
370
    15
100
AcDbSpline
210
0.0
220
0.0
230
1.0
 70
     8
 71
     3
 72
     9
 73
     5
 74
     0
 42
0.000000001
 43
0.00000001
 40
0.0
 40
0.0
 40
0.0
 40
0.0
 40
0.5000061349031862
 40
1.0
 40
1.0
 40
1.0
 40
1.0
 10
1414.956104781474
 20
2161.374560332665
 30
0.0
 10
1415.437846430675
 20
2161.574856541606
 30
0.0
 10
1416.401317907468
 20
2161.975444044355
 30
0.0
 10
1417.365540118641
 20
2162.374221099762
 30
0.0
 10
1417.847645308818
 20
2162.573607181007
 30
0.0
  0
SPLINE
  5
217
330
1F
100
AcDbEntity
  8
0
  6
Continuous
 62
     7
370
    15
100
AcDbSpline
210
0.0
220
0.0
230
1.0
 70
     8
 71
     3
 72
     9
 73
     5
 74
     0
 42
0.000000001
 43
0.00000001
 40
0.0
 40
0.0
 40
0.0
 40
0.0
 40
0.5000164066802115
 40
0.9999999999999999
 40
0.9999999999999999
 40
0.9999999999999999
 40
0.9999999999999999
 10
1414.773714568461
 20
2158.364188399905
 30
0.0
 10
1415.155545593047
 20
2158.071453740838
 30
0.0
 10
1415.919182584723
 20
2157.48600363329
 30
0.0
 10
1416.68277553743
 20
2156.90049612399
 30
0.0
 10
1417.064559485759
 20
2156.607751975575
 30
0.0
  0
SPLINE
  5
218
330
1F
100
AcDbEntity
  8
0
  6
Continuous
 62
     7
370
    15
100
AcDbSpline
210
0.0
220
0.0
230
1.0
 70
     8
 71
     3
 72
    14
 73
    10
 74
     0
 42
0.000000001
 43
0.00000001
 40
0.0
 40
0.0
 40
0.0
 40
0.0
 40
0.171976661798552
 40
0.3436826887241728
 40
0.5228301653349209
 40
0.723740862464872
 40
0.9513713602094186
 40
0.991236720914192
 40
1.0
 40
1.0
 40
1.0
 40
1.0
 10
1417.064559485759
 20
2156.607751975575
 30
0.0
 10
1417.064307366086
 20
2156.605715326426
 30
0.0
 10
1417.063803523494
 20
2156.601645233146
 30
0.0
 10
1417.059665512956
 20
2156.570275965057
 30
0.0
 10
1417.053388267076
 20
2156.523152618894
 30
0.0
 10
1417.045302950145
 20
2156.45899238906
 30
0.0
 10
1417.037620352411
 20
2156.404763932121
 30
0.0
 10
1417.033908010127
 20
2156.372877078749
 30
0.0
 10
1417.033011392564
 20
2156.367307686972
 30
0.0
 10
1417.032849814738
 20
2156.366304036969
 30
0.0
  0
SPLINE
  5
219
330
1F
100
AcDbEntity
  8
0
  6
Continuous
 62
     7
370
    15
100
AcDbSpline
210
0.0
220
0.0
230
1.0
 70
     8
 71
     3
 72
    14
 73
    10
 74
     0
 42
0.000000001
 43
0.00000001
 40
0.0
 40
0.0
 40
0.0
 40
0.0
 40
0.0085590803229252
 40
0.0485354420774714
 40
0.2762365000531743
 40
0.4771494166251077
 40
0.6563198111918177
 40
0.8280299250974215
 40
0.9999999999999999
 40
0.9999999999999999
 40
0.9999999999999999
 40
0.9999999999999999
 10
1414.548766639079
 20
2158.270908760646
 30
0.0
 10
1414.549680157607
 20
2158.271297452036
 30
0.0
 10
1414.554860390052
 20
2158.273501580022
 30
0.0
 10
1414.584573612551
 20
2158.285630759945
 30
0.0
 10
1414.635129842722
 20
2158.306759802364
 30
0.0
 10
1414.694886892163
 20
2158.331496301362
 30
0.0
 10
1414.73880911961
 20
2158.349711365738
 30
0.0
 10
1414.768046745184
 20
2158.36182850363
 30
0.0
 10
1414.771824341572
 20
2158.363401371239
 30
0.0
 10
1414.773714568461
 20
2158.364188399905
 30
0.0
  0
SPLINE
  5
21A
330
1F
100
AcDbEntity
  8
0
  6
Continuous
 62
     7
370
    15
100
AcDbSpline
210
0.0
220
0.0
230
1.0
 70
     8
 71
     3
 72
     9
 73
     5
 74
     0
 42
0.000000001
 43
0.00000001
 40
0.0
 40
0.0
 40
0.0
 40
0.0
 40
0.4999836423843163
 40
1.0
 40
1.0
 40
1.0
 40
1.0
 10
1420.106780555094
 20
2160.575722818071
 30
0.0
 10
1419.724996625499
 20
2160.868467068537
 30
0.0
 10
1418.961403785192
 20
2161.453974724489
 30
0.0
 10
1418.197766681117
 20
2162.039424685387
 30
0.0
 10
1417.815935637797
 20
2162.332159242401
 30
0.0
  0
SPLINE
  5
21B
330
1F
100
AcDbEntity
  8
0
  6
Continuous
 62
     7
370
    15
100
AcDbSpline
210
0.0
220
0.0
230
1.0
 70
     8
 71
     3
 72
    14
 73
    10
 74
     0
 42
0.000000001
 43
0.00000001
 40
0.0
 40
0.0
 40
0.0
 40
0.0
 40
0.0087633146777204
 40
0.0486288372949941
 40
0.2762163315651257
 40
0.4771677111990475
 40
0.656315915414296
 40
0.8280226397210929
 40
1.0
 40
1.0
 40
1.0
 40
1.0
 10
1417.847645308818
 20
2162.573607181007
 30
0.0
 10
1417.847483751209
 20
2162.572603528551
 30
0.0
 10
1417.846587245837
 20
2162.567034123161
 30
0.0
 10
1417.842865522585
 20
2162.535153549897
 30
0.0
 10
1417.835407692836
 20
2162.48089835501
 30
0.0
 10
1417.827059279751
 20
2162.416767529868
 30
0.0
 10
1417.820841225971
 20
2162.36963391654
 30
0.0
 10
1417.816688742472
 20
2162.338266313602
 30
0.0
 10
1417.81618680444
 20
2162.334196001198
 30
0.0
 10
1417.815935637797
 20
2162.332159242401
 30
0.0
  0
SPLINE
  5
21C
330
1F
100
AcDbEntity
  8
0
  6
Continuous
 62
     7
370
    15
100
AcDbSpline
210
0.0
220
0.0
230
1.0
 70
     8
 71
     3
 72
     9
 73
     5
 74
     0
 42
0.000000001
 43
0.00000001
 40
0.0
 40
0.0
 40
0.0
 40
0.0
 40
0.4999809317387499
 40
1.0
 40
1.0
 40
1.0
 40
1.0
 10
1417.815935637797
 20
2162.332159242401
 30
0.0
 10
1417.3715248658
 20
2162.147861193645
 30
0.0
 10
1416.482669423951
 20
2161.779251038625
 30
0.0
 10
1415.593796467382
 20
2161.41068305372
 30
0.0
 10
1415.149343039836
 20
2161.226392033318
 30
0.0
  0
SPLINE
  5
21D
330
1F
100
AcDbEntity
  8
0
  6
Continuous
 62
     7
370
    15
100
AcDbSpline
210
0.0
220
0.0
230
1.0
 70
     8
 71
     3
 72
    14
 73
    10
 74
     0
 42
0.000000001
 43
0.00000001
 40
0.0
 40
0.0
 40
0.0
 40
0.0
 40
0.0086693363689195
 40
0.0486798989831043
 40
0.2762812676663773
 40
0.4771541508662678
 40
0.6563041853952308
 40
0.8280029492461357
 40
1.0
 40
1.0
 40
1.0
 40
1.0
 10
1414.956104781474
 20
2161.374560332665
 30
0.0
 10
1414.956898971198
 20
2161.373943597313
 30
0.0
 10
1414.961358490802
 20
2161.370480516252
 30
0.0
 10
1414.986957649838
 20
2161.35112066379
 30
0.0
 10
1415.030304839743
 20
2161.317628128815
 30
0.0
 10
1415.081624637232
 20
2161.278315546022
 30
0.0
 10
1415.119347927816
 20
2161.249388288925
 30
0.0
 10
1415.144429306466
 20
2161.230138939527
 30
0.0
 10
1415.147704181312
 20
2161.227641724482
 30
0.0
 10
1415.149343039836
 20
2161.226392033318
 30
0.0
  0
SPLINE
  5
21E
330
1F
100
AcDbEntity
  8
0
  6
Continuous
 62
     7
370
    15
100
AcDbSpline
210
0.0
220
0.0
230
1.0
 70
     8
 71
     3
 72
     9
 73
     5
 74
     0
 42
0.000000001
 43
0.00000001
 40
0.0
 40
0.0
 40
0.0
 40
0.0
 40
0.5000026860849432
 40
1.0
 40
1.0
 40
1.0
 40
1.0
 10
1415.149343039836
 20
2161.226392033318
 30
0.0
 10
1415.086708660341
 20
2160.749359375783
 30
0.0
 10
1414.961440574313
 20
2159.795299186088
 30
0.0
 10
1414.836289679634
 20
2158.841223620147
 30
0.0
 10
1414.773714568461
 20
2158.364188399905
 30
0.0
  0
SPLINE
  5
21F
330
1F
100
AcDbEntity
  8
0
  6
Continuous
 62
     7
370
    15
100
AcDbSpline
210
0.0
220
0.0
230
1.0
 70
     8
 71
     3
 72
     9
 73
     5
 74
     0
 42
0.000000001
 43
0.00000001
 40
0.0
 40
0.0
 40
0.0
 40
0.0
 40
0.5000190682612501
 40
1.0
 40
1.0
 40
1.0
 40
1.0
 10
1417.064559485759
 20
2156.607751975575
 30
0.0
 10
1417.509012913305
 20
2156.792042995978
 30
0.0
 10
1418.397885869875
 20
2157.160610980882
 30
0.0
 10
1419.286741311723
 20
2157.529221135903
 30
0.0
 10
1419.73115208372
 20
2157.713519184658
 30
0.0
  0
CIRCLE
  5
220
330
1F
100
AcDbEntity
  8
0
  6
Continuous
 62
     7
370
    15
100
AcDbCircle
 10
1417.4402632974
 20
2159.469955609
 30
0.0
 40
15.00000000000022
  0
LINE
  5
221
330
1F
100
AcDbEntity
  8
0
  6
Continuous
 62
     7
370
    15
100
AcDbLine
 10
-544.7179257609
 20
2158.6480397464
 30
0.0
 11
-542.9270334281
 21
2157.1899496566
 31
0.0
  0
LINE
  5
222
330
1F
100
AcDbEntity
  8
0
  6
Continuous
 62
     7
370
    15
100
AcDbLine
 10
-544.3506307639
 20
2160.9280457569
 30
0.0
 11
-542.1924397089
 21
2161.7499615613
 31
0.0
  0
LINE
  5
223
330
1F
100
AcDbEntity
  8
0
  6
Continuous
 62
     7
370
    15
100
AcDbLine
 10
-544.3506307639
 20
2160.9280457569
 30
0.0
 11
-544.7179257609
 21
2158.6480397464
 31
0.0
  0
LINE
  5
224
330
1F
100
AcDbEntity
  8
0
  6
Continuous
 62
     7
370
    15
100
AcDbLine
 10
-540.768842373
 20
2158.0118654611
 30
0.0
 11
-542.9270334281
 21
2157.1899496566
 31
0.0
  0
LINE
  5
225
330
1F
100
AcDbEntity
  8
0
  6
Continuous
 62
     7
370
    15
100
AcDbLine
 10
-540.4015473761
 20
2160.2918714716
 30
0.0
 11
-540.768842373
 21
2158.0118654611
 31
0.0
  0
LINE
  5
226
330
1F
100
AcDbEntity
  8
0
  6
Continuous
 62
     7
370
    15
100
AcDbLine
 10
-540.4015473761
 20
2160.2918714716
 30
0.0
 11
-542.1924397089
 21
2161.7499615613
 31
0.0
  0
LINE
  5
227
330
1F
100
AcDbEntity
  8
0
  6
Continuous
 62
     7
370
    15
100
AcDbLine
 10
1419.5984721444
 20
2160.2918714716
 30
0.0
 11
1417.8075909875
 21
2161.7499615613
 31
0.0
  0
LINE
  5
228
330
1F
100
AcDbEntity
  8
0
  6
Continuous
 62
     7
370
    15
100
AcDbLine
 10
1415.6494260095
 20
2160.9280457569
 30
0.0
 11
1415.2820229791
 21
2158.6480397464
 31
0.0
  0
LINE
  5
229
330
1F
100
AcDbEntity
  8
0
  6
Continuous
 62
     7
370
    15
100
AcDbLine
 10
1419.2311883233
 20
2158.0118654611
 30
0.0
 11
1417.0730233453
 21
2157.1899496566
 31
0.0
  0
LINE
  5
22A
330
1F
100
AcDbEntity
  8
0
  6
Continuous
 62
     7
370
    15
100
AcDbLine
 10
1419.5984721444
 20
2160.2918714716
 30
0.0
 11
1419.2311883233
 21
2158.0118654611
 31
0.0
  0
LINE
  5
22B
330
1F
100
AcDbEntity
  8
0
  6
Continuous
 62
     7
370
    15
100
AcDbLine
 10
1415.6494260095
 20
2160.9280457569
 30
0.0
 11
1417.8075909875
 21
2161.7499615613
 31
0.0
  0
LINE
  5
22C
330
1F
100
AcDbEntity
  8
0
  6
Continuous
 62
     7
370
    15
100
AcDbLine
 10
1415.2820229791
 20
2158.6480397464
 30
0.0
 11
1417.0730233453
 21
2157.1899496566
 31
0.0
  0
CIRCLE
  5
22D
330
1F
100
AcDbEntity
  8
0
  6
Continuous
 62
     7
370
    15
100
AcDbCircle
 10
1417.4402632974
 20
2159.469955609
 30
0.0
 40
20.00000000000009
  0
CIRCLE
  5
22E
330
1F
100
AcDbEntity
  8
0
  6
Continuous
 62
     7
370
    15
100
AcDbCircle
 10
-542.5597367026
 20
2159.469955609
 30
0.0
 40
20.00000000000009
  0
LINE
  5
22F
330
1F
100
AcDbEntity
  8
0
  6
Continuous
 62
     8
370
    15
100
AcDbLine
 10
262.716305282
 20
69.4700414397
 30
0.0
 11
262.7056956552
 21
66.9437581755
 31
0.0
  0
LINE
  5
230
330
1F
100
AcDbEntity
  8
0
  6
Continuous
 62
     8
370
    15
100
AcDbLine
 10
289.164197471
 20
69.4700414397
 30
0.0
 11
289.1748070978
 21
66.9437581755
 31
0.0
  0
LINE
  5
231
330
1F
100
AcDbEntity
  8
0
  6
Continuous
 62
     8
370
    15
100
AcDbLine
 10
289.1748070978
 20
66.9437581755
 30
0.0
 11
289.9145603441
 21
66.9437581755
 31
0.0
  0
LINE
  5
232
330
1F
100
AcDbEntity
  8
0
  6
Continuous
 62
     8
370
    15
100
AcDbLine
 10
261.9660020135
 20
66.9437581755
 30
0.0
 11
262.7056956552
 21
66.9437581755
 31
0.0
  0
LINE
  5
233
330
1F
100
AcDbEntity
  8
0
  6
Continuous
 62
     7
370
    15
100
AcDbLine
 10
-1025.1860856524
 20
2166.9699554414
 30
0.0
 11
-1039.6860857008
 21
2166.9699554414
 31
0.0
  0
LINE
  5
234
330
1F
100
AcDbEntity
  8
0
  6
Continuous
 62
     7
370
    15
100
AcDbLine
 10
-1039.6860857008
 20
2151.9699557766
 30
0.0
 11
-1025.1860856524
 21
2151.9699557766
 31
0.0
  0
LINE
  5
235
330
1F
100
AcDbEntity
  8
0
  6
Continuous
 62
     7
370
    15
100
AcDbLine
 10
-1021.1860854624
 20
2189.4699549384
 30
0.0
 11
-1023.1860855574
 21
2189.4699549384
 31
0.0
  0
LINE
  5
236
330
1F
100
AcDbEntity
  8
0
  6
Continuous
 62
     7
370
    15
100
AcDbLine
 10
-1023.1860855574
 20
2129.4699562795
 30
0.0
 11
-1021.1860854624
 21
2129.4699562795
 31
0.0
  0
LINE
  5
237
330
1F
100
AcDbEntity
  8
0
  6
Continuous
 62
     7
370
    15
100
AcDbLine
 10
-1023.1860855574
 20
2189.4699549384
 30
0.0
 11
-1025.1860856524
 21
2174.4699552737
 31
0.0
  0
LINE
  5
238
330
1F
100
AcDbEntity
  8
0
  6
Continuous
 62
     7
370
    15
100
AcDbLine
 10
-1025.1860856524
 20
2144.4699559443
 30
0.0
 11
-1023.1860855574
 21
2129.4699562795
 31
0.0
  0
LINE
  5
239
330
1F
100
AcDbEntity
  8
0
  6
Continuous
 62
     7
370
    15
100
AcDbLine
 10
-1049.1860863266
 20
2166.9199555263
 30
0.0
 11
-1058.9860845802
 21
2166.9199555263
 31
0.0
  0
LINE
  5
23A
330
1F
100
AcDbEntity
  8
0
  6
Continuous
 62
     7
370
    15
100
AcDbLine
 10
-1058.9860845802
 20
2152.0199556917
 30
0.0
 11
-1049.1860863266
 21
2152.0199556917
 31
0.0
  0
LWPOLYLINE
  5
23B
330
1F
100
AcDbEntity
  8
0
  6
Continuous
 62
     7
370
    15
100
AcDbPolyline
 90
        3
 70
   128
 43
0.0
 10
-1049.1860863266
 20
2152.0199556917
 10
-1048.4057236908
 20
2152.0968144841
 10
-1048.1526609955
 20
2152.1557569586
  0
LWPOLYLINE
  5
23C
330
1F
100
AcDbEntity
  8
0
  6
Continuous
 62
     7
370
    15
100
AcDbPolyline
 90
        3
 70
   128
 43
0.0
 10
-1048.1526609955
 20
2166.7841542594
 10
-1048.4057236908
 20
2166.8430967338
 10
-1049.1860863266
 20
2166.9199555263
  0
LINE
  5
23D
330
1F
100
AcDbEntity
  8
0
  6
Continuous
 62
     7
370
    15
100
AcDbLine
 10
-1059.3860839007
 20
2166.9199555263
 30
0.0
 11
-1063.0852412877
 21
2166.9199555263
 31
0.0
  0
LINE
  5
23E
330
1F
100
AcDbEntity
  8
0
  6
Continuous
 62
     7
370
    15
100
AcDbLine
 10
-1065.7233912943
 20
2166.9199555263
 30
0.0
 11
-1065.784907013
 21
2166.9199555263
 31
0.0
  0
LINE
  5
23F
330
1F
100
AcDbEntity
  8
0
  6
Continuous
 62
     7
370
    15
100
AcDbLine
 10
-1065.8192765413
 20
2152.0199556917
 30
0.0
 11
-1065.7233912943
 21
2152.0199556917
 31
0.0
  0
LINE
  5
240
330
1F
100
AcDbEntity
  8
0
  6
Continuous
 62
     7
370
    15
100
AcDbLine
 10
-1063.0852412877
 20
2152.0199556917
 30
0.0
 11
-1059.3860839007
 21
2152.0199556917
 31
0.0
  0
LINE
  5
241
330
1F
100
AcDbEntity
  8
0
  6
Continuous
 62
     7
370
    15
100
AcDbLine
 10
-1058.9860845802
 20
2166.9199555263
 30
0.0
 11
-1059.1860842405
 21
2166.7199554004
 31
0.0
  0
LINE
  5
242
330
1F
100
AcDbEntity
  8
0
  6
Continuous
 62
     7
370
    15
100
AcDbLine
 10
-1059.1860842405
 20
2152.2199558176
 30
0.0
 11
-1058.9860845802
 21
2152.0199556917
 31
0.0
  0
LINE
  5
243
330
1F
100
AcDbEntity
  8
0
  6
Continuous
 62
     7
370
    15
100
AcDbLine
 10
-1059.3860839007
 20
2152.0199556917
 30
0.0
 11
-1059.1860842405
 21
2152.2199558176
 31
0.0
  0
LINE
  5
244
330
1F
100
AcDbEntity
  8
0
  6
Continuous
 62
     7
370
    15
100
AcDbLine
 10
-1059.1860842405
 20
2166.7199554004
 30
0.0
 11
-1059.3860839007
 21
2166.9199555263
 31
0.0
  0
LINE
  5
245
330
1F
100
AcDbEntity
  8
0
  6
Continuous
 62
     7
370
    15
100
AcDbLine
 10
-1035.3560848607
 20
2024.4699502446
 30
0.0
 11
-1036.686085209
 21
2024.4699502446
 31
0.0
  0
LINE
  5
246
330
1F
100
AcDbEntity
  8
0
  6
Continuous
 62
     7
370
    15
100
AcDbLine
 10
-1036.686085209
 20
1994.4699490525
 30
0.0
 11
-1035.3560848607
 21
1994.4699490525
 31
0.0
  0
ARC
  5
247
330
1F
100
AcDbEntity
  8
0
  6
Continuous
 62
     7
370
    15
100
AcDbCircle
 10
-1035.3560846137
 20
1994.669955609
 30
0.0
 40
0.2000000000000455
100
AcDbArc
 50
270.0
 51
350.7694259591
  0
ARC
  5
248
330
1F
100
AcDbEntity
  8
0
  6
Continuous
 62
     7
370
    15
100
AcDbCircle
 10
-1035.3560846137
 20
2024.269955609
 30
0.0
 40
0.2000000000005002
100
AcDbArc
 50
9.2305740409
 51
90.0
  0
ARC
  5
249
330
1F
100
AcDbEntity
  8
0
  6
Continuous
 62
     7
370
    15
100
AcDbCircle
 10
-1153.6047715446
 20
2013.8868242172
 30
0.0
 40
120.0
100
AcDbArc
 50
350.7694259592
 51
356.5941671982
  0
ARC
  5
24A
330
1F
100
AcDbEntity
  8
0
  6
Continuous
 62
     7
370
    15
100
AcDbCircle
 10
-1153.6047715446
 20
2005.0530870008
 30
0.0
 40
119.9999999999999
100
AcDbArc
 50
3.4052649687
 51
9.2305740408
  0
LINE
  5
24B
330
1F
100
AcDbEntity
  8
0
  6
Continuous
 62
     7
370
    15
100
AcDbLine
 10
-1035.3560848607
 20
2079.4699573971
 30
0.0
 11
-1036.686085209
 21
2079.4699573971
 31
0.0
  0
LINE
  5
24C
330
1F
100
AcDbEntity
  8
0
  6
Continuous
 62
     7
370
    15
100
AcDbLine
 10
-1036.686085209
 20
2049.469956205
 30
0.0
 11
-1035.3560848607
 21
2049.469956205
 31
0.0
  0
ARC
  5
24D
330
1F
100
AcDbEntity
  8
0
  6
Continuous
 62
     7
370
    15
100
AcDbCircle
 10
-1035.3560846137
 20
2049.669955609
 30
0.0
 40
0.1999999999998545
100
AcDbArc
 50
270.0
 51
350.7694259592
  0
ARC
  5
24E
330
1F
100
AcDbEntity
  8
0
  6
Continuous
 62
     7
370
    15
100
AcDbCircle
 10
-1035.3560846137
 20
2079.269955609
 30
0.0
 40
0.2000000000002728
100
AcDbArc
 50
9.2305740408
 51
90.0
  0
ARC
  5
24F
330
1F
100
AcDbEntity
  8
0
  6
Continuous
 62
     7
370
    15
100
AcDbCircle
 10
-1153.6047715446
 20
2068.8868242172
 30
0.0
 40
120.0
100
AcDbArc
 50
350.7694259592
 51
356.5682886376
  0
ARC
  5
250
330
1F
100
AcDbEntity
  8
0
  6
Continuous
 62
     7
370
    15
100
AcDbCircle
 10
-1153.6047715446
 20
2060.0530870008
 30
0.0
 40
119.9999999999999
100
AcDbArc
 50
3.4311865111
 51
9.2305740408
  0
ARC
  5
251
330
1F
100
AcDbEntity
  8
0
  6
Continuous
 62
     7
370
    15
100
AcDbCircle
 10
-1043.3560846137
 20
2183.169955609
 30
0.0
 40
0.1999999999998545
100
AcDbArc
 50
270.0
 51
350.7694259592
  0
ARC
  5
252
330
1F
100
AcDbEntity
  8
0
  6
Continuous
 62
     7
370
    15
100
AcDbCircle
 10
-1043.3560846137
 20
2212.769955609
 30
0.0
 40
0.1999999999998545
100
AcDbArc
 50
9.2305740408
 51
90.0
  0
ARC
  5
253
330
1F
100
AcDbEntity
  8
0
  6
Continuous
 62
     7
370
    15
100
AcDbCircle
 10
-1044.4860854624
 20
2212.769955609
 30
0.0
 40
0.2000000000000455
100
AcDbArc
 50
90.0
 51
180.0
  0
ARC
  5
254
330
1F
100
AcDbEntity
  8
0
  6
Continuous
 62
     7
370
    15
100
AcDbCircle
 10
-1044.4860854624
 20
2183.169955609
 30
0.0
 40
0.2000000000000455
100
AcDbArc
 50
180.0
 51
270.0
  0
LINE
  5
255
330
1F
100
AcDbEntity
  8
0
  6
Continuous
 62
     7
370
    15
100
AcDbLine
 10
-1043.3560852406
 20
2212.9699559964
 30
0.0
 11
-1044.4860849974
 21
2212.9699559964
 31
0.0
  0
LINE
  5
256
330
1F
100
AcDbEntity
  8
0
  6
Continuous
 62
     7
370
    15
100
AcDbLine
 10
-1044.4860849974
 20
2182.9699548043
 30
0.0
 11
-1043.3560852406
 21
2182.9699548043
 31
0.0
  0
ARC
  5
257
330
1F
100
AcDbEntity
  8
0
  6
Continuous
 62
     7
370
    15
100
AcDbCircle
 10
-1161.6047715446
 20
2202.3868242172
 30
0.0
 40
119.9999999999999
100
AcDbArc
 50
350.7694259592
 51
356.6401360393
  0
ARC
  5
258
330
1F
100
AcDbEntity
  8
0
  6
Continuous
 62
     7
370
    15
100
AcDbCircle
 10
-1161.6047715446
 20
2193.5530870008
 30
0.0
 40
119.9999999999999
100
AcDbArc
 50
3.3591950662
 51
9.2305740408
  0
ARC
  5
259
330
1F
100
AcDbEntity
  8
0
  6
Continuous
 62
     7
370
    15
100
AcDbCircle
 10
-1044.8860854624
 20
2207.919955609
 30
0.0
 40
0.2000000000002728
100
AcDbArc
 50
270.0
 51
0.0
  0
ARC
  5
25A
330
1F
100
AcDbEntity
  8
0
  6
Continuous
 62
     7
370
    15
100
AcDbCircle
 10
-1044.8860854624
 20
2188.019955609
 30
0.0
 40
0.2000000000000455
100
AcDbArc
 50
0.0
 51
90.0
  0
LINE
  5
25B
330
1F
100
AcDbEntity
  8
0
  6
Continuous
 62
     7
370
    15
100
AcDbLine
 10
-1044.8860861806
 20
2207.7199565329
 30
0.0
 11
-1045.186085671
 21
2207.7199565329
 31
0.0
  0
LINE
  5
25C
330
1F
100
AcDbEntity
  8
0
  6
Continuous
 62
     7
370
    15
100
AcDbLine
 10
-1045.186085671
 20
2188.2199561305
 30
0.0
 11
-1044.8860861806
 21
2188.2199561305
 31
0.0
  0
LINE
  5
25D
330
1F
100
AcDbEntity
  8
0
  6
Continuous
 62
     7
370
    15
100
AcDbLine
 10
-1076.4860865174
 20
2212.9699559964
 30
0.0
 11
-1076.6860861776
 21
2212.7699563362
 31
0.0
  0
LINE
  5
25E
330
1F
100
AcDbEntity
  8
0
  6
Continuous
 62
     7
370
    15
100
AcDbLine
 10
-1076.6860861776
 20
2183.1699563272
 30
0.0
 11
-1076.4860865174
 21
2182.9699548043
 31
0.0
  0
LINE
  5
25F
330
1F
100
AcDbEntity
  8
0
  6
Continuous
 62
     7
370
    15
100
AcDbLine
 10
-1076.4860865174
 20
2182.9699548043
 30
0.0
 11
-1072.8860851822
 21
2182.9699548043
 31
0.0
  0
LINE
  5
260
330
1F
100
AcDbEntity
  8
0
  6
Continuous
 62
     7
370
    15
100
AcDbLine
 10
-1072.8860851822
 20
2212.9699559964
 30
0.0
 11
-1076.4860865174
 21
2212.9699559964
 31
0.0
  0
LINE
  5
261
330
1F
100
AcDbEntity
  8
0
  6
Continuous
 62
     7
370
    15
100
AcDbLine
 10
-1072.8860851822
 20
2182.9699548043
 30
0.0
 11
-1072.686085522
 21
2183.1699563272
 31
0.0
  0
LINE
  5
262
330
1F
100
AcDbEntity
  8
0
  6
Continuous
 62
     7
370
    15
100
AcDbLine
 10
-1072.686085522
 20
2212.7699563362
 30
0.0
 11
-1072.8860851822
 21
2212.9699559964
 31
0.0
  0
LINE
  5
263
330
1F
100
AcDbEntity
  8
0
  6
Continuous
 62
     7
370
    15
100
AcDbLine
 10
-1048.6860853133
 20
2129.9699554302
 30
0.0
 11
-1047.6860851494
 21
2130.9699555941
 31
0.0
  0
LINE
  5
264
330
1F
100
AcDbEntity
  8
0
  6
Continuous
 62
     7
370
    15
100
AcDbLine
 10
-1076.4860865174
 20
2129.9699554302
 30
0.0
 11
-1048.6860853133
 21
2129.9699554302
 31
0.0
  0
LINE
  5
265
330
1F
100
AcDbEntity
  8
0
  6
Continuous
 62
     7
370
    15
100
AcDbLine
 10
-1076.6860861776
 20
2130.1699550904
 30
0.0
 11
-1076.4860865174
 21
2129.9699554302
 31
0.0
  0
LINE
  5
266
330
1F
100
AcDbEntity
  8
0
  6
Continuous
 62
     7
370
    15
100
AcDbLine
 10
-1045.2860855011
 20
2226.9699582912
 30
0.0
 11
-1046.6860849855
 21
2226.9699582912
 31
0.0
  0
LINE
  5
267
330
1F
100
AcDbEntity
  8
0
  6
Continuous
 62
     7
370
    15
100
AcDbLine
 10
-1045.186085671
 20
2226.8699565984
 30
0.0
 11
-1045.2860855011
 21
2226.9699582912
 31
0.0
  0
LINE
  5
268
330
1F
100
AcDbEntity
  8
0
  6
Continuous
 62
     7
370
    15
100
AcDbLine
 10
-1066.0860855577
 20
2226.9699582912
 30
0.0
 11
-1066.1860872505
 21
2226.8699565984
 31
0.0
  0
LINE
  5
269
330
1F
100
AcDbEntity
  8
0
  6
Continuous
 62
     7
370
    15
100
AcDbLine
 10
-1064.6860842107
 20
2226.9699582912
 30
0.0
 11
-1066.0860855577
 21
2226.9699582912
 31
0.0
  0
LINE
  5
26A
330
1F
100
AcDbEntity
  8
0
  6
Continuous
 62
     7
370
    15
100
AcDbLine
 10
-1047.5620478837
 20
2168.9699553035
 30
0.0
 11
-1047.4867355523
 21
2168.9699553035
 31
0.0
  0
LINE
  5
26B
330
1F
100
AcDbEntity
  8
0
  6
Continuous
 62
     7
370
    15
100
AcDbLine
 10
-1046.6860849855
 20
2226.9699582912
 30
0.0
 11
-1047.7065146414
 21
2226.9699582912
 31
0.0
  0
LINE
  5
26C
330
1F
100
AcDbEntity
  8
0
  6
Continuous
 62
     7
370
    15
100
AcDbLine
 10
-1063.7177583275
 20
2226.9699582912
 30
0.0
 11
-1064.6860842107
 21
2226.9699582912
 31
0.0
  0
ARC
  5
26D
330
1F
100
AcDbEntity
  8
0
  6
Continuous
 62
     7
370
    15
100
AcDbCircle
 10
-1055.7121368856
 20
2236.569955609
 30
0.0
 40
12.49999999999971
100
AcDbArc
 50
230.1746287392
 51
309.8253712608
  0
ARC
  5
26E
330
1F
100
AcDbEntity
  8
0
  6
Continuous
 62
     7
370
    15
100
AcDbCircle
 10
-1084.0176981647
 20
2021.769955609
 30
0.0
 40
0.1999999999999554
100
AcDbArc
 50
90.0
 51
170.2307482567
  0
ARC
  5
26F
330
1F
100
AcDbEntity
  8
0
  6
Continuous
 62
     7
370
    15
100
AcDbCircle
 10
-1084.0176981647
 20
1997.169955609
 30
0.0
 40
0.1999999999998782
100
AcDbArc
 50
189.7692517431
 51
270.0
  0
LINE
  5
270
330
1F
100
AcDbEntity
  8
0
  6
Continuous
 62
     7
370
    15
100
AcDbLine
 10
-1084.0176959036
 20
1996.9699615695
 30
0.0
 11
-1082.6860871611
 21
1996.9699615695
 31
0.0
  0
LINE
  5
271
330
1F
100
AcDbEntity
  8
0
  6
Continuous
 62
     7
370
    15
100
AcDbLine
 10
-1082.6860871611
 20
2021.9699526288
 30
0.0
 11
-1084.0176959036
 21
2021.9699526288
 31
0.0
  0
ARC
  5
272
330
1F
100
AcDbEntity
  8
0
  6
Continuous
 62
     7
370
    15
100
AcDbCircle
 10
-965.9549058741
 20
2001.4422140584
 30
0.0
 40
120.0000000000001
100
AcDbArc
 50
170.2307482568
 51
176.16417102
  0
ARC
  5
273
330
1F
100
AcDbEntity
  8
0
  6
Continuous
 62
     7
370
    15
100
AcDbCircle
 10
-965.9549058741
 20
2017.4976971596
 30
0.0
 40
120.0000000000001
100
AcDbArc
 50
183.83582898
 51
189.7692517432
  0
ARC
  5
274
330
1F
100
AcDbEntity
  8
0
  6
Continuous
 62
     7
370
    15
100
AcDbCircle
 10
-1084.0176981647
 20
2076.769955609
 30
0.0
 40
0.1999999999998782
100
AcDbArc
 50
90.0
 51
170.2307482569
  0
ARC
  5
275
330
1F
100
AcDbEntity
  8
0
  6
Continuous
 62
     7
370
    15
100
AcDbCircle
 10
-1084.0176981647
 20
2052.169955609
 30
0.0
 40
0.2000000000002728
100
AcDbArc
 50
189.7692517433
 51
270.0
  0
LINE
  5
276
330
1F
100
AcDbEntity
  8
0
  6
Continuous
 62
     7
370
    15
100
AcDbLine
 10
-1084.0176959036
 20
2051.9699538208
 30
0.0
 11
-1082.6860871611
 21
2051.9699538208
 31
0.0
  0
LINE
  5
277
330
1F
100
AcDbEntity
  8
0
  6
Continuous
 62
     7
370
    15
100
AcDbLine
 10
-1082.6860871611
 20
2076.9699523307
 30
0.0
 11
-1084.0176959036
 21
2076.9699523307
 31
0.0
  0
ARC
  5
278
330
1F
100
AcDbEntity
  8
0
  6
Continuous
 62
     7
370
    15
100
AcDbCircle
 10
-965.9549058741
 20
2056.4422140584
 30
0.0
 40
120.0
100
AcDbArc
 50
170.2307482568
 51
176.16417102
  0
ARC
  5
279
330
1F
100
AcDbEntity
  8
0
  6
Continuous
 62
     7
370
    15
100
AcDbCircle
 10
-965.9549058741
 20
2072.4976971596
 30
0.0
 40
120.0
100
AcDbArc
 50
183.83582898
 51
189.7692517432
  0
LINE
  5
27A
330
1F
100
AcDbEntity
  8
0
  6
Continuous
 62
     7
370
    15
100
AcDbLine
 10
-1084.0176959036
 20
2125.4699537612
 30
0.0
 11
-1082.6860871611
 21
2125.4699537612
 31
0.0
  0
LINE
  5
27B
330
1F
100
AcDbEntity
  8
0
  6
Continuous
 62
     7
370
    15
100
AcDbLine
 10
-1082.6860871611
 20
2150.4699559964
 30
0.0
 11
-1084.0176959036
 21
2150.4699559964
 31
0.0
  0
ARC
  5
27C
330
1F
100
AcDbEntity
  8
0
  6
Continuous
 62
     7
370
    15
100
AcDbCircle
 10
-1084.0176981647
 20
2150.269955609
 30
0.0
 40
0.1999999999999554
100
AcDbArc
 50
90.0
 51
170.2307482567
  0
ARC
  5
27D
330
1F
100
AcDbEntity
  8
0
  6
Continuous
 62
     7
370
    15
100
AcDbCircle
 10
-1084.0176981647
 20
2125.669955609
 30
0.0
 40
0.2000000000002728
100
AcDbArc
 50
189.7692517433
 51
270.0
  0
ARC
  5
27E
330
1F
100
AcDbEntity
  8
0
  6
Continuous
 62
     7
370
    15
100
AcDbCircle
 10
-965.9549058741
 20
2129.9422140584
 30
0.0
 40
120.0000000000001
100
AcDbArc
 50
170.2307482568
 51
176.16417102
  0
ARC
  5
27F
330
1F
100
AcDbEntity
  8
0
  6
Continuous
 62
     7
370
    15
100
AcDbCircle
 10
-965.9549058741
 20
2145.9976971596
 30
0.0
 40
120.0000000000001
100
AcDbArc
 50
183.83582898
 51
189.7692517432
  0
ARC
  5
280
330
1F
100
AcDbEntity
  8
0
  6
Continuous
 62
     7
370
    15
100
AcDbCircle
 10
-1084.0176981647
 20
2210.269955609
 30
0.0
 40
0.1999999999998782
100
AcDbArc
 50
90.0
 51
170.2307482569
  0
ARC
  5
281
330
1F
100
AcDbEntity
  8
0
  6
Continuous
 62
     7
370
    15
100
AcDbCircle
 10
-1084.0176981647
 20
2185.669955609
 30
0.0
 40
0.2000000000002728
100
AcDbArc
 50
189.7692517434
 51
270.0
  0
LINE
  5
282
330
1F
100
AcDbEntity
  8
0
  6
Continuous
 62
     7
370
    15
100
AcDbLine
 10
-1084.0176959036
 20
2185.4699561454
 30
0.0
 11
-1082.6860871611
 21
2185.4699561454
 31
0.0
  0
LINE
  5
283
330
1F
100
AcDbEntity
  8
0
  6
Continuous
 62
     7
370
    15
100
AcDbLine
 10
-1082.6860871611
 20
2210.4699546553
 30
0.0
 11
-1084.0176959036
 21
2210.4699546553
 31
0.0
  0
ARC
  5
284
330
1F
100
AcDbEntity
  8
0
  6
Continuous
 62
     7
370
    15
100
AcDbCircle
 10
-965.9549058741
 20
2189.9422140584
 30
0.0
 40
120.0000000000001
100
AcDbArc
 50
170.2307482568
 51
176.16417102
  0
ARC
  5
285
330
1F
100
AcDbEntity
  8
0
  6
Continuous
 62
     7
370
    15
100
AcDbCircle
 10
-965.9549058741
 20
2205.9976971596
 30
0.0
 40
120.0000000000001
100
AcDbArc
 50
183.83582898
 51
189.7692517432
  0
LINE
  5
286
330
1F
100
AcDbEntity
  8
0
  6
Continuous
 62
     7
370
    15
100
AcDbLine
 10
-1076.6860861776
 20
2212.7699563362
 30
0.0
 11
-1076.8860858379
 21
2212.9699559964
 31
0.0
  0
LINE
  5
287
330
1F
100
AcDbEntity
  8
0
  6
Continuous
 62
     7
370
    15
100
AcDbLine
 10
-1076.8860858379
 20
2212.9699559964
 30
0.0
 11
-1082.4860837755
 21
2212.9699559964
 31
0.0
  0
LINE
  5
288
330
1F
100
AcDbEntity
  8
0
  6
Continuous
 62
     7
370
    15
100
AcDbLine
 10
-1082.6860871611
 20
1991.1699527956
 30
0.0
 11
-1082.4860837755
 21
1990.9699494101
 31
0.0
  0
LINE
  5
289
330
1F
100
AcDbEntity
  8
0
  6
Continuous
 62
     7
370
    15
100
AcDbLine
 10
-1076.8860858379
 20
1990.9699494101
 30
0.0
 11
-1076.6860861776
 21
1991.1699527956
 31
0.0
  0
LINE
  5
28A
330
1F
100
AcDbEntity
  8
0
  6
Continuous
 62
     7
370
    15
100
AcDbLine
 10
-1078.0567098854
 20
1990.9699494101
 30
0.0
 11
-1076.8860858379
 21
1990.9699494101
 31
0.0
  0
LINE
  5
28B
330
1F
100
AcDbEntity
  8
0
  6
Continuous
 62
     7
370
    15
100
AcDbLine
 10
-1082.4860837755
 20
1990.9699494101
 30
0.0
 11
-1081.3360866604
 21
1990.9699494101
 31
0.0
  0
LINE
  5
28C
330
1F
100
AcDbEntity
  8
0
  6
Continuous
 62
     7
370
    15
100
AcDbLine
 10
-1082.4860837755
 20
2212.9699559964
 30
0.0
 11
-1082.6860871611
 21
2212.7699563362
 31
0.0
  0
LINE
  5
28D
330
1F
100
AcDbEntity
  8
0
  6
Continuous
 62
     7
370
    15
100
AcDbLine
 10
-1066.9860858915
 20
2182.9699548043
 30
0.0
 11
-1066.6860845385
 21
2183.2699561574
 31
0.0
  0
LINE
  5
28E
330
1F
100
AcDbEntity
  8
0
  6
Continuous
 62
     7
370
    15
100
AcDbLine
 10
-1066.6860845385
 20
2212.6699546434
 30
0.0
 11
-1066.9860858915
 21
2212.9699559964
 31
0.0
  0
LINE
  5
28F
330
1F
100
AcDbEntity
  8
0
  6
Continuous
 62
     7
370
    15
100
AcDbLine
 10
-1072.3860841689
 20
2182.9699548043
 30
0.0
 11
-1066.9860858915
 21
2182.9699548043
 31
0.0
  0
LINE
  5
290
330
1F
100
AcDbEntity
  8
0
  6
Continuous
 62
     7
370
    15
100
AcDbLine
 10
-1066.9860858915
 20
2212.9699559964
 30
0.0
 11
-1072.3860841689
 21
2212.9699559964
 31
0.0
  0
LINE
  5
291
330
1F
100
AcDbEntity
  8
0
  6
Continuous
 62
     7
370
    15
100
AcDbLine
 10
-1072.3860841689
 20
2212.9699559964
 30
0.0
 11
-1072.686085522
 21
2212.6699546434
 31
0.0
  0
LINE
  5
292
330
1F
100
AcDbEntity
  8
0
  6
Continuous
 62
     7
370
    15
100
AcDbLine
 10
-1072.686085522
 20
2183.2699561574
 30
0.0
 11
-1072.3860841689
 21
2182.9699548043
 31
0.0
  0
LINE
  5
293
330
1F
100
AcDbEntity
  8
0
  6
Continuous
 62
     7
370
    15
100
AcDbLine
 10
-1066.6860845385
 20
2188.2199561305
 30
0.0
 11
-1066.1860872505
 21
2188.2199561305
 31
0.0
  0
LINE
  5
294
330
1F
100
AcDbEntity
  8
0
  6
Continuous
 62
     7
370
    15
100
AcDbLine
 10
-1066.1860872505
 20
2207.7199565329
 30
0.0
 11
-1066.6860845385
 21
2207.7199565329
 31
0.0
  0
ARC
  5
295
330
1F
100
AcDbEntity
  8
0
  6
Continuous
 62
     7
370
    15
100
AcDbCircle
 10
-1052.6238702932
 20
66.969955609
 30
0.0
 40
1.500000000000057
100
AcDbArc
 50
181.0
 51
270.0
  0
ARC
  5
296
330
1F
100
AcDbEntity
  8
0
  6
Continuous
 62
     7
370
    15
100
AcDbCircle
 10
-1060.7483006315
 20
66.969955609
 30
0.0
 40
1.500000000000057
100
AcDbArc
 50
270.0
 51
359.0
  0
LINE
  5
297
330
1F
100
AcDbEntity
  8
0
  6
Continuous
 62
     7
370
    15
100
AcDbLine
 10
-1054.1236419676
 20
66.9437581755
 30
0.0
 11
-1054.3514732716
 21
79.996221707
 31
0.0
  0
LINE
  5
298
330
1F
100
AcDbEntity
  8
0
  6
Continuous
 62
     7
370
    15
100
AcDbLine
 10
-1059.0206999777
 20
79.996221707
 30
0.0
 11
-1059.2485275564
 21
66.9437581755
 31
0.0
  0
ARC
  5
299
330
1F
100
AcDbEntity
  8
0
  6
Continuous
 62
     7
370
    15
100
AcDbCircle
 10
-1055.8512431214
 20
79.969955609
 30
0.0
 40
1.500000000000057
100
AcDbArc
 50
1.0
 51
90.0
  0
ARC
  5
29A
330
1F
100
AcDbEntity
  8
0
  6
Continuous
 62
     7
370
    15
100
AcDbCircle
 10
-1057.5209278033
 20
79.969955609
 30
0.0
 40
1.500000000000057
100
AcDbArc
 50
90.0
 51
179.0
  0
LINE
  5
29B
330
1F
100
AcDbEntity
  8
0
  6
Continuous
 62
     7
370
    15
100
AcDbLine
 10
-1081.6160869298
 20
2144.4699559443
 30
0.0
 11
-1080.2860837875
 21
2144.4699559443
 31
0.0
  0
LINE
  5
29C
330
1F
100
AcDbEntity
  8
0
  6
Continuous
 62
     7
370
    15
100
AcDbLine
 10
-1080.2860837875
 20
2174.4699552737
 30
0.0
 11
-1081.6160869298
 21
2174.4699552737
 31
0.0
  0
ARC
  5
29D
330
1F
100
AcDbEntity
  8
0
  6
Continuous
 62
     7
370
    15
100
AcDbCircle
 10
-1081.616086311
 20
2174.269955609
 30
0.0
 40
0.200000000000006
100
AcDbArc
 50
90.0
 51
170.7694259593
  0
ARC
  5
29E
330
1F
100
AcDbEntity
  8
0
  6
Continuous
 62
     7
370
    15
100
AcDbCircle
 10
-1081.616086311
 20
2144.669955609
 30
0.0
 40
0.2000000000002728
100
AcDbArc
 50
189.2305740408
 51
270.0
  0
ARC
  5
29F
330
1F
100
AcDbEntity
  8
0
  6
Continuous
 62
     7
370
    15
100
AcDbCircle
 10
-963.3673993801
 20
2155.0530870008
 30
0.0
 40
120.0000000000001
100
AcDbArc
 50
170.7694259592
 51
176.4874053343
  0
ARC
  5
2A0
330
1F
100
AcDbEntity
  8
0
  6
Continuous
 62
     7
370
    15
100
AcDbCircle
 10
-963.3673993801
 20
2163.8868242172
 30
0.0
 40
120.0000000000002
100
AcDbArc
 50
183.5116471215
 51
189.2305740408
  0
LINE
  5
2A1
330
1F
100
AcDbEntity
  8
0
  6
Continuous
 62
     7
370
    15
100
AcDbLine
 10
-1072.2860862015
 20
2179.469955162
 30
0.0
 11
-1080.2860837875
 21
2179.469955162
 31
0.0
  0
LINE
  5
2A2
330
1F
100
AcDbEntity
  8
0
  6
Continuous
 62
     7
370
    15
100
AcDbLine
 10
-1080.2860837875
 20
2139.469956056
 30
0.0
 11
-1072.2860862015
 21
2139.469956056
 31
0.0
  0
LINE
  5
2A3
330
1F
100
AcDbEntity
  8
0
  6
Continuous
 62
     7
370
    15
100
AcDbLine
 10
-1041.4860863684
 20
2143.469954849
 30
0.0
 11
-1039.6860857008
 21
2145.2699555166
 31
0.0
  0
LINE
  5
2A4
330
1F
100
AcDbEntity
  8
0
  6
Continuous
 62
     7
370
    15
100
AcDbLine
 10
-1039.6860857008
 20
2173.6699557014
 30
0.0
 11
-1041.4860863684
 21
2175.4699563689
 31
0.0
  0
LINE
  5
2A5
330
1F
100
AcDbEntity
  8
0
  6
Continuous
 62
     7
370
    15
100
AcDbLine
 10
-1041.4860863684
 20
2175.4699563689
 30
0.0
 11
-1072.2860862015
 21
2175.4699563689
 31
0.0
  0
LINE
  5
2A6
330
1F
100
AcDbEntity
  8
0
  6
Continuous
 62
     7
370
    15
100
AcDbLine
 10
-1072.2860862015
 20
2143.469954849
 30
0.0
 11
-1041.4860863684
 21
2143.469954849
 31
0.0
  0
CIRCLE
  5
2A7
330
1F
100
AcDbEntity
  8
0
  6
Continuous
 62
     7
370
    15
100
AcDbCircle
 10
-1055.6860854624
 20
2159.469955609
 30
0.0
 40
10.50000000000023
  0
CIRCLE
  5
2A8
330
1F
100
AcDbEntity
  8
0
  6
Continuous
 62
     7
370
    15
100
AcDbCircle
 10
-1055.6860854624
 20
2159.469955609
 30
0.0
 40
12.50000000000023
  0
LINE
  5
2A9
330
1F
100
AcDbEntity
  8
0
  6
Continuous
 62
     7
370
    15
100
AcDbLine
 10
-1021.1860854624
 20
2160.6899226399
 30
0.0
 11
-1021.1860854624
 21
2189.4699549384
 31
0.0
  0
LINE
  5
2AA
330
1F
100
AcDbEntity
  8
0
  6
Continuous
 62
     7
370
    15
100
AcDbLine
 10
-1021.1860854624
 20
2129.4699562795
 30
0.0
 11
-1021.1860854624
 21
2160.6899226399
 31
0.0
  0
LINE
  5
2AB
330
1F
100
AcDbEntity
  8
0
  6
Continuous
 62
     7
370
    15
100
AcDbLine
 10
-1023.1860855574
 20
2160.6899226399
 30
0.0
 11
-1023.1860855574
 21
2129.4699562795
 31
0.0
  0
LINE
  5
2AC
330
1F
100
AcDbEntity
  8
0
  6
Continuous
 62
     7
370
    15
100
AcDbLine
 10
-1023.1860855574
 20
2189.4699549384
 30
0.0
 11
-1023.1860855574
 21
2160.6899226399
 31
0.0
  0
LINE
  5
2AD
330
1F
100
AcDbEntity
  8
0
  6
Continuous
 62
     7
370
    15
100
AcDbLine
 10
-1025.1860856524
 20
2160.0799391244
 30
0.0
 11
-1025.1860856524
 21
2174.4699552737
 31
0.0
  0
LINE
  5
2AE
330
1F
100
AcDbEntity
  8
0
  6
Continuous
 62
     7
370
    15
100
AcDbLine
 10
-1025.1860856524
 20
2144.4699559443
 30
0.0
 11
-1025.1860856524
 21
2160.0799391244
 31
0.0
  0
LINE
  5
2AF
330
1F
100
AcDbEntity
  8
0
  6
Continuous
 62
     7
370
    15
100
AcDbLine
 10
-1058.9860845802
 20
2157.8177352285
 30
0.0
 11
-1058.9860845802
 21
2166.9199555263
 31
0.0
  0
LINE
  5
2B0
330
1F
100
AcDbEntity
  8
0
  6
Continuous
 62
     7
370
    15
100
AcDbLine
 10
-1058.9860845802
 20
2152.0199556917
 30
0.0
 11
-1058.9860845802
 21
2157.8177352285
 31
0.0
  0
LINE
  5
2B1
330
1F
100
AcDbEntity
  8
0
  6
Continuous
 62
     7
370
    15
100
AcDbLine
 10
-1059.3860839007
 20
2157.8177352285
 30
0.0
 11
-1059.3860839007
 21
2166.9199555263
 31
0.0
  0
LINE
  5
2B2
330
1F
100
AcDbEntity
  8
0
  6
Continuous
 62
     7
370
    15
100
AcDbLine
 10
-1059.3860839007
 20
2152.0199556917
 30
0.0
 11
-1059.3860839007
 21
2157.8177352285
 31
0.0
  0
LINE
  5
2B3
330
1F
100
AcDbEntity
  8
0
  6
Continuous
 62
     7
370
    15
100
AcDbLine
 10
-1059.1860842405
 20
2157.8620900482
 30
0.0
 11
-1059.1860842405
 21
2166.7199554004
 31
0.0
  0
LINE
  5
2B4
330
1F
100
AcDbEntity
  8
0
  6
Continuous
 62
     7
370
    15
100
AcDbLine
 10
-1059.1860842405
 20
2152.2199558176
 30
0.0
 11
-1059.1860842405
 21
2157.8620900482
 31
0.0
  0
LINE
  5
2B5
330
1F
100
AcDbEntity
  8
0
  6
Continuous
 62
     7
370
    15
100
AcDbLine
 10
-1076.6860861776
 20
69.4700414397
 30
0.0
 11
-1076.6860861776
 21
2119.4699565031
 31
0.0
  0
LINE
  5
2B6
330
1F
100
AcDbEntity
  8
0
  6
Continuous
 62
     7
370
    15
100
AcDbLine
 10
-1076.6860861776
 20
2119.4699565031
 30
0.0
 11
-1036.686085209
 21
2119.4699565031
 31
0.0
  0
LINE
  5
2B7
330
1F
100
AcDbEntity
  8
0
  6
Continuous
 62
     7
370
    15
100
AcDbLine
 10
-1053.1860869823
 20
89.4700223662
 30
0.0
 11
-1053.1860869823
 21
69.4700414397
 31
0.0
  0
LINE
  5
2B8
330
1F
100
AcDbEntity
  8
0
  6
Continuous
 62
     7
370
    15
100
AcDbLine
 10
-1053.1860869823
 20
89.4700223662
 30
0.0
 11
-1060.186086267
 21
89.4700223662
 31
0.0
  0
LINE
  5
2B9
330
1F
100
AcDbEntity
  8
0
  6
Continuous
 62
     7
370
    15
100
AcDbLine
 10
-1060.186086267
 20
89.4700223662
 30
0.0
 11
-1060.186086267
 21
69.4700414397
 31
0.0
  0
LINE
  5
2BA
330
1F
100
AcDbEntity
  8
0
  6
Continuous
 62
     7
370
    15
100
AcDbLine
 10
-1076.6860861776
 20
69.4700414397
 30
0.0
 11
-1060.186086267
 21
69.4700414397
 31
0.0
  0
LINE
  5
2BB
330
1F
100
AcDbEntity
  8
0
  6
Continuous
 62
     7
370
    15
100
AcDbLine
 10
-1053.1860869823
 20
69.4700414397
 30
0.0
 11
-1036.686085209
 21
69.4700414397
 31
0.0
  0
LINE
  5
2BC
330
1F
100
AcDbEntity
  8
0
  6
Continuous
 62
     7
370
    15
100
AcDbLine
 10
-1036.686085209
 20
69.4700414397
 30
0.0
 11
-1036.686085209
 21
2119.4699565031
 31
0.0
  0
SPLINE
  5
2BD
330
1F
100
AcDbEntity
  8
0
  6
Continuous
 62
     7
370
    15
100
AcDbSpline
210
0.0
220
0.0
230
1.0
 70
     8
 71
     3
 72
     9
 73
     5
 74
     0
 42
0.000000001
 43
0.00000001
 40
0.0
 40
0.0
 40
0.0
 40
0.0
 40
0.4999996348623669
 40
0.9999999999999999
 40
0.9999999999999999
 40
0.9999999999999999
 40
0.9999999999999999
 10
-1033.842337362259
 20
2009.433352396632
 30
0.0
 10
-1033.829520972888
 20
2009.888430300161
 30
0.0
 10
-1033.803888175427
 20
2010.798586771884
 30
0.0
 10
-1033.829520960409
 20
2011.707772675198
 30
0.0
 10
-1033.842337362259
 20
2012.162365958834
 30
0.0
  0
SPLINE
  5
2BE
330
1F
100
AcDbEntity
  8
0
  6
Continuous
 62
     7
370
    15
100
AcDbSpline
210
0.0
220
0.0
230
1.0
 70
     8
 71
     3
 72
     9
 73
     5
 74
     0
 42
0.000000001
 43
0.00000001
 40
0.0
 40
0.0
 40
0.0
 40
0.0
 40
0.5000016264255014
 40
0.9999999999999999
 40
0.9999999999999999
 40
0.9999999999999999
 40
0.9999999999999999
 10
-1033.842337362259
 20
2006.740950987482
 30
0.0
 10
-1033.829520938855
 20
2007.189430505548
 30
0.0
 10
-1033.803888175427
 20
2008.086386624014
 30
0.0
 10
-1033.829520994442
 20
2008.984364779422
 30
0.0
 10
-1033.842337362259
 20
2009.433352396632
 30
0.0
  0
SPLINE
  5
2BF
330
1F
100
AcDbEntity
  8
0
  6
Continuous
 62
     7
370
    15
100
AcDbSpline
210
0.0
220
0.0
230
1.0
 70
     8
 71
     3
 72
     9
 73
     5
 74
     0
 42
0.000000001
 43
0.00000001
 40
0.0
 40
0.0
 40
0.0
 40
0.0
 40
0.9790814885378974
 40
1.0
 40
1.0
 40
1.0
 40
1.0
 10
-1033.842337362259
 20
2012.162365958834
 30
0.0
 10
-1033.825420747613
 20
2012.169094565171
 30
0.0
 10
-1033.808142701971
 20
2012.175966931176
 30
0.0
 10
-1033.81706644854
 20
2012.181896551615
 30
0.0
 10
-1033.817253120034
 20
2012.182020590449
 30
0.0
  0
SPLINE
  5
2C0
330
1F
100
AcDbEntity
  8
0
  6
Continuous
 62
     7
370
    15
100
AcDbSpline
210
0.0
220
0.0
230
1.0
 70
     8
 71
     3
 72
     9
 73
     5
 74
     0
 42
0.000000001
 43
0.00000001
 40
0.0
 40
0.0
 40
0.0
 40
0.0
 40
0.5000052711367742
 40
1.0
 40
1.0
 40
1.0
 40
1.0
 10
-1033.842337362259
 20
2065.087118194247
 30
0.0
 10
-1033.829520876572
 20
2065.478958930154
 30
0.0
 10
-1033.803888175424
 20
2066.262632140271
 30
0.0
 10
-1033.829521056724
 20
2067.045026263648
 30
0.0
 10
-1033.842337362259
 20
2067.436219201231
 30
0.0
  0
SPLINE
  5
2C1
330
1F
100
AcDbEntity
  8
0
  6
Continuous
 62
     7
370
    15
100
AcDbSpline
210
0.0
220
0.0
230
1.0
 70
     8
 71
     3
 72
     9
 73
     5
 74
     0
 42
0.000000001
 43
0.00000001
 40
0.0
 40
0.0
 40
0.0
 40
0.0
 40
0.499995382079892
 40
0.9999999999999999
 40
0.9999999999999999
 40
0.9999999999999999
 40
0.9999999999999999
 10
-1033.842337362259
 20
2062.120855794096
 30
0.0
 10
-1033.829521045561
 20
2062.615076819876
 30
0.0
 10
-1033.803888175425
 20
2063.603528000614
 30
0.0
 10
-1033.829520887734
 20
2064.592585084778
 30
0.0
 10
-1033.842337362259
 20
2065.087118194247
 30
0.0
  0
SPLINE
  5
2C2
330
1F
100
AcDbEntity
  8
0
  6
Continuous
 62
     7
370
    15
100
AcDbSpline
210
0.0
220
0.0
230
1.0
 70
     8
 71
     3
 72
     9
 73
     5
 74
     0
 42
0.000000001
 43
0.00000001
 40
0.0
 40
0.0
 40
0.0
 40
0.0
 40
0.2584213185485441
 40
1.0
 40
1.0
 40
1.0
 40
1.0
 10
-1033.825636885851
 20
2061.704107568407
 30
0.0
 10
-1033.821890011416
 20
2061.739811648589
 30
0.0
 10
-1033.807390919559
 20
2061.877973934822
 30
0.0
 10
-1033.827456876425
 20
2062.01743467918
 30
0.0
 10
-1033.842337362259
 20
2062.120855794096
 30
0.0
  0
SPLINE
  5
2C3
330
1F
100
AcDbEntity
  8
0
  6
Continuous
 62
     7
370
    15
100
AcDbSpline
210
0.0
220
0.0
230
1.0
 70
     8
 71
     3
 72
     9
 73
     5
 74
     0
 42
0.000000001
 43
0.00000001
 40
0.0
 40
0.0
 40
0.0
 40
0.0
 40
0.3736883685106593
 40
1.0
 40
1.0
 40
1.0
 40
1.0
 10
-1033.825635023206
 20
2063.087039635325
 30
0.0
 10
-1033.821545749058
 20
2062.950530549556
 30
0.0
 10
-1033.810602742817
 20
2062.585228610101
 30
0.0
 10
-1033.823559039479
 20
2062.220503861081
 30
0.0
 10
-1033.83167371878
 20
2061.992072508478
 30
0.0
  0
SPLINE
  5
2C4
330
1F
100
AcDbEntity
  8
0
  6
Continuous
 62
     7
370
    15
100
AcDbSpline
210
0.0
220
0.0
230
1.0
 70
     8
 71
     3
 72
     9
 73
     5
 74
     0
 42
0.000000001
 43
0.00000001
 40
0.0
 40
0.0
 40
0.0
 40
0.0
 40
0.373678093198102
 40
1.0
 40
1.0
 40
1.0
 40
1.0
 10
-1033.825635023206
 20
2065.852866516257
 30
0.0
 10
-1033.821545804067
 20
2065.68067266539
 30
0.0
 10
-1033.810602644129
 20
2065.219864675839
 30
0.0
 10
-1033.823558919614
 20
2064.75875800832
 30
0.0
 10
-1033.83167371878
 20
2064.469956801081
 30
0.0
  0
LINE
  5
2C5
330
1F
100
AcDbEntity
  8
0
  6
Continuous
 62
     7
370
    15
100
AcDbLine
 10
-1033.8423373623
 20
2067.4362192012
 30
0.0
 11
-1033.8256322292
 21
2067.2357464291
 31
0.0
  0
LINE
  5
2C6
330
1F
100
AcDbEntity
  8
0
  6
Continuous
 62
     7
370
    15
100
AcDbLine
 10
-1044.6860846577
 20
2183.1699563272
 30
0.0
 11
-1044.6860846577
 21
2212.7699563362
 31
0.0
  0
LINE
  5
2C7
330
1F
100
AcDbEntity
  8
0
  6
Continuous
 62
     7
370
    15
100
AcDbLine
 10
-1041.8272391407
 20
2199.9349230982
 30
0.0
 11
-1041.8272391407
 21
2197.1209989943
 31
0.0
  0
LINE
  5
2C8
330
1F
100
AcDbEntity
  8
0
  6
Continuous
 62
     7
370
    15
100
AcDbLine
 10
-1041.8272391407
 20
2197.1209989943
 30
0.0
 11
-1041.8272391407
 21
2195.1560312964
 31
0.0
  0
LINE
  5
2C9
330
1F
100
AcDbEntity
  8
0
  6
Continuous
 62
     7
370
    15
100
AcDbLine
 10
-1041.8272391407
 20
2195.1560312964
 30
0.0
 11
-1041.8165177552
 21
2195.3542949714
 31
0.0
  0
SPLINE
  5
2CA
330
1F
100
AcDbEntity
  8
0
  6
Continuous
 62
     7
370
    15
100
AcDbSpline
210
0.0
220
0.0
230
1.0
 70
     8
 71
     3
 72
     9
 73
     5
 74
     0
 42
0.000000001
 43
0.00000001
 40
0.0
 40
0.0
 40
0.0
 40
0.0
 40
0.3472752967135599
 40
1.0
 40
1.0
 40
1.0
 40
1.0
 10
-1041.816497266083
 20
2200.585250750923
 30
0.0
 10
-1041.811012360483
 20
2200.509967005065
 30
0.0
 10
-1041.795218246555
 20
2200.293182953417
 30
0.0
 10
-1041.814592855067
 20
2200.076413727136
 30
0.0
 10
-1041.827239140659
 20
2199.934923098231
 30
0.0
  0
LINE
  5
2CB
330
1F
100
AcDbEntity
  8
0
  6
Continuous
 62
     7
370
    15
100
AcDbLine
 10
-1076.4860865174
 20
2211.1420268275
 30
0.0
 11
-1076.4860865174
 21
2182.9699548043
 31
0.0
  0
LINE
  5
2CC
330
1F
100
AcDbEntity
  8
0
  6
Continuous
 62
     7
370
    15
100
AcDbLine
 10
-1076.4860865174
 20
2212.9699559964
 30
0.0
 11
-1076.4860865174
 21
2211.1420268275
 31
0.0
  0
LINE
  5
2CD
330
1F
100
AcDbEntity
  8
0
  6
Continuous
 62
     7
370
    15
100
AcDbLine
 10
-1076.6860861776
 20
2210.9663980164
 30
0.0
 11
-1076.6860861776
 21
2212.7699563362
 31
0.0
  0
LINE
  5
2CE
330
1F
100
AcDbEntity
  8
0
  6
Continuous
 62
     7
370
    15
100
AcDbLine
 10
-1076.6860861776
 20
2197.9699554004
 30
0.0
 11
-1076.6860861776
 21
2210.9663980164
 31
0.0
  0
LINE
  5
2CF
330
1F
100
AcDbEntity
  8
0
  6
Continuous
 62
     7
370
    15
100
AcDbLine
 10
-1072.8860851822
 20
2211.1420268275
 30
0.0
 11
-1072.8860851822
 21
2212.9699559964
 31
0.0
  0
LINE
  5
2D0
330
1F
100
AcDbEntity
  8
0
  6
Continuous
 62
     7
370
    15
100
AcDbLine
 10
-1072.8860851822
 20
2182.9699548043
 30
0.0
 11
-1072.8860851822
 21
2211.1420268275
 31
0.0
  0
LINE
  5
2D1
330
1F
100
AcDbEntity
  8
0
  6
Continuous
 62
     7
370
    15
100
AcDbLine
 10
-1072.686085522
 20
2210.9663980164
 30
0.0
 11
-1072.686085522
 21
2183.1699563272
 31
0.0
  0
LINE
  5
2D2
330
1F
100
AcDbEntity
  8
0
  6
Continuous
 62
     7
370
    15
100
AcDbLine
 10
-1072.686085522
 20
2212.7699563362
 30
0.0
 11
-1072.686085522
 21
2210.9663980164
 31
0.0
  0
LINE
  5
2D3
330
1F
100
AcDbEntity
  8
0
  6
Continuous
 62
     7
370
    15
100
AcDbLine
 10
-1047.6860851494
 20
2143.469954849
 30
0.0
 11
-1047.6860851494
 21
2130.9699555941
 31
0.0
  0
LINE
  5
2D4
330
1F
100
AcDbEntity
  8
0
  6
Continuous
 62
     7
370
    15
100
AcDbLine
 10
-1048.6860853133
 20
2129.9699554302
 30
0.0
 11
-1048.6860853133
 21
2143.469954849
 31
0.0
  0
LINE
  5
2D5
330
1F
100
AcDbEntity
  8
0
  6
Continuous
 62
     7
370
    15
100
AcDbLine
 10
-1076.4860865174
 20
2139.469956056
 30
0.0
 11
-1076.4860865174
 21
2129.9699554302
 31
0.0
  0
LINE
  5
2D6
330
1F
100
AcDbEntity
  8
0
  6
Continuous
 62
     7
370
    15
100
AcDbLine
 10
-1046.6860849855
 20
2206.5068194725
 30
0.0
 11
-1046.6860849855
 21
2175.4699563689
 31
0.0
  0
LINE
  5
2D7
330
1F
100
AcDbEntity
  8
0
  6
Continuous
 62
     7
370
    15
100
AcDbLine
 10
-1046.6860849855
 20
2226.9699582912
 30
0.0
 11
-1046.6860849855
 21
2206.5068194725
 31
0.0
  0
LINE
  5
2D8
330
1F
100
AcDbEntity
  8
0
  6
Continuous
 62
     7
370
    15
100
AcDbLine
 10
-1045.2860855011
 20
2206.5068194725
 30
0.0
 11
-1045.2860855011
 21
2226.9699582912
 31
0.0
  0
LINE
  5
2D9
330
1F
100
AcDbEntity
  8
0
  6
Continuous
 62
     7
370
    15
100
AcDbLine
 10
-1045.2860855011
 20
2175.4699563689
 30
0.0
 11
-1045.2860855011
 21
2206.5068194725
 31
0.0
  0
LINE
  5
2DA
330
1F
100
AcDbEntity
  8
0
  6
Continuous
 62
     7
370
    15
100
AcDbLine
 10
-1045.186085671
 20
2206.4773822285
 30
0.0
 11
-1045.186085671
 21
2175.4699563689
 31
0.0
  0
LINE
  5
2DB
330
1F
100
AcDbEntity
  8
0
  6
Continuous
 62
     7
370
    15
100
AcDbLine
 10
-1045.186085671
 20
2226.8699565984
 30
0.0
 11
-1045.186085671
 21
2206.4773822285
 31
0.0
  0
LINE
  5
2DC
330
1F
100
AcDbEntity
  8
0
  6
Continuous
 62
     7
370
    15
100
AcDbLine
 10
-1066.1860872505
 20
2181.9297326811
 30
0.0
 11
-1066.1860872505
 21
2226.8699565984
 31
0.0
  0
LINE
  5
2DD
330
1F
100
AcDbEntity
  8
0
  6
Continuous
 62
     7
370
    15
100
AcDbLine
 10
-1066.1860872505
 20
2175.4699563689
 30
0.0
 11
-1066.1860872505
 21
2181.9297326811
 31
0.0
  0
LINE
  5
2DE
330
1F
100
AcDbEntity
  8
0
  6
Continuous
 62
     7
370
    15
100
AcDbLine
 10
-1066.0860855577
 20
2181.8742295809
 30
0.0
 11
-1066.0860855577
 21
2175.4699563689
 31
0.0
  0
LINE
  5
2DF
330
1F
100
AcDbEntity
  8
0
  6
Continuous
 62
     7
370
    15
100
AcDbLine
 10
-1066.0860855577
 20
2226.9699582912
 30
0.0
 11
-1066.0860855577
 21
2181.8742295809
 31
0.0
  0
LINE
  5
2E0
330
1F
100
AcDbEntity
  8
0
  6
Continuous
 62
     7
370
    15
100
AcDbLine
 10
-1064.6860842107
 20
2181.8742295809
 30
0.0
 11
-1064.6860842107
 21
2226.9699582912
 31
0.0
  0
LINE
  5
2E1
330
1F
100
AcDbEntity
  8
0
  6
Continuous
 62
     7
370
    15
100
AcDbLine
 10
-1064.6860842107
 20
2175.4699563689
 30
0.0
 11
-1064.6860842107
 21
2181.8742295809
 31
0.0
  0
LINE
  5
2E2
330
1F
100
AcDbEntity
  8
0
  6
Continuous
 62
     7
370
    15
100
AcDbLine
 10
-1046.6860849855
 20
2226.9699582912
 30
0.0
 11
-1046.6860849855
 21
2175.4699563689
 31
0.0
  0
LINE
  5
2E3
330
1F
100
AcDbEntity
  8
0
  6
Continuous
 62
     7
370
    15
100
AcDbLine
 10
-1047.7065146414
 20
2203.6309959449
 30
0.0
 11
-1047.7065146414
 21
2175.4699563689
 31
0.0
  0
LINE
  5
2E4
330
1F
100
AcDbEntity
  8
0
  6
Continuous
 62
     7
370
    15
100
AcDbLine
 10
-1047.7065146414
 20
2226.9699582912
 30
0.0
 11
-1047.7065146414
 21
2203.6309959449
 31
0.0
  0
LINE
  5
2E5
330
1F
100
AcDbEntity
  8
0
  6
Continuous
 62
     7
370
    15
100
AcDbLine
 10
-1063.7177583275
 20
2175.4699563689
 30
0.0
 11
-1063.7177583275
 21
2226.9699582912
 31
0.0
  0
LINE
  5
2E6
330
1F
100
AcDbEntity
  8
0
  6
Continuous
 62
     7
370
    15
100
AcDbLine
 10
-1064.6860842107
 20
2226.9699582912
 30
0.0
 11
-1064.6860842107
 21
2175.4699563689
 31
0.0
  0
LINE
  5
2E7
330
1F
100
AcDbEntity
  8
0
  6
Continuous
 62
     7
370
    15
100
AcDbLine
 10
-1076.8860858379
 20
2005.9699500062
 30
0.0
 11
-1076.8860858379
 21
2139.469956056
 31
0.0
  0
LINE
  5
2E8
330
1F
100
AcDbEntity
  8
0
  6
Continuous
 62
     7
370
    15
100
AcDbLine
 10
-1076.8860858379
 20
2179.469955162
 30
0.0
 11
-1076.8860858379
 21
2197.9699554004
 31
0.0
  0
LINE
  5
2E9
330
1F
100
AcDbEntity
  8
0
  6
Continuous
 62
     7
370
    15
100
AcDbLine
 10
-1076.6860861776
 20
2197.9699554004
 30
0.0
 11
-1076.8860858379
 21
2197.9699554004
 31
0.0
  0
LINE
  5
2EA
330
1F
100
AcDbEntity
  8
0
  6
Continuous
 62
     7
370
    15
100
AcDbLine
 10
-1076.6860861776
 20
2197.9699554004
 30
0.0
 11
-1076.6860861776
 21
2179.469955162
 31
0.0
  0
LINE
  5
2EB
330
1F
100
AcDbEntity
  8
0
  6
Continuous
 62
     7
370
    15
100
AcDbLine
 10
-1076.6860861776
 20
2139.469956056
 30
0.0
 11
-1076.6860861776
 21
2119.4699565031
 31
0.0
  0
LINE
  5
2EC
330
1F
100
AcDbEntity
  8
0
  6
Continuous
 62
     7
370
    15
100
AcDbLine
 10
-1076.8860858379
 20
2005.9699500062
 30
0.0
 11
-1076.6860861776
 21
2005.9699500062
 31
0.0
  0
LINE
  5
2ED
330
1F
100
AcDbEntity
  8
0
  6
Continuous
 62
     7
370
    15
100
AcDbLine
 10
-1082.6860871611
 20
2005.9699500062
 30
0.0
 11
-1082.6860871611
 21
2151.1176759459
 31
0.0
  0
LINE
  5
2EE
330
1F
100
AcDbEntity
  8
0
  6
Continuous
 62
     7
370
    15
100
AcDbLine
 10
-1082.6860871611
 20
2167.8222352721
 30
0.0
 11
-1082.6860871611
 21
2197.9699554004
 31
0.0
  0
LINE
  5
2EF
330
1F
100
AcDbEntity
  8
0
  6
Continuous
 62
     7
370
    15
100
AcDbLine
 10
-1082.6860871611
 20
2197.9699554004
 30
0.0
 11
-1082.4860837755
 21
2197.9699554004
 31
0.0
  0
LINE
  5
2F0
330
1F
100
AcDbEntity
  8
0
  6
Continuous
 62
     7
370
    15
100
AcDbLine
 10
-1082.4860837755
 20
2197.9699554004
 30
0.0
 11
-1082.4860837755
 21
2169.5699263446
 31
0.0
  0
LINE
  5
2F1
330
1F
100
AcDbEntity
  8
0
  6
Continuous
 62
     7
370
    15
100
AcDbLine
 10
-1082.4860837755
 20
2149.3699848734
 30
0.0
 11
-1082.4860837755
 21
2005.9699500062
 31
0.0
  0
LINE
  5
2F2
330
1F
100
AcDbEntity
  8
0
  6
Continuous
 62
     7
370
    15
100
AcDbLine
 10
-1082.4860837755
 20
2005.9699500062
 30
0.0
 11
-1082.6860871611
 21
2005.9699500062
 31
0.0
  0
LINE
  5
2F3
330
1F
100
AcDbEntity
  8
0
  6
Continuous
 62
     7
370
    15
100
AcDbLine
 10
-1082.4860837755
 20
2005.9699500062
 30
0.0
 11
-1076.8860858379
 21
2005.9699500062
 31
0.0
  0
LINE
  5
2F4
330
1F
100
AcDbEntity
  8
0
  6
Continuous
 62
     7
370
    15
100
AcDbLine
 10
-1082.4860837755
 20
2197.9699554004
 30
0.0
 11
-1076.8860858379
 21
2197.9699554004
 31
0.0
  0
LINE
  5
2F5
330
1F
100
AcDbEntity
  8
0
  6
Continuous
 62
     7
370
    15
100
AcDbLine
 10
-1076.6860861776
 20
2212.7699563362
 30
0.0
 11
-1076.6860861776
 21
2197.9699554004
 31
0.0
  0
LINE
  5
2F6
330
1F
100
AcDbEntity
  8
0
  6
Continuous
 62
     7
370
    15
100
AcDbLine
 10
-1076.8860858379
 20
2197.9699554004
 30
0.0
 11
-1076.8860858379
 21
2212.9699559964
 31
0.0
  0
LINE
  5
2F7
330
1F
100
AcDbEntity
  8
0
  6
Continuous
 62
     7
370
    15
100
AcDbLine
 10
-1082.4860837755
 20
2212.9699559964
 30
0.0
 11
-1082.4860837755
 21
2197.9699554004
 31
0.0
  0
LINE
  5
2F8
330
1F
100
AcDbEntity
  8
0
  6
Continuous
 62
     7
370
    15
100
AcDbLine
 10
-1082.4860837755
 20
2005.9699500062
 30
0.0
 11
-1082.4860837755
 21
1990.9699494101
 31
0.0
  0
LINE
  5
2F9
330
1F
100
AcDbEntity
  8
0
  6
Continuous
 62
     7
370
    15
100
AcDbLine
 10
-1082.6860871611
 20
1991.1699527956
 30
0.0
 11
-1082.6860871611
 21
2005.9699500062
 31
0.0
  0
LINE
  5
2FA
330
1F
100
AcDbEntity
  8
0
  6
Continuous
 62
     7
370
    15
100
AcDbLine
 10
-1076.8860858379
 20
1990.9699494101
 30
0.0
 11
-1076.8860858379
 21
2005.9699500062
 31
0.0
  0
SPLINE
  5
2FB
330
1F
100
AcDbEntity
  8
0
  6
Continuous
 62
     7
370
    15
100
AcDbSpline
210
0.0
220
0.0
230
1.0
 70
     8
 71
     3
 72
    17
 73
    13
 74
     0
 42
0.000000001
 43
0.00000001
 40
0.0
 40
0.0
 40
0.0
 40
0.0
 40
0.1069330206168758
 40
0.2138500159266263
 40
0.3211650387357938
 40
0.4287580074844387
 40
0.5359070128469509
 40
0.642589289196085
 40
0.7495066022719924
 40
0.8569982818525764
 40
0.9645052162645636
 40
1.0
 40
1.0
 40
1.0
 40
1.0
 10
-1081.336086660414
 20
1990.969949410105
 30
0.0
 10
-1081.317955367962
 20
1990.971998897409
 30
0.0
 10
-1081.281695500268
 20
1990.976097564875
 30
0.0
 10
-1080.999193303039
 20
1991.004662948205
 30
0.0
 10
-1080.582224970006
 20
1991.036593438427
 30
0.0
 10
-1080.059988563648
 20
1991.059721021943
 30
0.0
 10
-1079.496891346101
 20
1991.063291205832
 30
0.0
 10
-1078.95727068141
 20
1991.046076118062
 30
0.0
 10
-1078.495722849969
 20
1991.015227223981
 30
0.0
 10
-1078.179346230953
 20
1990.985716537499
 30
0.0
 10
-1078.02790007791
 20
1990.969059250839
 30
0.0
 10
-1078.050980933419
 20
1990.971575036523
 30
0.0
 10
-1078.056709885388
 20
1990.972199485445
 30
0.0
  0
LINE
  5
2FC
330
1F
100
AcDbEntity
  8
0
  6
Continuous
 62
     7
370
    15
100
AcDbLine
 10
-1082.6860871611
 20
2197.9699554004
 30
0.0
 11
-1082.6860871611
 21
2212.7699563362
 31
0.0
  0
LINE
  5
2FD
330
1F
100
AcDbEntity
  8
0
  6
Continuous
 62
     7
370
    15
100
AcDbLine
 10
-1066.6860845385
 20
2183.2699561574
 30
0.0
 11
-1066.6860845385
 21
2212.6699546434
 31
0.0
  0
LINE
  5
2FE
330
1F
100
AcDbEntity
  8
0
  6
Continuous
 62
     7
370
    15
100
AcDbLine
 10
-1066.9860858915
 20
2182.9699548043
 30
0.0
 11
-1066.9860858915
 21
2212.9699559964
 31
0.0
  0
LINE
  5
2FF
330
1F
100
AcDbEntity
  8
0
  6
Continuous
 62
     7
370
    15
100
AcDbLine
 10
-1072.3860841689
 20
2212.9699559964
 30
0.0
 11
-1072.3860841689
 21
2182.9699548043
 31
0.0
  0
LINE
  5
300
330
1F
100
AcDbEntity
  8
0
  6
Continuous
 62
     7
370
    15
100
AcDbLine
 10
-1042.6860861925
 20
65.4698545195
 30
0.0
 11
-1042.6860861925
 21
61.4699060179
 31
0.0
  0
LINE
  5
301
330
1F
100
AcDbEntity
  8
0
  6
Continuous
 62
     7
370
    15
100
AcDbLine
 10
-1042.6860861925
 20
61.4699060179
 30
0.0
 11
-1045.186085671
 21
61.4699060179
 31
0.0
  0
LINE
  5
302
330
1F
100
AcDbEntity
  8
0
  6
Continuous
 62
     7
370
    15
100
AcDbLine
 10
-1045.186085671
 20
61.4699060179
 30
0.0
 11
-1045.186085671
 21
65.4698545195
 31
0.0
  0
LINE
  5
303
330
1F
100
AcDbEntity
  8
0
  6
Continuous
 62
     7
370
    15
100
AcDbLine
 10
-1045.186085671
 20
65.4698545195
 30
0.0
 11
-1042.6860861925
 21
65.4698545195
 31
0.0
  0
LINE
  5
304
330
1F
100
AcDbEntity
  8
0
  6
Continuous
 62
     7
370
    15
100
AcDbLine
 10
-1068.186083853
 20
61.4699060179
 30
0.0
 11
-1045.186085671
 21
61.4699060179
 31
0.0
  0
LINE
  5
305
330
1F
100
AcDbEntity
  8
0
  6
Continuous
 62
     7
370
    15
100
AcDbLine
 10
-1068.186083853
 20
65.4698545195
 30
0.0
 11
-1068.186083853
 21
61.4699060179
 31
0.0
  0
LINE
  5
306
330
1F
100
AcDbEntity
  8
0
  6
Continuous
 62
     7
370
    15
100
AcDbLine
 10
-1068.186083853
 20
65.4698545195
 30
0.0
 11
-1045.186085671
 21
65.4698545195
 31
0.0
  0
LINE
  5
307
330
1F
100
AcDbEntity
  8
0
  6
Continuous
 62
     7
370
    15
100
AcDbLine
 10
-1068.186083853
 20
61.4699060179
 30
0.0
 11
-1070.6860851941
 21
61.4699060179
 31
0.0
  0
LINE
  5
308
330
1F
100
AcDbEntity
  8
0
  6
Continuous
 62
     7
370
    15
100
AcDbLine
 10
-1070.6860851941
 20
61.4699060179
 30
0.0
 11
-1070.6860851941
 21
65.4698545195
 31
0.0
  0
LINE
  5
309
330
1F
100
AcDbEntity
  8
0
  6
Continuous
 62
     7
370
    15
100
AcDbLine
 10
-1070.6860851941
 20
65.4698545195
 30
0.0
 11
-1068.186083853
 21
65.4698545195
 31
0.0
  0
LINE
  5
30A
330
1F
100
AcDbEntity
  8
0
  6
Continuous
 62
     7
370
    15
100
AcDbLine
 10
-1057.6317068634
 20
66.9437581755
 30
0.0
 11
-1055.7404663859
 21
66.9437581755
 31
0.0
  0
ARC
  5
30B
330
1F
100
AcDbEntity
  8
0
  6
Continuous
 62
     7
370
    15
100
AcDbCircle
 10
-1054.2628052718
 20
66.9473562858
 30
0.0
 40
1.477665494799114
100
AcDbArc
 50
180.1395151598
 51
269.1470654298
  0
ARC
  5
30C
330
1F
100
AcDbEntity
  8
0
  6
Continuous
 62
     7
370
    15
100
AcDbCircle
 10
-1059.1093604567
 20
66.9473488025
 30
0.0
 40
1.477657955776977
100
AcDbArc
 50
270.8527917345
 51
359.8607742943
  0
LINE
  5
30D
330
1F
100
AcDbEntity
  8
0
  6
Continuous
 62
     7
370
    15
100
AcDbLine
 10
-1057.4105773566
 20
79.996221707
 30
0.0
 11
-1057.6317068634
 21
66.9437581755
 31
0.0
  0
SPLINE
  5
30E
330
1F
100
AcDbEntity
  8
0
  6
Continuous
 62
     7
370
    15
100
AcDbSpline
210
0.0
220
0.0
230
1.0
 70
     8
 71
     3
 72
    15
 73
    11
 74
     0
 42
0.000000001
 43
0.00000001
 40
0.0
 40
0.0
 40
0.0
 40
0.0
 40
0.1416482729544687
 40
0.2721814742579559
 40
0.3916137454915943
 40
0.4999983345113951
 40
0.6083673935921603
 40
0.7278126817974725
 40
0.8583485703542763
 40
1.0
 40
1.0
 40
1.0
 40
1.0
 10
-1055.961595892697
 20
79.99622170701026
 30
0.0
 10
-1055.994128689016
 20
80.0024475751544
 30
0.0
 10
-1056.056641448819
 20
80.01441077057225
 30
0.0
 10
-1056.248962813111
 20
80.02739355193245
 30
0.0
 10
-1056.463981845603
 20
80.03515271852257
 30
0.0
 10
-1056.686071669699
 20
80.03821794698385
 30
0.0
 10
-1056.908199221715
 20
80.03515197035837
 30
0.0
 10
-1057.123171463941
 20
80.02739413844328
 30
0.0
 10
-1057.315519017441
 20
80.01441068762216
 30
0.0
 10
-1057.378040167393
 20
80.00244755009712
 30
0.0
 10
-1057.410577356606
 20
79.99622170701026
 30
0.0
  0
LINE
  5
30F
330
1F
100
AcDbEntity
  8
0
  6
Continuous
 62
     7
370
    15
100
AcDbLine
 10
-1055.9615958927
 20
79.996221707
 30
0.0
 11
-1055.7404663859
 21
66.9437581755
 31
0.0
  0
SPLINE
  5
310
330
1F
100
AcDbEntity
  8
0
  6
Continuous
 62
     7
370
    15
100
AcDbSpline
210
0.0
220
0.0
230
1.0
 70
     8
 71
     3
 72
    12
 73
     8
 74
     0
 42
0.000000001
 43
0.00000001
 40
0.0
 40
0.0
 40
0.0
 40
0.0
 40
0.0631756114762688
 40
0.1343773875702687
 40
0.2518918355846804
 40
0.4992457117998376
 40
1.0
 40
1.0
 40
1.0
 40
1.0
 10
-1055.961595892697
 20
79.99622170701026
 30
0.0
 10
-1055.965772814277
 20
80.08955386363925
 30
0.0
 10
-1055.974657315701
 20
80.28807558889217
 30
0.0
 10
-1056.027211363428
 20
80.59875740496581
 30
0.0
 10
-1056.142818707684
 20
80.98709375637215
 30
0.0
 10
-1056.392110198571
 20
81.4032835189813
 30
0.0
 10
-1056.568211388927
 20
81.44318108036353
 30
0.0
 10
-1056.686086624652
 20
81.46988694443702
 30
0.0
  0
SPLINE
  5
311
330
1F
100
AcDbEntity
  8
0
  6
Continuous
 62
     7
370
    15
100
AcDbSpline
210
0.0
220
0.0
230
1.0
 70
     8
 71
     3
 72
    13
 73
     9
 74
     0
 42
0.000000001
 43
0.00000001
 40
0.0
 40
0.0
 40
0.0
 40
0.0
 40
0.5005428158568215
 40
0.7471607033715598
 40
0.858110967171921
 40
0.9218265733994988
 40
0.9619417721925305
 40
1.0
 40
1.0
 40
1.0
 40
1.0
 10
-1056.686086624652
 20
81.46988694443702
 30
0.0
 10
-1056.804074090256
 20
81.44328381656219
 30
0.0
 10
-1056.980194084385
 20
81.40357330408388
 30
0.0
 10
-1057.226709836807
 20
80.99051814525792
 30
0.0
 10
-1057.339555627586
 20
80.61974663493632
 30
0.0
 10
-1057.384649100432
 20
80.36322467926537
 30
0.0
 10
-1057.404921276202
 20
80.16772001376249
 30
0.0
 10
-1057.408725362004
 20
80.0523761312093
 30
0.0
 10
-1057.410577356606
 20
79.99622170701026
 30
0.0
  0
LINE
  5
312
330
1F
100
AcDbEntity
  8
0
  6
Continuous
 62
     7
370
    15
100
AcDbLine
 10
-1056.6860866247
 20
81.4698869444
 30
0.0
 11
-1055.8512416182
 21
81.4698869444
 31
0.0
  0
LINE
  5
313
330
1F
100
AcDbEntity
  8
0
  6
Continuous
 62
     7
370
    15
100
AcDbLine
 10
-1057.5209279058
 20
81.4698869444
 30
0.0
 11
-1056.6860866247
 21
81.4698869444
 31
0.0
  0
SPLINE
  5
314
330
1F
100
AcDbEntity
  8
0
  6
Continuous
 62
     7
370
    15
100
AcDbSpline
210
0.0
220
0.0
230
1.0
 70
     8
 71
     3
 72
     9
 73
     5
 74
     0
 42
0.000000001
 43
0.00000001
 40
0.0
 40
0.0
 40
0.0
 40
0.0
 40
0.5824850380583119
 40
0.9999999999999999
 40
0.9999999999999999
 40
0.9999999999999999
 40
0.9999999999999999
 10
-1083.129832565575
 20
2157.565350885311
 30
0.0
 10
-1083.143353631523
 20
2157.365021352125
 30
0.0
 10
-1083.166566358142
 20
2157.021099156538
 30
0.0
 10
-1083.145776823445
 20
2156.678805649096
 30
0.0
 10
-1083.137096881657
 20
2156.535892988363
 30
0.0
  0
SPLINE
  5
315
330
1F
100
AcDbEntity
  8
0
  6
Continuous
 62
     7
370
    15
100
AcDbSpline
210
0.0
220
0.0
230
1.0
 70
     8
 71
     3
 72
     9
 73
     5
 74
     0
 42
0.000000001
 43
0.00000001
 40
0.0
 40
0.0
 40
0.0
 40
0.0
 40
0.4999986045185357
 40
1.0
 40
1.0
 40
1.0
 40
1.0
 10
-1083.129832565575
 20
2160.66900245733
 30
0.0
 10
-1083.142649403
 20
2160.151662183241
 30
0.0
 10
-1083.168283149391
 20
2159.116978747299
 30
0.0
 10
-1083.142649450695
 20
2158.082561134981
 30
0.0
 10
-1083.129832565575
 20
2157.565350885311
 30
0.0
  0
SPLINE
  5
316
330
1F
100
AcDbEntity
  8
0
  6
Continuous
 62
     7
370
    15
100
AcDbSpline
210
0.0
220
0.0
230
1.0
 70
     8
 71
     3
 72
     9
 73
     5
 74
     0
 42
0.000000001
 43
0.00000001
 40
0.0
 40
0.0
 40
0.0
 40
0.0
 40
0.4999987052023287
 40
1.0
 40
1.0
 40
1.0
 40
1.0
 10
-1083.129832565575
 20
2162.573607181007
 30
0.0
 10
-1083.14264940472
 20
2162.256564677302
 30
0.0
 10
-1083.168283149391
 20
2161.622478027866
 30
0.0
 10
-1083.142649448974
 20
2160.9868281962
 30
0.0
 10
-1083.129832565575
 20
2160.66900245733
 30
0.0
  0
LINE
  5
317
330
1F
100
AcDbEntity
  8
0
  6
Continuous
 62
     7
370
    15
100
AcDbLine
 10
-1083.1370559035
 20
2162.4049272004
 30
0.0
 11
-1083.1298325656
 21
2162.573607181
 31
0.0
  0
LINE
  5
318
330
1F
100
AcDbEntity
  8
0
  6
Continuous
 62
     7
370
    15
100
AcDbLine
 10
-1072.2860862015
 20
2154.9366200425
 30
0.0
 11
-1072.2860862015
 21
2179.469955162
 31
0.0
  0
LINE
  5
319
330
1F
100
AcDbEntity
  8
0
  6
Continuous
 62
     7
370
    15
100
AcDbLine
 10
-1072.2860862015
 20
2139.469956056
 30
0.0
 11
-1072.2860862015
 21
2154.9366200425
 31
0.0
  0
LINE
  5
31A
330
1F
100
AcDbEntity
  8
0
  6
Continuous
 62
     7
370
    15
100
AcDbLine
 10
-1080.2860837875
 20
2154.9366200425
 30
0.0
 11
-1080.2860837875
 21
2179.469955162
 31
0.0
  0
LINE
  5
31B
330
1F
100
AcDbEntity
  8
0
  6
Continuous
 62
     7
370
    15
100
AcDbLine
 10
-1080.2860837875
 20
2139.469956056
 30
0.0
 11
-1080.2860837875
 21
2154.9366200425
 31
0.0
  0
LINE
  5
31C
330
1F
100
AcDbEntity
  8
0
  6
Continuous
 62
     7
370
    15
100
AcDbLine
 10
-1041.4860863684
 20
2159.469955609
 30
0.0
 11
-1041.4860863684
 21
2175.4699563689
 31
0.0
  0
LINE
  5
31D
330
1F
100
AcDbEntity
  8
0
  6
Continuous
 62
     7
370
    15
100
AcDbLine
 10
-1041.4860863684
 20
2143.469954849
 30
0.0
 11
-1041.4860863684
 21
2159.469955609
 31
0.0
  0
LINE
  5
31E
330
1F
100
AcDbEntity
  8
0
  6
Continuous
 62
     7
370
    15
100
AcDbLine
 10
-1039.6860857008
 20
2159.469955609
 30
0.0
 11
-1039.6860857008
 21
2145.2699555166
 31
0.0
  0
LINE
  5
31F
330
1F
100
AcDbEntity
  8
0
  6
Continuous
 62
     7
370
    15
100
AcDbLine
 10
-1039.6860857008
 20
2173.6699557014
 30
0.0
 11
-1039.6860857008
 21
2159.469955609
 31
0.0
  0
LINE
  5
320
330
1F
100
AcDbEntity
  8
0
  6
Continuous
 62
     7
370
    15
100
AcDbLine
 10
-1043.086085513
 20
2159.469955609
 30
0.0
 11
-1043.4566606281
 21
2156.9093312219
 31
0.0
  0
LWPOLYLINE
  5
321
330
1F
100
AcDbEntity
  8
0
  6
Continuous
 62
     7
370
    15
100
AcDbPolyline
 90
       17
 70
   128
 43
0.0
 10
-1068.1572724579
 20
2159.2426607613
 10
-1068.1610573528
 20
2161.2405766582
 10
-1067.2833752332
 20
2164.3956950948
 10
-1065.5638333855
 20
2167.2923648812
 10
-1062.7134014366
 20
2169.9282946147
 10
-1061.0389169751
 20
2170.8764089353
 10
-1059.1884274481
 20
2171.5734088875
 10
-1056.4262364505
 20
2172.0481980674
 10
-1053.5613801775
 20
2171.8895221211
 10
-1050.3998529611
 20
2170.9074266337
 10
-1048.4163742957
 20
2169.7616269894
 10
-1046.6861539034
 20
2168.2881880633
 10
-1045.2087913153
 20
2166.4667357773
 10
-1044.0657102017
 20
2164.3409812905
 10
-1043.1805197594
 20
2161.0096992308
 10
-1043.086085513
 20
2159.469955609
 10
-1043.086085513
 20
2159.469955609
  0
LINE
  5
322
330
1F
100
AcDbEntity
  8
0
  6
Continuous
 62
     8
370
    15
100
AcDbLine
 10
-1049.1860863266
 20
2157.8177352285
 30
0.0
 11
-1049.1860863266
 21
2166.9199555263
 31
0.0
  0
LINE
  5
323
330
1F
100
AcDbEntity
  8
0
  6
Continuous
 62
     8
370
    15
100
AcDbLine
 10
-1049.1860863266
 20
2152.0199556917
 30
0.0
 11
-1049.1860863266
 21
2157.8177352285
 31
0.0
  0
LINE
  5
324
330
1F
100
AcDbEntity
  8
0
  6
Continuous
 62
     8
370
    15
100
AcDbLine
 10
-1035.3560848607
 20
2009.2945629813
 30
0.0
 11
-1035.3560848607
 21
2024.4699502446
 31
0.0
  0
LINE
  5
325
330
1F
100
AcDbEntity
  8
0
  6
Continuous
 62
     8
370
    15
100
AcDbLine
 10
-1035.3560848607
 20
1994.4699490525
 30
0.0
 11
-1035.3560848607
 21
2009.2945629813
 31
0.0
  0
LINE
  5
326
330
1F
100
AcDbEntity
  8
0
  6
Continuous
 62
     8
370
    15
100
AcDbLine
 10
-1035.1586742772
 20
2009.2965150334
 30
0.0
 11
-1035.1586742772
 21
1994.637870238
 31
0.0
  0
LINE
  5
327
330
1F
100
AcDbEntity
  8
0
  6
Continuous
 62
     8
370
    15
100
AcDbLine
 10
-1035.1586742772
 20
2024.3020439602
 30
0.0
 11
-1035.1586742772
 21
2009.2965150334
 31
0.0
  0
LINE
  5
328
330
1F
100
AcDbEntity
  8
0
  6
Continuous
 62
     8
370
    15
100
AcDbLine
 10
-1033.8172316996
 20
2006.7579085089
 30
0.0
 11
-1033.8423373623
 21
2006.7409509875
 31
0.0
  0
LINE
  5
329
330
1F
100
AcDbEntity
  8
0
  6
Continuous
 62
     8
370
    15
100
AcDbLine
 10
-1035.3560848607
 20
2067.4273381092
 30
0.0
 11
-1035.3560848607
 21
2079.4699573971
 31
0.0
  0
LINE
  5
32A
330
1F
100
AcDbEntity
  8
0
  6
Continuous
 62
     8
370
    15
100
AcDbLine
 10
-1035.3560848607
 20
2049.469956205
 30
0.0
 11
-1035.3560848607
 21
2067.4273381092
 31
0.0
  0
LINE
  5
32B
330
1F
100
AcDbEntity
  8
0
  6
Continuous
 62
     8
370
    15
100
AcDbLine
 10
-1035.1586742772
 20
2067.394227729
 30
0.0
 11
-1035.1586742772
 21
2049.6378773905
 31
0.0
  0
LINE
  5
32C
330
1F
100
AcDbEntity
  8
0
  6
Continuous
 62
     8
370
    15
100
AcDbLine
 10
-1035.1586742772
 20
2079.3020362116
 30
0.0
 11
-1035.1586742772
 21
2067.394227729
 31
0.0
  0
LINE
  5
32D
330
1F
100
AcDbEntity
  8
0
  6
Continuous
 62
     8
370
    15
100
AcDbLine
 10
-1043.1586746571
 20
2193.6080278911
 30
0.0
 11
-1043.1586746571
 21
2183.1378741272
 31
0.0
  0
LINE
  5
32E
330
1F
100
AcDbEntity
  8
0
  6
Continuous
 62
     8
370
    15
100
AcDbLine
 10
-1043.1586746571
 20
2212.8020385362
 30
0.0
 11
-1043.1586746571
 21
2193.6080278911
 31
0.0
  0
LINE
  5
32F
330
1F
100
AcDbEntity
  8
0
  6
Continuous
 62
     8
370
    15
100
AcDbLine
 10
-1043.3560852406
 20
2193.5586454429
 30
0.0
 11
-1043.3560852406
 21
2212.9699559964
 31
0.0
  0
LINE
  5
330
330
1F
100
AcDbEntity
  8
0
  6
Continuous
 62
     8
370
    15
100
AcDbLine
 10
-1043.3560852406
 20
2182.9699548043
 30
0.0
 11
-1043.3560852406
 21
2193.5586454429
 31
0.0
  0
LINE
  5
331
330
1F
100
AcDbEntity
  8
0
  6
Continuous
 62
     8
370
    15
100
AcDbLine
 10
-1044.4860849974
 20
2212.9699559964
 30
0.0
 11
-1044.4860849974
 21
2182.9699548043
 31
0.0
  0
LINE
  5
332
330
1F
100
AcDbEntity
  8
0
  6
Continuous
 62
     8
370
    15
100
AcDbLine
 10
-1044.8860861806
 20
2188.2199561305
 30
0.0
 11
-1044.8860861806
 21
2207.7199565329
 31
0.0
  0
LINE
  5
333
330
1F
100
AcDbEntity
  8
0
  6
Continuous
 62
     8
370
    15
100
AcDbLine
 10
-1084.2148010133
 20
1997.1360201098
 30
0.0
 11
-1084.2148010133
 21
2021.8038940884
 31
0.0
  0
LINE
  5
334
330
1F
100
AcDbEntity
  8
0
  6
Continuous
 62
     8
370
    15
100
AcDbLine
 10
-1084.0176959036
 20
2021.9699526288
 30
0.0
 11
-1084.0176959036
 21
1996.9699615695
 31
0.0
  0
LINE
  5
335
330
1F
100
AcDbEntity
  8
0
  6
Continuous
 62
     8
370
    15
100
AcDbLine
 10
-1084.2148010133
 20
2052.1360198118
 30
0.0
 11
-1084.2148010133
 21
2076.8038937904
 31
0.0
  0
LINE
  5
336
330
1F
100
AcDbEntity
  8
0
  6
Continuous
 62
     8
370
    15
100
AcDbLine
 10
-1084.0176959036
 20
2076.9699523307
 30
0.0
 11
-1084.0176959036
 21
2051.9699538208
 31
0.0
  0
LINE
  5
337
330
1F
100
AcDbEntity
  8
0
  6
Continuous
 62
     8
370
    15
100
AcDbLine
 10
-1084.0176959036
 20
2150.4699559964
 30
0.0
 11
-1084.0176959036
 21
2125.4699537612
 31
0.0
  0
LINE
  5
338
330
1F
100
AcDbEntity
  8
0
  6
Continuous
 62
     8
370
    15
100
AcDbLine
 10
-1084.2148010133
 20
2125.6360197522
 30
0.0
 11
-1084.2148010133
 21
2150.3038918681
 31
0.0
  0
LINE
  5
339
330
1F
100
AcDbEntity
  8
0
  6
Continuous
 62
     8
370
    15
100
AcDbLine
 10
-1084.2148010133
 20
2185.6360202737
 30
0.0
 11
-1084.2148010133
 21
2210.3038923897
 31
0.0
  0
LINE
  5
33A
330
1F
100
AcDbEntity
  8
0
  6
Continuous
 62
     8
370
    15
100
AcDbLine
 10
-1084.0176959036
 20
2210.4699546553
 30
0.0
 11
-1084.0176959036
 21
2185.4699561454
 31
0.0
  0
LINE
  5
33B
330
1F
100
AcDbEntity
  8
0
  6
Continuous
 62
     8
370
    15
100
AcDbLine
 10
-1055.7404663859
 20
66.9437581755
 30
0.0
 11
-1054.1236419676
 21
66.9437581755
 31
0.0
  0
LINE
  5
33C
330
1F
100
AcDbEntity
  8
0
  6
Continuous
 62
     8
370
    15
100
AcDbLine
 10
-1059.2485275564
 20
66.9437581755
 30
0.0
 11
-1057.6317068634
 21
66.9437581755
 31
0.0
  0
LINE
  5
33D
330
1F
100
AcDbEntity
  8
0
  6
Continuous
 62
     8
370
    15
100
AcDbLine
 10
-1054.3514732716
 20
79.996221707
 30
0.0
 11
-1055.9615958927
 21
79.996221707
 31
0.0
  0
LINE
  5
33E
330
1F
100
AcDbEntity
  8
0
  6
Continuous
 62
     8
370
    15
100
AcDbLine
 10
-1057.4105773566
 20
79.996221707
 30
0.0
 11
-1059.0206999777
 21
79.996221707
 31
0.0
  0
LINE
  5
33F
330
1F
100
AcDbEntity
  8
0
  6
Continuous
 62
     8
370
    15
100
AcDbLine
 10
-1081.6160869298
 20
2174.4699552737
 30
0.0
 11
-1081.6160869298
 21
2144.4699559443
 31
0.0
  0
LINE
  5
340
330
1F
100
AcDbEntity
  8
0
  6
Continuous
 62
     8
370
    15
100
AcDbLine
 10
-1081.8134975133
 20
2144.6378743358
 30
0.0
 11
-1081.8134975133
 21
2174.3020368822
 31
0.0
  0
LINE
  5
341
330
1F
100
AcDbEntity
  8
0
  6
Continuous
 62
     7
370
    15
100
AcDbLine
 10
-504.6918365844
 20
-178.4968858078
 30
0.0
 11
-526.6378588714
 21
-178.4968858078
 31
0.0
  0
LINE
  5
342
330
1F
100
AcDbEntity
  8
0
  6
Continuous
 62
     7
370
    15
100
AcDbLine
 10
-558.4816142656
 20
-178.4968858078
 30
0.0
 11
-616.5597319342
 21
-178.4968858078
 31
0.0
  0
LINE
  5
343
330
1F
100
AcDbEntity
  8
0
  6
Continuous
 62
     7
370
    15
100
AcDbLine
 10
119.2732572816
 20
-178.4968858078
 30
0.0
 11
-474.8811211176
 21
-178.4968858078
 31
0.0
  0
LINE
  5
344
330
1F
100
AcDbEntity
  8
0
  6
Continuous
 62
     7
370
    15
100
AcDbLine
 10
732.6063037179
 20
-178.4968858078
 30
0.0
 11
225.1188874505
 21
-178.4968858078
 31
0.0
  0
LINE
  5
345
330
1F
100
AcDbEntity
  8
0
  6
Continuous
 62
     7
370
    15
100
AcDbLine
 10
195.3081608079
 20
-178.4968858078
 30
0.0
 11
134.2554211877
 21
-178.4968858078
 31
0.0
  0
LINE
  5
346
330
1F
100
AcDbEntity
  8
0
  6
Continuous
 62
     7
370
    15
100
AcDbLine
 10
1345.9392905496
 20
-178.4968858078
 30
0.0
 11
747.5884080194
 21
-178.4968858078
 31
0.0
  0
LINE
  5
347
330
1F
100
AcDbEntity
  8
0
  6
Continuous
 62
     7
370
    15
100
AcDbLine
 10
1483.4402919076
 20
-178.4968858078
 30
0.0
 11
1433.3621382974
 21
-178.4968858078
 31
0.0
  0
LINE
  5
348
330
1F
100
AcDbEntity
  8
0
  6
Continuous
 62
     7
370
    15
100
AcDbLine
 10
1401.5183568262
 20
-178.4968858078
 30
0.0
 11
1360.9213948511
 21
-178.4968858078
 31
0.0
  0
LINE
  5
349
330
1F
100
AcDbEntity
  8
0
  6
Continuous
 62
     7
370
    15
100
AcDbLine
 10
1360.9902978204
 20
-203.4968843177
 30
0.0
 11
1401.5572190545
 21
-203.4968843177
 31
0.0
  0
LINE
  5
34A
330
1F
100
AcDbEntity
  8
0
  6
Continuous
 62
     7
370
    15
100
AcDbLine
 10
1433.3276868127
 20
-203.4968843177
 30
0.0
 11
1483.4402919076
 21
-203.4968843177
 31
0.0
  0
LINE
  5
34B
330
1F
100
AcDbEntity
  8
0
  6
Continuous
 62
     7
370
    15
100
AcDbLine
 10
747.9902625345
 20
-203.4968843177
 30
0.0
 11
1345.9222436212
 21
-203.4968843177
 31
0.0
  0
LINE
  5
34C
330
1F
100
AcDbEntity
  8
0
  6
Continuous
 62
     7
370
    15
100
AcDbLine
 10
134.2232346795
 20
-203.4968843177
 30
0.0
 11
195.213508632
 21
-203.4968843177
 31
0.0
  0
LINE
  5
34D
330
1F
100
AcDbEntity
  8
0
  6
Continuous
 62
     7
370
    15
100
AcDbLine
 10
225.2135396264
 20
-203.4968843177
 30
0.0
 11
732.6562524103
 21
-203.4968843177
 31
0.0
  0
LINE
  5
34E
330
1F
100
AcDbEntity
  8
0
  6
Continuous
 62
     7
370
    15
100
AcDbLine
 10
-474.7864791863
 20
-203.4968843177
 30
0.0
 11
118.9222455285
 21
-203.4968843177
 31
0.0
  0
LINE
  5
34F
330
1F
100
AcDbEntity
  8
0
  6
Continuous
 62
     7
370
    15
100
AcDbLine
 10
-616.5597319342
 20
-203.4968843177
 30
0.0
 11
-558.4428339936
 21
-203.4968843177
 31
0.0
  0
LINE
  5
350
330
1F
100
AcDbEntity
  8
0
  6
Continuous
 62
     7
370
    15
100
AcDbLine
 10
-526.6723178066
 20
-203.4968843177
 30
0.0
 11
-504.786479447
 21
-203.4968843177
 31
0.0
  0
LINE
  5
351
330
1F
100
AcDbEntity
  8
0
  6
Continuous
 62
     7
370
    15
100
AcDbLine
 10
732.6063037179
 20
-160.496886117
 30
0.0
 11
732.6063037179
 21
-178.4968858078
 31
0.0
  0
LINE
  5
352
330
1F
100
AcDbEntity
  8
0
  6
Continuous
 62
     7
370
    15
100
AcDbLine
 10
747.6062894128
 20
-178.4968858078
 30
0.0
 11
747.6062894128
 21
-160.496886117
 31
0.0
  0
LINE
  5
353
330
1F
100
AcDbEntity
  8
0
  6
Continuous
 62
     7
370
    15
100
AcDbLine
 10
-494.059736535
 20
-160.496886117
 30
0.0
 11
-494.059736535
 21
-177.2306447342
 31
0.0
  0
LINE
  5
354
330
1F
100
AcDbEntity
  8
0
  6
Continuous
 62
     7
370
    15
100
AcDbLine
 10
-479.0597368702
 20
-177.8749448672
 30
0.0
 11
-479.0597368702
 21
-160.496886117
 31
0.0
  0
LINE
  5
355
330
1F
100
AcDbEntity
  8
0
  6
Continuous
 62
     7
370
    15
100
AcDbLine
 10
119.2732572816
 20
-160.496886117
 30
0.0
 11
119.2732572816
 21
-178.4968858078
 31
0.0
  0
LINE
  5
356
330
1F
100
AcDbEntity
  8
0
  6
Continuous
 62
     7
370
    15
100
AcDbLine
 10
134.2732429765
 20
-178.4968858078
 30
0.0
 11
134.2732429765
 21
-160.496886117
 31
0.0
  0
LINE
  5
357
330
1F
100
AcDbEntity
  8
0
  6
Continuous
 62
     7
370
    15
100
AcDbLine
 10
1345.9392905496
 20
-160.496886117
 30
0.0
 11
1345.9392905496
 21
-178.4968858078
 31
0.0
  0
LINE
  5
358
330
1F
100
AcDbEntity
  8
0
  6
Continuous
 62
     7
370
    15
100
AcDbLine
 10
1360.9392762445
 20
-178.4968858078
 30
0.0
 11
1360.9392762445
 21
-160.496886117
 31
0.0
  0
LINE
  5
359
330
1F
100
AcDbEntity
  8
0
  6
Continuous
 62
     7
370
    15
100
AcDbLine
 10
1323.4392524026
 20
-156.496885927
 30
0.0
 11
1323.4392524026
 21
-158.496886022
 31
0.0
  0
LINE
  5
35A
330
1F
100
AcDbEntity
  8
0
  6
Continuous
 62
     7
370
    15
100
AcDbLine
 10
1383.4393143915
 20
-158.496886022
 30
0.0
 11
1383.4393143915
 21
-156.496885927
 31
0.0
  0
LINE
  5
35B
330
1F
100
AcDbEntity
  8
0
  6
Continuous
 62
     7
370
    15
100
AcDbLine
 10
1323.4392524026
 20
-158.496886022
 30
0.0
 11
1338.4392380975
 21
-160.496886117
 31
0.0
  0
LINE
  5
35C
330
1F
100
AcDbEntity
  8
0
  6
Continuous
 62
     7
370
    15
100
AcDbLine
 10
1368.4392094873
 20
-160.496886117
 30
0.0
 11
1383.4393143915
 21
-158.496886022
 31
0.0
  0
LINE
  5
35D
330
1F
100
AcDbEntity
  8
0
  6
Continuous
 62
     7
370
    15
100
AcDbLine
 10
96.7732787393
 20
-156.496885927
 30
0.0
 11
96.7732787393
 21
-158.496886022
 31
0.0
  0
LINE
  5
35E
330
1F
100
AcDbEntity
  8
0
  6
Continuous
 62
     7
370
    15
100
AcDbLine
 10
156.7732811235
 20
-158.496886022
 30
0.0
 11
156.7732811235
 21
-156.496885927
 31
0.0
  0
LINE
  5
35F
330
1F
100
AcDbEntity
  8
0
  6
Continuous
 62
     7
370
    15
100
AcDbLine
 10
96.7732787393
 20
-158.496886022
 30
0.0
 11
111.7732644342
 21
-160.496886117
 31
0.0
  0
LINE
  5
360
330
1F
100
AcDbEntity
  8
0
  6
Continuous
 62
     7
370
    15
100
AcDbLine
 10
141.773235824
 20
-160.496886117
 30
0.0
 11
156.7732811235
 21
-158.496886022
 31
0.0
  0
LINE
  5
361
330
1F
100
AcDbEntity
  8
0
  6
Continuous
 62
     7
370
    15
100
AcDbLine
 10
-516.559736032
 20
-156.496885927
 30
0.0
 11
-516.559736032
 21
-158.496886022
 31
0.0
  0
LINE
  5
362
330
1F
100
AcDbEntity
  8
0
  6
Continuous
 62
     7
370
    15
100
AcDbLine
 10
-456.5597373731
 20
-158.496886022
 30
0.0
 11
-456.5597373731
 21
-156.496885927
 31
0.0
  0
LINE
  5
363
330
1F
100
AcDbEntity
  8
0
  6
Continuous
 62
     7
370
    15
100
AcDbLine
 10
-516.559736032
 20
-158.496886022
 30
0.0
 11
-501.5597363673
 21
-160.496886117
 31
0.0
  0
LINE
  5
364
330
1F
100
AcDbEntity
  8
0
  6
Continuous
 62
     7
370
    15
100
AcDbLine
 10
-471.5597370379
 20
-160.496886117
 30
0.0
 11
-456.5597373731
 21
-158.496886022
 31
0.0
  0
LINE
  5
365
330
1F
100
AcDbEntity
  8
0
  6
Continuous
 62
     7
370
    15
100
AcDbLine
 10
710.106265571
 20
-156.496885927
 30
0.0
 11
710.106265571
 21
-158.496886022
 31
0.0
  0
LINE
  5
366
330
1F
100
AcDbEntity
  8
0
  6
Continuous
 62
     7
370
    15
100
AcDbLine
 10
770.1062083505
 20
-158.496886022
 30
0.0
 11
770.1062083505
 21
-156.496885927
 31
0.0
  0
LINE
  5
367
330
1F
100
AcDbEntity
  8
0
  6
Continuous
 62
     7
370
    15
100
AcDbLine
 10
710.106265571
 20
-158.496886022
 30
0.0
 11
725.1062512658
 21
-160.496886117
 31
0.0
  0
LINE
  5
368
330
1F
100
AcDbEntity
  8
0
  6
Continuous
 62
     7
370
    15
100
AcDbLine
 10
755.1062226556
 20
-160.496886117
 30
0.0
 11
770.1062083505
 21
-158.496886022
 31
0.0
  0
LINE
  5
369
330
1F
100
AcDbEntity
  8
0
  6
Continuous
 62
     7
370
    15
100
AcDbLine
 10
119.3232655786
 20
-203.2433634117
 30
0.0
 11
119.3232655786
 21
-203.4968843177
 31
0.0
  0
LINE
  5
36A
330
1F
100
AcDbEntity
  8
0
  6
Continuous
 62
     7
370
    15
100
AcDbLine
 10
119.3232655786
 20
-203.4968843177
 30
0.0
 11
120.323252704
 21
-204.4968863443
 31
0.0
  0
LINE
  5
36B
330
1F
100
AcDbEntity
  8
0
  6
Continuous
 62
     7
370
    15
100
AcDbLine
 10
133.2232475541
 20
-204.4968863443
 30
0.0
 11
134.2232346795
 21
-203.4968843177
 31
0.0
  0
LINE
  5
36C
330
1F
100
AcDbEntity
  8
0
  6
Continuous
 62
     7
370
    15
100
AcDbLine
 10
1345.9892392419
 20
-203.4968843177
 30
0.0
 11
1346.989285972
 21
-204.4968863443
 31
0.0
  0
LINE
  5
36D
330
1F
100
AcDbEntity
  8
0
  6
Continuous
 62
     7
370
    15
100
AcDbLine
 10
1359.8892808221
 20
-204.4968863443
 30
0.0
 11
1360.8892083429
 21
-203.4968843177
 31
0.0
  0
LINE
  5
36E
330
1F
100
AcDbEntity
  8
0
  6
Continuous
 62
     7
370
    15
100
AcDbLine
 10
747.5562215112
 20
-203.4968843177
 30
0.0
 11
747.5562215112
 21
-203.2428418711
 31
0.0
  0
LINE
  5
36F
330
1F
100
AcDbEntity
  8
0
  6
Continuous
 62
     7
370
    15
100
AcDbLine
 10
732.6562524103
 20
-203.4968843177
 30
0.0
 11
733.6562991403
 21
-204.4968863443
 31
0.0
  0
LINE
  5
370
330
1F
100
AcDbEntity
  8
0
  6
Continuous
 62
     7
370
    15
100
AcDbLine
 10
746.5562939905
 20
-204.4968863443
 30
0.0
 11
747.5562215112
 21
-203.4968843177
 31
0.0
  0
LINE
  5
371
330
1F
100
AcDbEntity
  8
0
  6
Continuous
 62
     7
370
    15
100
AcDbLine
 10
195.213508632
 20
-170.6668853253
 30
0.0
 11
195.213508632
 21
-171.9968856737
 31
0.0
  0
LINE
  5
372
330
1F
100
AcDbEntity
  8
0
  6
Continuous
 62
     7
370
    15
100
AcDbLine
 10
225.2135396264
 20
-171.9968856737
 30
0.0
 11
225.2135396264
 21
-170.6668853253
 31
0.0
  0
ARC
  5
373
330
1F
100
AcDbEntity
  8
0
  6
Continuous
 62
     7
370
    15
100
AcDbCircle
 10
225.0135206493
 20
-170.6668850784
 30
0.0
 40
0.1999999999999994
100
AcDbArc
 50
0.0
 51
80.7694259592
  0
ARC
  5
374
330
1F
100
AcDbEntity
  8
0
  6
Continuous
 62
     7
370
    15
100
AcDbCircle
 10
195.4135206493
 20
-170.6668850784
 30
0.0
 40
0.1999999999999994
100
AcDbArc
 50
99.2305740408
 51
180.0
  0
ARC
  5
375
330
1F
100
AcDbEntity
  8
0
  6
Continuous
 62
     7
370
    15
100
AcDbCircle
 10
205.796652041
 20
-288.9155720093
 30
0.0
 40
120.0
100
AcDbArc
 50
80.7694259592
 51
86.5226686826
  0
ARC
  5
376
330
1F
100
AcDbEntity
  8
0
  6
Continuous
 62
     7
370
    15
100
AcDbCircle
 10
214.6303892575
 20
-288.9155720093
 30
0.0
 40
120.0
100
AcDbArc
 50
93.4765988851
 51
99.2305740408
  0
ARC
  5
377
330
1F
100
AcDbEntity
  8
0
  6
Continuous
 62
     7
370
    15
100
AcDbCircle
 10
-474.9864793507
 20
-170.6668850784
 30
0.0
 40
0.2000000000000222
100
AcDbArc
 50
0.0
 51
80.7694259591
  0
ARC
  5
378
330
1F
100
AcDbEntity
  8
0
  6
Continuous
 62
     7
370
    15
100
AcDbCircle
 10
-504.5864793507
 20
-170.6668850784
 30
0.0
 40
0.2000000000000222
100
AcDbArc
 50
99.2305740409
 51
180.0
  0
LINE
  5
379
330
1F
100
AcDbEntity
  8
0
  6
Continuous
 62
     7
370
    15
100
AcDbLine
 10
-504.786479447
 20
-170.6668853253
 30
0.0
 11
-504.786479447
 21
-171.9968856737
 31
0.0
  0
LINE
  5
37A
330
1F
100
AcDbEntity
  8
0
  6
Continuous
 62
     7
370
    15
100
AcDbLine
 10
-474.7864791863
 20
-171.9968856737
 30
0.0
 11
-474.7864791863
 21
-170.6668853253
 31
0.0
  0
ARC
  5
37B
330
1F
100
AcDbEntity
  8
0
  6
Continuous
 62
     7
370
    15
100
AcDbCircle
 10
-494.203347959
 20
-288.9155720093
 30
0.0
 40
120.0000000000001
100
AcDbArc
 50
80.7694259592
 51
82.7501275671
  0
ARC
  5
37C
330
1F
100
AcDbEntity
  8
0
  6
Continuous
 62
     7
370
    15
100
AcDbCircle
 10
-485.3696107425
 20
-288.9155720093
 30
0.0
 40
120.0
100
AcDbArc
 50
94.1528647452
 51
99.2305740408
  0
LINE
  5
37D
330
1F
100
AcDbEntity
  8
0
  6
Continuous
 62
     7
370
    15
100
AcDbLine
 10
-504.786479447
 20
-178.6668857053
 30
0.0
 11
-504.786479447
 21
-179.7968854621
 31
0.0
  0
LINE
  5
37E
330
1F
100
AcDbEntity
  8
0
  6
Continuous
 62
     7
370
    15
100
AcDbLine
 10
-474.7864791863
 20
-179.7968854621
 30
0.0
 11
-474.7864791863
 21
-178.6668857053
 31
0.0
  0
ARC
  5
37F
330
1F
100
AcDbEntity
  8
0
  6
Continuous
 62
     7
370
    15
100
AcDbCircle
 10
-474.9864793507
 20
-178.6668850784
 30
0.0
 40
0.2000000000000039
100
AcDbArc
 50
0.0
 51
80.7694259592
  0
ARC
  5
380
330
1F
100
AcDbEntity
  8
0
  6
Continuous
 62
     7
370
    15
100
AcDbCircle
 10
-504.5864793507
 20
-178.6668850784
 30
0.0
 40
0.1999999999999886
100
AcDbArc
 50
99.2305740408
 51
180.0
  0
ARC
  5
381
330
1F
100
AcDbEntity
  8
0
  6
Continuous
 62
     7
370
    15
100
AcDbCircle
 10
-504.5864793507
 20
-179.796885927
 30
0.0
 40
0.2000000000000171
100
AcDbArc
 50
180.0
 51
270.0
  0
ARC
  5
382
330
1F
100
AcDbEntity
  8
0
  6
Continuous
 62
     7
370
    15
100
AcDbCircle
 10
-474.9864793507
 20
-179.796885927
 30
0.0
 40
0.2000000000000171
100
AcDbArc
 50
270.0
 51
0.0
  0
ARC
  5
383
330
1F
100
AcDbEntity
  8
0
  6
Continuous
 62
     7
370
    15
100
AcDbCircle
 10
-494.203347959
 20
-296.9155720093
 30
0.0
 40
120.0000000000001
100
AcDbArc
 50
80.7694259592
 51
86.6641406222
  0
ARC
  5
384
330
1F
100
AcDbEntity
  8
0
  6
Continuous
 62
     7
370
    15
100
AcDbCircle
 10
-485.3696107425
 20
-296.9155720093
 30
0.0
 40
120.0000000000001
100
AcDbArc
 50
93.3353841833
 51
99.2305740408
  0
ARC
  5
385
330
1F
100
AcDbEntity
  8
0
  6
Continuous
 62
     7
370
    15
100
AcDbCircle
 10
-499.7364793507
 20
-180.196885927
 30
0.0
 40
0.1999999999999886
100
AcDbArc
 50
0.0
 51
90.0
  0
ARC
  5
386
330
1F
100
AcDbEntity
  8
0
  6
Continuous
 62
     7
370
    15
100
AcDbCircle
 10
-479.8364793507
 20
-180.196885927
 30
0.0
 40
0.1999999999999886
100
AcDbArc
 50
90.0
 51
180.0
  0
LINE
  5
387
330
1F
100
AcDbEntity
  8
0
  6
Continuous
 62
     7
370
    15
100
AcDbLine
 10
-499.5364790522
 20
-180.1968866453
 30
0.0
 11
-499.5364790522
 21
-180.4968861357
 31
0.0
  0
LINE
  5
388
330
1F
100
AcDbEntity
  8
0
  6
Continuous
 62
     7
370
    15
100
AcDbLine
 10
-480.0364795812
 20
-180.4968861357
 30
0.0
 11
-480.0364795812
 21
-180.1968866453
 31
0.0
  0
ARC
  5
389
330
1F
100
AcDbEntity
  8
0
  6
Continuous
 62
     7
370
    15
100
AcDbCircle
 10
225.0135206493
 20
-178.6668850784
 30
0.0
 40
0.1999999999999994
100
AcDbArc
 50
0.0
 51
80.7694259592
  0
ARC
  5
38A
330
1F
100
AcDbEntity
  8
0
  6
Continuous
 62
     7
370
    15
100
AcDbCircle
 10
195.4135206493
 20
-178.6668850784
 30
0.0
 40
0.1999999999999994
100
AcDbArc
 50
99.2305740408
 51
180.0
  0
LINE
  5
38B
330
1F
100
AcDbEntity
  8
0
  6
Continuous
 62
     7
370
    15
100
AcDbLine
 10
195.213508632
 20
-178.6668857053
 30
0.0
 11
195.213508632
 21
-179.7968854621
 31
0.0
  0
LINE
  5
38C
330
1F
100
AcDbEntity
  8
0
  6
Continuous
 62
     7
370
    15
100
AcDbLine
 10
225.2135396264
 20
-179.7968854621
 30
0.0
 11
225.2135396264
 21
-178.6668857053
 31
0.0
  0
ARC
  5
38D
330
1F
100
AcDbEntity
  8
0
  6
Continuous
 62
     7
370
    15
100
AcDbCircle
 10
195.4135206493
 20
-179.796885927
 30
0.0
 40
0.2000000000000171
100
AcDbArc
 50
180.0
 51
270.0
  0
ARC
  5
38E
330
1F
100
AcDbEntity
  8
0
  6
Continuous
 62
     7
370
    15
100
AcDbCircle
 10
225.0135206493
 20
-179.796885927
 30
0.0
 40
0.2000000000000171
100
AcDbArc
 50
270.0
 51
0.0
  0
ARC
  5
38F
330
1F
100
AcDbEntity
  8
0
  6
Continuous
 62
     7
370
    15
100
AcDbCircle
 10
205.796652041
 20
-296.9155720093
 30
0.0
 40
120.0
100
AcDbArc
 50
80.7694259592
 51
86.6641406222
  0
ARC
  5
390
330
1F
100
AcDbEntity
  8
0
  6
Continuous
 62
     7
370
    15
100
AcDbCircle
 10
214.6303892575
 20
-296.9155720093
 30
0.0
 40
120.0
100
AcDbArc
 50
93.3353841833
 51
99.2305740408
  0
ARC
  5
391
330
1F
100
AcDbEntity
  8
0
  6
Continuous
 62
     7
370
    15
100
AcDbCircle
 10
200.2635206493
 20
-180.196885927
 30
0.0
 40
0.1999999999999886
100
AcDbArc
 50
0.0
 51
90.0
  0
ARC
  5
392
330
1F
100
AcDbEntity
  8
0
  6
Continuous
 62
     7
370
    15
100
AcDbCircle
 10
220.1635206493
 20
-180.196885927
 30
0.0
 40
0.1999999999999886
100
AcDbArc
 50
90.0
 51
180.0
  0
LINE
  5
393
330
1F
100
AcDbEntity
  8
0
  6
Continuous
 62
     7
370
    15
100
AcDbLine
 10
200.4635453485
 20
-180.1968866453
 30
0.0
 11
200.4635453485
 21
-180.4968861357
 31
0.0
  0
LINE
  5
394
330
1F
100
AcDbEntity
  8
0
  6
Continuous
 62
     7
370
    15
100
AcDbLine
 10
219.96350291
 20
-180.4968861357
 30
0.0
 11
219.96350291
 21
-180.1968866453
 31
0.0
  0
LINE
  5
395
330
1F
100
AcDbEntity
  8
0
  6
Continuous
 62
     7
370
    15
100
AcDbLine
 10
-474.7864791863
 20
-211.796886982
 30
0.0
 11
-474.7864791863
 21
-208.1968856469
 31
0.0
  0
LINE
  5
396
330
1F
100
AcDbEntity
  8
0
  6
Continuous
 62
     7
370
    15
100
AcDbLine
 10
-504.786479447
 20
-208.1968856469
 30
0.0
 11
-504.786479447
 21
-211.796886982
 31
0.0
  0
LINE
  5
397
330
1F
100
AcDbEntity
  8
0
  6
Continuous
 62
     7
370
    15
100
AcDbLine
 10
-474.7864791863
 20
-208.1968856469
 30
0.0
 11
-474.9864797778
 21
-207.9968859866
 31
0.0
  0
LINE
  5
398
330
1F
100
AcDbEntity
  8
0
  6
Continuous
 62
     7
370
    15
100
AcDbLine
 10
-504.5864797868
 20
-207.9968859866
 30
0.0
 11
-504.786479447
 21
-208.1968856469
 31
0.0
  0
LINE
  5
399
330
1F
100
AcDbEntity
  8
0
  6
Continuous
 62
     7
370
    15
100
AcDbLine
 10
-504.786479447
 20
-211.796886982
 30
0.0
 11
-504.5864797868
 21
-211.9968866423
 31
0.0
  0
LINE
  5
39A
330
1F
100
AcDbEntity
  8
0
  6
Continuous
 62
     7
370
    15
100
AcDbLine
 10
-474.9864797778
 20
-211.9968866423
 30
0.0
 11
-474.7864791863
 21
-211.796886982
 31
0.0
  0
LINE
  5
39B
330
1F
100
AcDbEntity
  8
0
  6
Continuous
 62
     7
370
    15
100
AcDbLine
 10
225.2135396264
 20
-211.796886982
 30
0.0
 11
225.2135396264
 21
-208.1968856469
 31
0.0
  0
LINE
  5
39C
330
1F
100
AcDbEntity
  8
0
  6
Continuous
 62
     7
370
    15
100
AcDbLine
 10
195.213508632
 20
-208.1968856469
 30
0.0
 11
195.213508632
 21
-211.796886982
 31
0.0
  0
LINE
  5
39D
330
1F
100
AcDbEntity
  8
0
  6
Continuous
 62
     7
370
    15
100
AcDbLine
 10
225.2135396264
 20
-208.1968856469
 30
0.0
 11
225.0135064386
 21
-207.9968859866
 31
0.0
  0
LINE
  5
39E
330
1F
100
AcDbEntity
  8
0
  6
Continuous
 62
     7
370
    15
100
AcDbLine
 10
195.4135418199
 20
-207.9968859866
 30
0.0
 11
195.213508632
 21
-208.1968856469
 31
0.0
  0
LINE
  5
39F
330
1F
100
AcDbEntity
  8
0
  6
Continuous
 62
     7
370
    15
100
AcDbLine
 10
195.213508632
 20
-211.796886982
 30
0.0
 11
195.4135418199
 21
-211.9968866423
 31
0.0
  0
LINE
  5
3A0
330
1F
100
AcDbEntity
  8
0
  6
Continuous
 62
     7
370
    15
100
AcDbLine
 10
225.0135064386
 20
-211.9968866423
 30
0.0
 11
225.2135396264
 21
-211.796886982
 31
0.0
  0
LINE
  5
3A1
330
1F
100
AcDbEntity
  8
0
  6
Continuous
 62
     7
370
    15
100
AcDbLine
 10
181.2135100625
 20
-180.5968859658
 30
0.0
 11
181.2135100625
 21
-181.9968854502
 31
0.0
  0
LINE
  5
3A2
330
1F
100
AcDbEntity
  8
0
  6
Continuous
 62
     7
370
    15
100
AcDbLine
 10
239.2135381959
 20
-181.9968854502
 30
0.0
 11
239.2135381959
 21
-180.5968859658
 31
0.0
  0
LINE
  5
3A3
330
1F
100
AcDbEntity
  8
0
  6
Continuous
 62
     7
370
    15
100
AcDbLine
 10
239.2135381959
 20
-180.5968859658
 30
0.0
 11
239.113521602
 21
-180.4968861357
 31
0.0
  0
LINE
  5
3A4
330
1F
100
AcDbEntity
  8
0
  6
Continuous
 62
     7
370
    15
100
AcDbLine
 10
181.3135266565
 20
-180.4968861357
 30
0.0
 11
181.2135100625
 21
-180.5968859658
 31
0.0
  0
LINE
  5
3A5
330
1F
100
AcDbEntity
  8
0
  6
Continuous
 62
     7
370
    15
100
AcDbLine
 10
239.2135381959
 20
-201.3968860224
 30
0.0
 11
239.2135381959
 21
-199.9968846753
 31
0.0
  0
LINE
  5
3A6
330
1F
100
AcDbEntity
  8
0
  6
Continuous
 62
     7
370
    15
100
AcDbLine
 10
181.2135100625
 20
-199.9968846753
 30
0.0
 11
181.2135100625
 21
-201.3968860224
 31
0.0
  0
LINE
  5
3A7
330
1F
100
AcDbEntity
  8
0
  6
Continuous
 62
     7
370
    15
100
AcDbLine
 10
181.2135100625
 20
-201.3968860224
 30
0.0
 11
181.3135266565
 21
-201.4968877152
 31
0.0
  0
LINE
  5
3A8
330
1F
100
AcDbEntity
  8
0
  6
Continuous
 62
     7
370
    15
100
AcDbLine
 10
239.113521602
 20
-201.4968877152
 30
0.0
 11
239.2135381959
 21
-201.3968860224
 31
0.0
  0
LINE
  5
3A9
330
1F
100
AcDbEntity
  8
0
  6
Continuous
 62
     7
370
    15
100
AcDbLine
 10
-460.7864796855
 20
-201.3968860224
 30
0.0
 11
-460.7864796855
 21
-199.9968846753
 31
0.0
  0
LINE
  5
3AA
330
1F
100
AcDbEntity
  8
0
  6
Continuous
 62
     7
370
    15
100
AcDbLine
 10
-518.7864780165
 20
-199.9968846753
 30
0.0
 11
-518.7864780165
 21
-201.3968860224
 31
0.0
  0
LINE
  5
3AB
330
1F
100
AcDbEntity
  8
0
  6
Continuous
 62
     7
370
    15
100
AcDbLine
 10
-518.7864780165
 20
-201.3968860224
 30
0.0
 11
-518.686480049
 21
-201.4968877152
 31
0.0
  0
LINE
  5
3AC
330
1F
100
AcDbEntity
  8
0
  6
Continuous
 62
     7
370
    15
100
AcDbLine
 10
-460.8864795156
 20
-201.4968877152
 30
0.0
 11
-460.7864796855
 21
-201.3968860224
 31
0.0
  0
LINE
  5
3AD
330
1F
100
AcDbEntity
  8
0
  6
Continuous
 62
     7
370
    15
100
AcDbLine
 10
-460.7864796855
 20
-180.5968859658
 30
0.0
 11
-460.8864795156
 21
-180.4968861357
 31
0.0
  0
LINE
  5
3AE
330
1F
100
AcDbEntity
  8
0
  6
Continuous
 62
     7
370
    15
100
AcDbLine
 10
-518.686480049
 20
-180.4968861357
 30
0.0
 11
-518.7864780165
 21
-180.5968859658
 31
0.0
  0
LINE
  5
3AF
330
1F
100
AcDbEntity
  8
0
  6
Continuous
 62
     7
370
    15
100
AcDbLine
 10
-518.7864780165
 20
-180.5968859658
 30
0.0
 11
-518.7864780165
 21
-181.9968854502
 31
0.0
  0
LINE
  5
3B0
330
1F
100
AcDbEntity
  8
0
  6
Continuous
 62
     7
370
    15
100
AcDbLine
 10
-460.7864796855
 20
-181.9968854502
 30
0.0
 11
-460.7864796855
 21
-180.5968859658
 31
0.0
  0
LINE
  5
3B1
330
1F
100
AcDbEntity
  8
0
  6
Continuous
 62
     7
370
    15
100
AcDbLine
 10
-460.7864796855
 20
-183.0173151061
 30
0.0
 11
-460.7864796855
 21
-181.9968854502
 31
0.0
  0
LINE
  5
3B2
330
1F
100
AcDbEntity
  8
0
  6
Continuous
 62
     7
370
    15
100
AcDbLine
 10
-518.7864780165
 20
-181.9968854502
 30
0.0
 11
-518.7864780165
 21
-183.0173151061
 31
0.0
  0
ARC
  5
3B3
330
1F
100
AcDbEntity
  8
0
  6
Continuous
 62
     7
370
    15
100
AcDbCircle
 10
-451.1864793507
 20
-191.0229373503
 30
0.0
 40
12.49999999999999
100
AcDbArc
 50
140.1746287392
 51
219.8253712608
  0
ARC
  5
3B4
330
1F
100
AcDbEntity
  8
0
  6
Continuous
 62
     7
370
    15
100
AcDbCircle
 10
-528.3864793507
 20
-191.0229373503
 30
0.0
 40
12.49999999999986
100
AcDbArc
 50
320.1746287392
 51
39.8253712608
  0
LINE
  5
3B5
330
1F
100
AcDbEntity
  8
0
  6
Continuous
 62
     7
370
    15
100
AcDbLine
 10
-460.7864796855
 20
-199.9968846753
 30
0.0
 11
-460.7864796855
 21
-199.0285587922
 31
0.0
  0
LINE
  5
3B6
330
1F
100
AcDbEntity
  8
0
  6
Continuous
 62
     7
370
    15
100
AcDbLine
 10
-518.7864780165
 20
-199.0285587922
 30
0.0
 11
-518.7864780165
 21
-199.9968846753
 31
0.0
  0
LINE
  5
3B7
330
1F
100
AcDbEntity
  8
0
  6
Continuous
 62
     7
370
    15
100
AcDbLine
 10
239.2135381959
 20
-183.0173151061
 30
0.0
 11
239.2135381959
 21
-181.9968854502
 31
0.0
  0
LINE
  5
3B8
330
1F
100
AcDbEntity
  8
0
  6
Continuous
 62
     7
370
    15
100
AcDbLine
 10
181.2135100625
 20
-181.9968854502
 30
0.0
 11
181.2135100625
 21
-183.0173151061
 31
0.0
  0
ARC
  5
3B9
330
1F
100
AcDbEntity
  8
0
  6
Continuous
 62
     7
370
    15
100
AcDbCircle
 10
248.8135206493
 20
-191.0229373503
 30
0.0
 40
12.49999999999995
100
AcDbArc
 50
140.1746287392
 51
219.8253712608
  0
ARC
  5
3BA
330
1F
100
AcDbEntity
  8
0
  6
Continuous
 62
     7
370
    15
100
AcDbCircle
 10
171.6135206493
 20
-191.0229373503
 30
0.0
 40
12.49999999999997
100
AcDbArc
 50
320.1746287392
 51
39.8253712608
  0
LINE
  5
3BB
330
1F
100
AcDbEntity
  8
0
  6
Continuous
 62
     7
370
    15
100
AcDbLine
 10
239.2135381959
 20
-199.9968846753
 30
0.0
 11
239.2135381959
 21
-199.0285587922
 31
0.0
  0
LINE
  5
3BC
330
1F
100
AcDbEntity
  8
0
  6
Continuous
 62
     7
370
    15
100
AcDbLine
 10
181.2135100625
 20
-199.0285587922
 30
0.0
 11
181.2135100625
 21
-199.9968846753
 31
0.0
  0
LINE
  5
3BD
330
1F
100
AcDbEntity
  8
0
  6
Continuous
 62
     7
370
    15
100
AcDbLine
 10
-477.2864795961
 20
-219.3284963682
 30
0.0
 11
-477.2864795961
 21
-217.9968876258
 31
0.0
  0
LINE
  5
3BE
330
1F
100
AcDbEntity
  8
0
  6
Continuous
 62
     7
370
    15
100
AcDbLine
 10
-502.2864799686
 20
-217.9968876258
 30
0.0
 11
-502.2864799686
 21
-219.3284963682
 31
0.0
  0
ARC
  5
3BF
330
1F
100
AcDbEntity
  8
0
  6
Continuous
 62
     7
370
    15
100
AcDbCircle
 10
-502.0864793507
 20
-219.3284986294
 30
0.0
 40
0.200000000000216
100
AcDbArc
 50
180.0
 51
260.2307482568
  0
ARC
  5
3C0
330
1F
100
AcDbEntity
  8
0
  6
Continuous
 62
     7
370
    15
100
AcDbCircle
 10
-477.4864793507
 20
-219.3284986294
 30
0.0
 40
0.1999999999999886
100
AcDbArc
 50
279.7692517432
 51
0.0
  0
ARC
  5
3C1
330
1F
100
AcDbEntity
  8
0
  6
Continuous
 62
     7
370
    15
100
AcDbCircle
 10
-481.7587378001
 20
-101.2657063388
 30
0.0
 40
120.0
100
AcDbArc
 50
260.2307482568
 51
266.16417102
  0
ARC
  5
3C2
330
1F
100
AcDbEntity
  8
0
  6
Continuous
 62
     7
370
    15
100
AcDbCircle
 10
-497.8142209013
 20
-101.2657063388
 30
0.0
 40
120.0
100
AcDbArc
 50
273.83582898
 51
279.7692517432
  0
LINE
  5
3C3
330
1F
100
AcDbEntity
  8
0
  6
Continuous
 62
     7
370
    15
100
AcDbLine
 10
222.7135420106
 20
-219.3284963682
 30
0.0
 11
222.7135420106
 21
-217.9968876258
 31
0.0
  0
LINE
  5
3C4
330
1F
100
AcDbEntity
  8
0
  6
Continuous
 62
     7
370
    15
100
AcDbLine
 10
197.7135062478
 20
-217.9968876258
 30
0.0
 11
197.7135062478
 21
-219.3284963682
 31
0.0
  0
ARC
  5
3C5
330
1F
100
AcDbEntity
  8
0
  6
Continuous
 62
     7
370
    15
100
AcDbCircle
 10
197.9135206493
 20
-219.3284986294
 30
0.0
 40
0.2000000000000018
100
AcDbArc
 50
180.0
 51
260.2307482568
  0
ARC
  5
3C6
330
1F
100
AcDbEntity
  8
0
  6
Continuous
 62
     7
370
    15
100
AcDbCircle
 10
222.5135206493
 20
-219.3284986294
 30
0.0
 40
0.1999999999999738
100
AcDbArc
 50
279.7692517432
 51
0.0
  0
ARC
  5
3C7
330
1F
100
AcDbEntity
  8
0
  6
Continuous
 62
     7
370
    15
100
AcDbCircle
 10
218.2412621999
 20
-101.2657063388
 30
0.0
 40
120.0
100
AcDbArc
 50
260.2307482568
 51
266.16417102
  0
ARC
  5
3C8
330
1F
100
AcDbEntity
  8
0
  6
Continuous
 62
     7
370
    15
100
AcDbCircle
 10
202.1857790987
 20
-101.2657063388
 30
0.0
 40
120.0
100
AcDbArc
 50
273.83582898
 51
279.7692517432
  0
LINE
  5
3C9
330
1F
100
AcDbEntity
  8
0
  6
Continuous
 62
     7
370
    15
100
AcDbLine
 10
225.2135396264
 20
-207.6968846336
 30
0.0
 11
225.2135396264
 21
-202.2968863562
 31
0.0
  0
LINE
  5
3CA
330
1F
100
AcDbEntity
  8
0
  6
Continuous
 62
     7
370
    15
100
AcDbLine
 10
195.213508632
 20
-202.2968863562
 30
0.0
 11
195.213508632
 21
-207.6968846336
 31
0.0
  0
LINE
  5
3CB
330
1F
100
AcDbEntity
  8
0
  6
Continuous
 62
     7
370
    15
100
AcDbLine
 10
225.2135396264
 20
-202.2968863562
 30
0.0
 11
224.9135494493
 21
-201.9968850032
 31
0.0
  0
LINE
  5
3CC
330
1F
100
AcDbEntity
  8
0
  6
Continuous
 62
     7
370
    15
100
AcDbLine
 10
195.5134988092
 20
-201.9968850032
 30
0.0
 11
195.213508632
 21
-202.2968863562
 31
0.0
  0
LINE
  5
3CD
330
1F
100
AcDbEntity
  8
0
  6
Continuous
 62
     7
370
    15
100
AcDbLine
 10
195.213508632
 20
-207.6968846336
 30
0.0
 11
195.5134988092
 21
-207.9968859866
 31
0.0
  0
LINE
  5
3CE
330
1F
100
AcDbEntity
  8
0
  6
Continuous
 62
     7
370
    15
100
AcDbLine
 10
224.9135494493
 20
-207.9968859866
 30
0.0
 11
225.2135396264
 21
-207.6968846336
 31
0.0
  0
LINE
  5
3CF
330
1F
100
AcDbEntity
  8
0
  6
Continuous
 62
     7
370
    15
100
AcDbLine
 10
219.96350291
 20
-201.9968850032
 30
0.0
 11
219.96350291
 21
-201.4968877152
 31
0.0
  0
LINE
  5
3D0
330
1F
100
AcDbEntity
  8
0
  6
Continuous
 62
     7
370
    15
100
AcDbLine
 10
200.4635453485
 20
-201.4968877152
 30
0.0
 11
200.4635453485
 21
-201.9968850032
 31
0.0
  0
LINE
  5
3D1
330
1F
100
AcDbEntity
  8
0
  6
Continuous
 62
     7
370
    15
100
AcDbLine
 10
-474.7864791863
 20
-207.6968846336
 30
0.0
 11
-474.7864791863
 21
-202.2968863562
 31
0.0
  0
LINE
  5
3D2
330
1F
100
AcDbEntity
  8
0
  6
Continuous
 62
     7
370
    15
100
AcDbLine
 10
-504.786479447
 20
-202.2968863562
 30
0.0
 11
-504.786479447
 21
-207.6968846336
 31
0.0
  0
LINE
  5
3D3
330
1F
100
AcDbEntity
  8
0
  6
Continuous
 62
     7
370
    15
100
AcDbLine
 10
-474.7864791863
 20
-202.2968863562
 30
0.0
 11
-475.086479608
 21
-201.9968850032
 31
0.0
  0
LINE
  5
3D4
330
1F
100
AcDbEntity
  8
0
  6
Continuous
 62
     7
370
    15
100
AcDbLine
 10
-504.4864799567
 20
-201.9968850032
 30
0.0
 11
-504.786479447
 21
-202.2968863562
 31
0.0
  0
LINE
  5
3D5
330
1F
100
AcDbEntity
  8
0
  6
Continuous
 62
     7
370
    15
100
AcDbLine
 10
-504.786479447
 20
-207.6968846336
 30
0.0
 11
-504.4864799567
 21
-207.9968859866
 31
0.0
  0
LINE
  5
3D6
330
1F
100
AcDbEntity
  8
0
  6
Continuous
 62
     7
370
    15
100
AcDbLine
 10
-475.086479608
 20
-207.9968859866
 30
0.0
 11
-474.7864791863
 21
-207.6968846336
 31
0.0
  0
LINE
  5
3D7
330
1F
100
AcDbEntity
  8
0
  6
Continuous
 62
     7
370
    15
100
AcDbLine
 10
-480.0364795812
 20
-201.9968850032
 30
0.0
 11
-480.0364795812
 21
-201.4968877152
 31
0.0
  0
LINE
  5
3D8
330
1F
100
AcDbEntity
  8
0
  6
Continuous
 62
     7
370
    15
100
AcDbLine
 10
-499.5364790522
 20
-201.4968877152
 30
0.0
 11
-499.5364790522
 21
-201.9968850032
 31
0.0
  0
LINE
  5
3D9
330
1F
100
AcDbEntity
  8
0
  6
Continuous
 62
     7
370
    15
100
AcDbLine
 10
-527.5597378351
 20
-216.9268873945
 30
0.0
 11
-527.5597378351
 21
-215.5968842521
 31
0.0
  0
LINE
  5
3DA
330
1F
100
AcDbEntity
  8
0
  6
Continuous
 62
     7
370
    15
100
AcDbLine
 10
-557.5597390272
 20
-215.5968842521
 30
0.0
 11
-557.5597390272
 21
-216.9268873945
 31
0.0
  0
ARC
  5
3DB
330
1F
100
AcDbEntity
  8
0
  6
Continuous
 62
     7
370
    15
100
AcDbCircle
 10
-557.3597367026
 20
-216.9268867757
 30
0.0
 40
0.2000000000001592
100
AcDbArc
 50
180.0
 51
260.7694259592
  0
ARC
  5
3DC
330
1F
100
AcDbEntity
  8
0
  6
Continuous
 62
     7
370
    15
100
AcDbCircle
 10
-527.7597367026
 20
-216.9268867757
 30
0.0
 40
0.2000000000000131
100
AcDbArc
 50
279.2305740408
 51
0.0
  0
ARC
  5
3DD
330
1F
100
AcDbEntity
  8
0
  6
Continuous
 62
     7
370
    15
100
AcDbCircle
 10
-538.1428680944
 20
-98.6781998448
 30
0.0
 40
120.0
100
AcDbArc
 50
260.7694259592
 51
266.5831083863
  0
ARC
  5
3DE
330
1F
100
AcDbEntity
  8
0
  6
Continuous
 62
     7
370
    15
100
AcDbCircle
 10
-546.9766053108
 20
-98.6781998448
 30
0.0
 40
120.0
100
AcDbArc
 50
273.4163951255
 51
279.2305740408
  0
LINE
  5
3DF
330
1F
100
AcDbEntity
  8
0
  6
Continuous
 62
     7
370
    15
100
AcDbLine
 10
1432.4402928613
 20
-216.9268873945
 30
0.0
 11
1432.4402928613
 21
-215.5968842521
 31
0.0
  0
LINE
  5
3E0
330
1F
100
AcDbEntity
  8
0
  6
Continuous
 62
     7
370
    15
100
AcDbLine
 10
1402.4403214715
 20
-215.5968842521
 30
0.0
 11
1402.4403214715
 21
-216.9268873945
 31
0.0
  0
ARC
  5
3E1
330
1F
100
AcDbEntity
  8
0
  6
Continuous
 62
     7
370
    15
100
AcDbCircle
 10
1402.6402632974
 20
-216.9268867757
 30
0.0
 40
0.2000000000000455
100
AcDbArc
 50
180.0
 51
260.7694259591
  0
ARC
  5
3E2
330
1F
100
AcDbEntity
  8
0
  6
Continuous
 62
     7
370
    15
100
AcDbCircle
 10
1432.2402632974
 20
-216.9268867757
 30
0.0
 40
0.2000000000000455
100
AcDbArc
 50
279.2305740409
 51
0.0
  0
ARC
  5
3E3
330
1F
100
AcDbEntity
  8
0
  6
Continuous
 62
     7
370
    15
100
AcDbCircle
 10
1421.8571319056
 20
-98.6781998448
 30
0.0
 40
120.0
100
AcDbArc
 50
260.7694259592
 51
266.5831083863
  0
ARC
  5
3E4
330
1F
100
AcDbEntity
  8
0
  6
Continuous
 62
     7
370
    15
100
AcDbCircle
 10
1413.0233946892
 20
-98.6781998448
 30
0.0
 40
120.0000000000001
100
AcDbArc
 50
273.4163951255
 51
279.2305740408
  0
LINE
  5
3E5
330
1F
100
AcDbEntity
  8
0
  6
Continuous
 62
     7
370
    15
100
AcDbLine
 10
1397.4402070306
 20
-207.5968866661
 30
0.0
 11
1397.4402070306
 21
-215.5968842521
 31
0.0
  0
LINE
  5
3E6
330
1F
100
AcDbEntity
  8
0
  6
Continuous
 62
     7
370
    15
100
AcDbLine
 10
1437.4402880929
 20
-215.5968842521
 30
0.0
 11
1437.4402880929
 21
-207.5968866661
 31
0.0
  0
LINE
  5
3E7
330
1F
100
AcDbEntity
  8
0
  6
Continuous
 62
     7
370
    15
100
AcDbLine
 10
-562.5597342588
 20
-207.5968866661
 30
0.0
 11
-562.5597342588
 21
-215.5968842521
 31
0.0
  0
LINE
  5
3E8
330
1F
100
AcDbEntity
  8
0
  6
Continuous
 62
     7
370
    15
100
AcDbLine
 10
-522.5597351529
 20
-215.5968842521
 30
0.0
 11
-522.5597351529
 21
-207.5968866661
 31
0.0
  0
LINE
  5
3E9
330
1F
100
AcDbEntity
  8
0
  6
Continuous
 62
     7
370
    15
100
AcDbLine
 10
1433.4402203821
 20
-176.796886833
 30
0.0
 11
1431.6402793191
 21
-174.9968861655
 31
0.0
  0
LINE
  5
3EA
330
1F
100
AcDbEntity
  8
0
  6
Continuous
 62
     7
370
    15
100
AcDbLine
 10
1403.2402158044
 20
-174.9968861655
 30
0.0
 11
1401.4402747415
 21
-176.796886833
 31
0.0
  0
LINE
  5
3EB
330
1F
100
AcDbEntity
  8
0
  6
Continuous
 62
     7
370
    15
100
AcDbLine
 10
1401.4402747415
 20
-203.4968843177
 30
0.0
 11
1401.4402747415
 21
-207.5968866661
 31
0.0
  0
LINE
  5
3EC
330
1F
100
AcDbEntity
  8
0
  6
Continuous
 62
     7
370
    15
100
AcDbLine
 10
1401.4402747415
 20
-176.796886833
 30
0.0
 11
1401.4402747415
 21
-178.3968859777
 31
0.0
  0
LINE
  5
3ED
330
1F
100
AcDbEntity
  8
0
  6
Continuous
 62
     7
370
    15
100
AcDbLine
 10
1433.4402203821
 20
-178.3968859777
 30
0.0
 11
1433.4402203821
 21
-176.796886833
 31
0.0
  0
LINE
  5
3EE
330
1F
100
AcDbEntity
  8
0
  6
Continuous
 62
     7
370
    15
100
AcDbLine
 10
1433.4402203821
 20
-207.5968866661
 30
0.0
 11
1433.4402203821
 21
-203.4968843177
 31
0.0
  0
LINE
  5
3EF
330
1F
100
AcDbEntity
  8
0
  6
Continuous
 62
     7
370
    15
100
AcDbLine
 10
-526.5597358085
 20
-176.796886833
 30
0.0
 11
-528.3597364761
 21
-174.9968861655
 31
0.0
  0
LINE
  5
3F0
330
1F
100
AcDbEntity
  8
0
  6
Continuous
 62
     7
370
    15
100
AcDbLine
 10
-556.7597403862
 20
-174.9968861655
 30
0.0
 11
-558.5597336032
 21
-176.796886833
 31
0.0
  0
LINE
  5
3F1
330
1F
100
AcDbEntity
  8
0
  6
Continuous
 62
     7
370
    15
100
AcDbLine
 10
-558.5597336032
 20
-203.4968843177
 30
0.0
 11
-558.5597336032
 21
-207.5968866661
 31
0.0
  0
LINE
  5
3F2
330
1F
100
AcDbEntity
  8
0
  6
Continuous
 62
     7
370
    15
100
AcDbLine
 10
-558.5597336032
 20
-176.796886833
 30
0.0
 11
-558.5597336032
 21
-178.3968859777
 31
0.0
  0
LINE
  5
3F3
330
1F
100
AcDbEntity
  8
0
  6
Continuous
 62
     7
370
    15
100
AcDbLine
 10
-526.5597358085
 20
-178.3968859777
 30
0.0
 11
-526.5597358085
 21
-176.796886833
 31
0.0
  0
LINE
  5
3F4
330
1F
100
AcDbEntity
  8
0
  6
Continuous
 62
     7
370
    15
100
AcDbLine
 10
-526.5597358085
 20
-207.5968866661
 30
0.0
 11
-526.5597358085
 21
-203.4968843177
 31
0.0
  0
LINE
  5
3F5
330
1F
100
AcDbEntity
  8
0
  6
Continuous
 62
     7
370
    15
100
AcDbLine
 10
-616.5597319342
 20
-203.4968843177
 30
0.0
 11
-616.5597319342
 21
-178.4968858078
 31
0.0
  0
LWPOLYLINE
  5
3F6
330
1F
100
AcDbEntity
  8
0
  6
Continuous
 62
     7
370
    15
100
AcDbPolyline
 90
       13
 70
   128
 43
0.0
 10
1345.9222436212
 20
-203.4777810291
 10
1346.1595893167
 20
-203.3361119643
 10
1347.0161080621
 20
-202.8508705512
 10
1348.5192179941
 20
-202.1083047107
 10
1350.7832408212
 20
-201.307412
 10
1352.8629660867
 20
-200.9759021416
 10
1355.0177932046
 20
-201.0833171621
 10
1356.9003463052
 20
-201.5429621056
 10
1358.7244868539
 20
-202.2738789633
 10
1360.2609753869
 20
-203.0703907326
 10
1360.9597802423
 20
-203.478511186
 10
1360.9902978204
 20
-203.4968843177
 10
1360.9902978204
 20
-203.4968843177
  0
LWPOLYLINE
  5
3F7
330
1F
100
AcDbEntity
  8
0
  6
Continuous
 62
     7
370
    15
100
AcDbPolyline
 90
       13
 70
   128
 43
0.0
 10
118.9222455285
 20
-203.4777810291
 10
119.1595316194
 20
-203.3361119643
 10
120.0161099695
 20
-202.8508705512
 10
121.5192795061
 20
-202.1083047107
 10
123.7833023332
 20
-201.307412
 10
125.8629679941
 20
-200.9759021416
 10
128.017795112
 20
-201.0833171621
 10
129.9003482126
 20
-201.5429621056
 10
131.7244887613
 20
-202.2738789633
 10
133.2609772943
 20
-203.0703907326
 10
133.9597821496
 20
-203.478511186
 10
133.9902401231
 20
-203.4968843177
 10
133.9902401231
 20
-203.4968843177
  0
LWPOLYLINE
  5
3F8
330
1F
100
AcDbEntity
  8
0
  6
Continuous
 62
     7
370
    15
100
AcDbPolyline
 90
       13
 70
   128
 43
0.0
 10
732.9222083352
 20
-203.4777810291
 10
733.1595540307
 20
-203.3361119643
 10
734.0161919855
 20
-202.8508705512
 10
735.5193019174
 20
-202.1083047107
 10
737.7833247445
 20
-201.307412
 10
739.8629308008
 20
-200.9759021416
 10
742.0177579187
 20
-201.0833171621
 10
743.9003110193
 20
-201.5429621056
 10
745.724451568
 20
-202.2738789633
 10
747.260940101
 20
-203.0703907326
 10
747.9597449563
 20
-203.478511186
 10
747.9902625345
 20
-203.4968843177
 10
747.9902625345
 20
-203.4968843177
  0
LINE
  5
3F9
330
1F
100
AcDbEntity
  8
0
  6
Continuous
 62
     7
370
    15
100
AcDbLine
 10
1483.4402919076
 20
-203.4968843177
 30
0.0
 11
1483.4402919076
 21
-178.4968858078
 31
0.0
  0
LWPOLYLINE
  5
3FA
330
1F
100
AcDbEntity
  8
0
  6
Continuous
 62
     7
370
    15
100
AcDbPolyline
 90
       13
 70
   128
 43
0.0
 10
747.5783944391
 20
-178.5134223715
 10
747.3307967447
 20
-178.6602006719
 10
746.4695096277
 20
-179.1440022603
 10
744.962823417
 20
-179.8799557105
 10
742.7026152872
 20
-180.6653251365
 10
740.6326651834
 20
-180.9830421075
 10
738.4942889474
 20
-180.8677965269
 10
736.620438125
 20
-180.4067695007
 10
734.8085761331
 20
-179.680293189
 10
733.2997441553
 20
-178.9002323017
 10
732.6309800409
 20
-178.5117310897
 10
732.6063037179
 20
-178.4968858078
 10
732.6063037179
 20
-178.4968858078
  0
LWPOLYLINE
  5
3FB
330
1F
100
AcDbEntity
  8
0
  6
Continuous
 62
     7
370
    15
100
AcDbPolyline
 90
       13
 70
   128
 43
0.0
 10
134.2454076074
 20
-178.5134223715
 10
133.997809913
 20
-178.6602006719
 10
133.136522796
 20
-179.1440022603
 10
131.6298365854
 20
-179.8799557105
 10
129.3696284555
 20
-180.6653251365
 10
127.2996187471
 20
-180.9830421075
 10
125.1613021158
 20
-180.8677965269
 10
123.287510898
 20
-180.4067695007
 10
121.4755893014
 20
-179.680293189
 10
119.9666977189
 20
-178.9002323017
 10
119.2980528139
 20
-178.5117310897
 10
119.2732572816
 20
-178.4968858078
 10
119.2732572816
 20
-178.4968858078
  0
LWPOLYLINE
  5
3FC
330
1F
100
AcDbEntity
  8
0
  6
Continuous
 62
     7
370
    15
100
AcDbPolyline
 90
       13
 70
   128
 43
0.0
 10
1360.9113812707
 20
-178.5134223715
 10
1360.6637835763
 20
-178.6602006719
 10
1359.8024964593
 20
-179.1440022603
 10
1358.2958102487
 20
-179.8799557105
 10
1356.0356021188
 20
-180.6653251365
 10
1353.9656520151
 20
-180.9830421075
 10
1351.8272757791
 20
-180.8677965269
 10
1349.9535441659
 20
-180.4067695007
 10
1348.1415629648
 20
-179.680293189
 10
1346.6327309869
 20
-178.9002323017
 10
1345.9640860818
 20
-178.5117310897
 10
1345.9392905496
 20
-178.4968858078
 10
1345.9392905496
 20
-178.4968858078
  0
LINE
  5
3FD
330
1F
100
AcDbEntity
  8
0
  6
Continuous
 62
     7
370
    15
100
AcDbLine
 10
1383.4393143915
 20
-156.496885927
 30
0.0
 11
1323.4392524026
 21
-156.496885927
 31
0.0
  0
LINE
  5
3FE
330
1F
100
AcDbEntity
  8
0
  6
Continuous
 62
     7
370
    15
100
AcDbLine
 10
1383.4143996499
 20
-158.496886022
 30
0.0
 11
1383.4393143915
 21
-158.496886022
 31
0.0
  0
LINE
  5
3FF
330
1F
100
AcDbEntity
  8
0
  6
Continuous
 62
     7
370
    15
100
AcDbLine
 10
1323.4392524026
 20
-158.496886022
 30
0.0
 11
1383.4143996499
 21
-158.496886022
 31
0.0
  0
LINE
  5
400
330
1F
100
AcDbEntity
  8
0
  6
Continuous
 62
     7
370
    15
100
AcDbLine
 10
1368.4392094873
 20
-160.496886117
 30
0.0
 11
1338.4392380975
 21
-160.496886117
 31
0.0
  0
LINE
  5
401
330
1F
100
AcDbEntity
  8
0
  6
Continuous
 62
     7
370
    15
100
AcDbLine
 10
156.7484259866
 20
-158.496886022
 30
0.0
 11
156.7732811235
 21
-158.496886022
 31
0.0
  0
LINE
  5
402
330
1F
100
AcDbEntity
  8
0
  6
Continuous
 62
     7
370
    15
100
AcDbLine
 10
96.7732787393
 20
-158.496886022
 30
0.0
 11
156.7484259866
 21
-158.496886022
 31
0.0
  0
LINE
  5
403
330
1F
100
AcDbEntity
  8
0
  6
Continuous
 62
     7
370
    15
100
AcDbLine
 10
156.7732811235
 20
-156.496885927
 30
0.0
 11
96.7732787393
 21
-156.496885927
 31
0.0
  0
LINE
  5
404
330
1F
100
AcDbEntity
  8
0
  6
Continuous
 62
     7
370
    15
100
AcDbLine
 10
141.773235824
 20
-160.496886117
 30
0.0
 11
111.7732644342
 21
-160.496886117
 31
0.0
  0
LINE
  5
405
330
1F
100
AcDbEntity
  8
0
  6
Continuous
 62
     7
370
    15
100
AcDbLine
 10
-456.5597373731
 20
-156.496885927
 30
0.0
 11
-516.559736032
 21
-156.496885927
 31
0.0
  0
LINE
  5
406
330
1F
100
AcDbEntity
  8
0
  6
Continuous
 62
     7
370
    15
100
AcDbLine
 10
-456.5845515318
 20
-158.496886022
 30
0.0
 11
-456.5597373731
 21
-158.496886022
 31
0.0
  0
LINE
  5
407
330
1F
100
AcDbEntity
  8
0
  6
Continuous
 62
     7
370
    15
100
AcDbLine
 10
-516.559736032
 20
-158.496886022
 30
0.0
 11
-456.5845515318
 21
-158.496886022
 31
0.0
  0
LINE
  5
408
330
1F
100
AcDbEntity
  8
0
  6
Continuous
 62
     7
370
    15
100
AcDbLine
 10
-471.5597370379
 20
-160.496886117
 30
0.0
 11
-501.5597363673
 21
-160.496886117
 31
0.0
  0
LINE
  5
409
330
1F
100
AcDbEntity
  8
0
  6
Continuous
 62
     7
370
    15
100
AcDbLine
 10
770.0814128183
 20
-158.496886022
 30
0.0
 11
770.1062083505
 21
-158.496886022
 31
0.0
  0
LINE
  5
40A
330
1F
100
AcDbEntity
  8
0
  6
Continuous
 62
     7
370
    15
100
AcDbLine
 10
710.106265571
 20
-158.496886022
 30
0.0
 11
770.0814128183
 21
-158.496886022
 31
0.0
  0
LINE
  5
40B
330
1F
100
AcDbEntity
  8
0
  6
Continuous
 62
     7
370
    15
100
AcDbLine
 10
770.1062083505
 20
-156.496885927
 30
0.0
 11
710.106265571
 21
-156.496885927
 31
0.0
  0
LINE
  5
40C
330
1F
100
AcDbEntity
  8
0
  6
Continuous
 62
     7
370
    15
100
AcDbLine
 10
755.1062226556
 20
-160.496886117
 30
0.0
 11
725.1062512658
 21
-160.496886117
 31
0.0
  0
LINE
  5
40D
330
1F
100
AcDbEntity
  8
0
  6
Continuous
 62
     7
370
    15
100
AcDbLine
 10
119.3232655786
 20
-203.4968843177
 30
0.0
 11
134.2232346795
 21
-203.4968843177
 31
0.0
  0
LINE
  5
40E
330
1F
100
AcDbEntity
  8
0
  6
Continuous
 62
     7
370
    15
100
AcDbLine
 10
133.2232475541
 20
-204.4968863443
 30
0.0
 11
120.323252704
 21
-204.4968863443
 31
0.0
  0
LINE
  5
40F
330
1F
100
AcDbEntity
  8
0
  6
Continuous
 62
     7
370
    15
100
AcDbLine
 10
1345.9892392419
 20
-203.4968843177
 30
0.0
 11
1360.8892083429
 21
-203.4968843177
 31
0.0
  0
LINE
  5
410
330
1F
100
AcDbEntity
  8
0
  6
Continuous
 62
     7
370
    15
100
AcDbLine
 10
1359.8892808221
 20
-204.4968863443
 30
0.0
 11
1346.989285972
 21
-204.4968863443
 31
0.0
  0
LINE
  5
411
330
1F
100
AcDbEntity
  8
0
  6
Continuous
 62
     7
370
    15
100
AcDbLine
 10
732.6562524103
 20
-203.4968843177
 30
0.0
 11
747.5562215112
 21
-203.4968843177
 31
0.0
  0
LINE
  5
412
330
1F
100
AcDbEntity
  8
0
  6
Continuous
 62
     7
370
    15
100
AcDbLine
 10
746.5562939905
 20
-204.4968863443
 30
0.0
 11
733.6562991403
 21
-204.4968863443
 31
0.0
  0
LINE
  5
413
330
1F
100
AcDbEntity
  8
0
  6
Continuous
 62
     7
370
    15
100
AcDbLine
 10
310.2135181688
 20
-211.9968866423
 30
0.0
 11
225.0135064386
 21
-211.9968866423
 31
0.0
  0
LINE
  5
414
330
1F
100
AcDbEntity
  8
0
  6
Continuous
 62
     7
370
    15
100
AcDbLine
 10
195.4135418199
 20
-211.9968866423
 30
0.0
 11
-474.9864797778
 21
-211.9968866423
 31
0.0
  0
LINE
  5
415
330
1F
100
AcDbEntity
  8
0
  6
Continuous
 62
     7
370
    15
100
AcDbLine
 10
-504.5864797868
 20
-211.9968866423
 30
0.0
 11
-522.5597351529
 21
-211.9968866423
 31
0.0
  0
LINE
  5
416
330
1F
100
AcDbEntity
  8
0
  6
Continuous
 62
     7
370
    15
100
AcDbLine
 10
-562.5597342588
 20
-211.9968866423
 30
0.0
 11
-589.7864803411
 21
-211.9968866423
 31
0.0
  0
LINE
  5
417
330
1F
100
AcDbEntity
  8
0
  6
Continuous
 62
     7
370
    15
100
AcDbLine
 10
310.2135181688
 20
-211.9968866423
 30
0.0
 11
310.2135181688
 21
-203.4968843177
 31
0.0
  0
LINE
  5
418
330
1F
100
AcDbEntity
  8
0
  6
Continuous
 62
     7
370
    15
100
AcDbLine
 10
310.2135181688
 20
-178.4968858078
 30
0.0
 11
310.2135181688
 21
-171.9968856737
 31
0.0
  0
LINE
  5
419
330
1F
100
AcDbEntity
  8
0
  6
Continuous
 62
     7
370
    15
100
AcDbLine
 10
-589.7864803411
 20
-211.9968866423
 30
0.0
 11
-589.7864803411
 21
-203.4968843177
 31
0.0
  0
LINE
  5
41A
330
1F
100
AcDbEntity
  8
0
  6
Continuous
 62
     7
370
    15
100
AcDbLine
 10
-589.7864803411
 20
-178.4968858078
 30
0.0
 11
-589.7864803411
 21
-171.9968856737
 31
0.0
  0
LINE
  5
41B
330
1F
100
AcDbEntity
  8
0
  6
Continuous
 62
     7
370
    15
100
AcDbLine
 10
310.2135181688
 20
-171.9968856737
 30
0.0
 11
134.2732429765
 21
-171.9968856737
 31
0.0
  0
LINE
  5
41C
330
1F
100
AcDbEntity
  8
0
  6
Continuous
 62
     7
370
    15
100
AcDbLine
 10
119.2732572816
 20
-171.9968856737
 30
0.0
 11
-479.0597368702
 21
-171.9968856737
 31
0.0
  0
LINE
  5
41D
330
1F
100
AcDbEntity
  8
0
  6
Continuous
 62
     7
370
    15
100
AcDbLine
 10
-494.059736535
 20
-171.9968856737
 30
0.0
 11
-589.7864803411
 21
-171.9968856737
 31
0.0
  0
LINE
  5
41E
330
1F
100
AcDbEntity
  8
0
  6
Continuous
 62
     7
370
    15
100
AcDbLine
 10
213.1677985452
 20
-169.1472546622
 30
0.0
 11
212.7020478509
 21
-169.1316643223
 31
0.0
  0
LINE
  5
41F
330
1F
100
AcDbEntity
  8
0
  6
Continuous
 62
     7
370
    15
100
AcDbLine
 10
208.4967613481
 20
-169.1472546622
 30
0.0
 11
208.01068547
 21
-169.1316643223
 31
0.0
  0
LINE
  5
420
330
1F
100
AcDbEntity
  8
0
  6
Continuous
 62
     7
370
    15
100
AcDbLine
 10
211.4510655664
 20
-169.1472546622
 30
0.0
 11
210.4991793893
 21
-169.1316643223
 31
0.0
  0
SPLINE
  5
421
330
1F
100
AcDbEntity
  8
0
  6
Continuous
 62
     7
370
    15
100
AcDbSpline
210
0.0
220
0.0
230
1.0
 70
     8
 71
     3
 72
     9
 73
     5
 74
     0
 42
0.000000001
 43
0.00000001
 40
0.0
 40
0.0
 40
0.0
 40
0.0
 40
0.5000052711367742
 40
1.0
 40
1.0
 40
1.0
 40
1.0
 10
213.282358672465
 20
-169.1531378269344
 30
0.0
 10
212.9379052504157
 20
-169.1403213412469
 30
0.0
 10
212.2490056688848
 20
-169.1146886400989
 30
0.0
 10
211.5586537652095
 20
-169.1403215213988
 30
0.0
 10
211.2134814523112
 20
-169.1531378269344
 30
0.0
  0
LINE
  5
422
330
1F
100
AcDbEntity
  8
0
  6
Continuous
 62
     7
370
    15
100
AcDbLine
 10
213.0746960901
 20
-169.1424732521
 30
0.0
 11
213.2823586725
 21
-169.1531378269
 31
0.0
  0
SPLINE
  5
423
330
1F
100
AcDbEntity
  8
0
  6
Continuous
 62
     7
370
    15
100
AcDbSpline
210
0.0
220
0.0
230
1.0
 70
     8
 71
     3
 72
     9
 73
     5
 74
     0
 42
0.000000001
 43
0.00000001
 40
0.0
 40
0.0
 40
0.0
 40
0.0
 40
0.3737003949849033
 40
0.9999999999999999
 40
0.9999999999999999
 40
0.9999999999999999
 40
0.9999999999999999
 10
210.2134943269144
 20
-169.1364354878812
 30
0.0
 10
210.3917406370735
 20
-169.1323461493454
 30
0.0
 10
210.868717147003
 20
-169.121403322978
 30
0.0
 10
211.3455098987317
 20
-169.1343596444406
 30
0.0
 10
211.6441250108134
 20
-169.142474183455
 30
0.0
  0
SPLINE
  5
424
330
1F
100
AcDbEntity
  8
0
  6
Continuous
 62
     7
370
    15
100
AcDbSpline
210
0.0
220
0.0
230
1.0
 70
     8
 71
     3
 72
     9
 73
     5
 74
     0
 42
0.000000001
 43
0.00000001
 40
0.0
 40
0.0
 40
0.0
 40
0.0
 40
0.3736883685106593
 40
1.0
 40
1.0
 40
1.0
 40
1.0
 10
207.8182220719707
 20
-169.1364354878812
 30
0.0
 10
207.9382551920579
 20
-169.1323462137326
 30
0.0
 10
208.2594670097168
 20
-169.1214032074921
 30
0.0
 10
208.5813341278067
 20
-169.1343595041544
 30
0.0
 10
208.7829232476603
 20
-169.142474183455
 30
0.0
  0
SPLINE
  5
425
330
1F
100
AcDbEntity
  8
0
  6
Continuous
 62
     7
370
    15
100
AcDbSpline
210
0.0
220
0.0
230
1.0
 70
     8
 71
     3
 72
     9
 73
     5
 74
     0
 42
0.000000001
 43
0.00000001
 40
0.0
 40
0.0
 40
0.0
 40
0.0
 40
0.6317377400297264
 40
1.0
 40
1.0
 40
1.0
 40
1.0
 10
208.1446171067606
 20
-169.1531378269344
 30
0.0
 10
207.9774402007544
 20
-169.1391958511309
 30
0.0
 10
207.7128099666979
 20
-169.1171266047966
 30
0.0
 10
207.4497164270562
 20
-169.1356322458894
 30
0.0
 10
207.3528290055643
 20
-169.1424471751004
 30
0.0
  0
SPLINE
  5
426
330
1F
100
AcDbEntity
  8
0
  6
Continuous
 62
     7
370
    15
100
AcDbSpline
210
0.0
220
0.0
230
1.0
 70
     8
 71
     3
 72
     9
 73
     5
 74
     0
 42
0.000000001
 43
0.00000001
 40
0.0
 40
0.0
 40
0.0
 40
0.0
 40
0.5000043307476821
 40
1.0
 40
1.0
 40
1.0
 40
1.0
 10
211.2134814523112
 20
-169.1531378269344
 30
0.0
 10
210.7019019677733
 20
-169.140321357317
 30
0.0
 10
209.6787518607076
 20
-169.1146886401001
 30
0.0
 10
208.6559924052009
 20
-169.1403215053293
 30
0.0
 10
208.1446171067606
 20
-169.1531378269344
 30
0.0
  0
LINE
  5
427
330
1F
100
AcDbEntity
  8
0
  6
Continuous
 62
     7
370
    15
100
AcDbLine
 10
-503.9320021607
 20
-179.9968851224
 30
0.0
 11
-504.5864797868
 21
-179.9968851224
 31
0.0
  0
LINE
  5
428
330
1F
100
AcDbEntity
  8
0
  6
Continuous
 62
     7
370
    15
100
AcDbLine
 10
-474.9864797778
 20
-179.9968851224
 30
0.0
 11
-503.9320021607
 21
-179.9968851224
 31
0.0
  0
LINE
  5
429
330
1F
100
AcDbEntity
  8
0
  6
Continuous
 62
     7
370
    15
100
AcDbLine
 10
-487.6717136214
 20
-177.1380396053
 30
0.0
 11
-487.2218046659
 21
-177.1380396053
 31
0.0
  0
LINE
  5
42A
330
1F
100
AcDbEntity
  8
0
  6
Continuous
 62
     7
370
    15
100
AcDbLine
 10
-492.3507437781
 20
-177.1380396053
 30
0.0
 11
-492.545574598
 21
-177.1380396053
 31
0.0
  0
LINE
  5
42B
330
1F
100
AcDbEntity
  8
0
  6
Continuous
 62
     7
370
    15
100
AcDbLine
 10
-492.545574598
 20
-177.1380396053
 30
0.0
 11
-490.4308087863
 21
-177.1380396053
 31
0.0
  0
SPLINE
  5
42C
330
1F
100
AcDbEntity
  8
0
  6
Continuous
 62
     7
370
    15
100
AcDbSpline
210
0.0
220
0.0
230
1.0
 70
     8
 71
     3
 72
     9
 73
     5
 74
     0
 42
0.000000001
 43
0.00000001
 40
0.0
 40
0.0
 40
0.0
 40
0.0
 40
0.5000000192671843
 40
1.0
 40
1.0
 40
1.0
 40
1.0
 10
-490.4308087863077
 20
-177.1380396053343
 30
0.0
 10
-489.970959571906
 20
-177.1265619856299
 30
0.0
 10
-489.0512611785425
 20
-177.1036067471056
 30
0.0
 10
-488.1315627952745
 20
-177.1265619862196
 30
0.0
 10
-487.6717136213605
 20
-177.1380396053343
 30
0.0
  0
LINE
  5
42D
330
1F
100
AcDbEntity
  8
0
  6
Continuous
 62
     7
370
    15
100
AcDbLine
 10
196.0680008195
 20
-179.9968851224
 30
0.0
 11
195.4135418199
 21
-179.9968851224
 31
0.0
  0
LINE
  5
42E
330
1F
100
AcDbEntity
  8
0
  6
Continuous
 62
     7
370
    15
100
AcDbLine
 10
225.0135064386
 20
-179.9968851224
 30
0.0
 11
196.0680008195
 21
-179.9968851224
 31
0.0
  0
LINE
  5
42F
330
1F
100
AcDbEntity
  8
0
  6
Continuous
 62
     7
370
    15
100
AcDbLine
 10
212.3282671235
 20
-177.1380396053
 30
0.0
 11
212.778222587
 21
-177.1380396053
 31
0.0
  0
LINE
  5
430
330
1F
100
AcDbEntity
  8
0
  6
Continuous
 62
     7
370
    15
100
AcDbLine
 10
207.649242904
 20
-177.1380396053
 30
0.0
 11
207.4544549249
 21
-177.1380396053
 31
0.0
  0
LINE
  5
431
330
1F
100
AcDbEntity
  8
0
  6
Continuous
 62
     7
370
    15
100
AcDbLine
 10
207.4544549249
 20
-177.1380396053
 30
0.0
 11
209.5691681169
 21
-177.1380396053
 31
0.0
  0
SPLINE
  5
432
330
1F
100
AcDbEntity
  8
0
  6
Continuous
 62
     7
370
    15
100
AcDbSpline
210
0.0
220
0.0
230
1.0
 70
     8
 71
     3
 72
     9
 73
     5
 74
     0
 42
0.000000001
 43
0.00000001
 40
0.0
 40
0.0
 40
0.0
 40
0.0
 40
0.5
 40
1.0
 40
1.0
 40
1.0
 40
1.0
 10
209.5691681168925
 20
-177.1380396053343
 30
0.0
 10
210.0290179513346
 20
-177.1265619859248
 30
0.0
 10
210.9487176202189
 20
-177.1036067471056
 30
0.0
 10
211.8684172891031
 20
-177.1265619859248
 30
0.0
 10
212.3282671235453
 20
-177.1380396053343
 30
0.0
  0
LINE
  5
433
330
1F
100
AcDbEntity
  8
0
  6
Continuous
 62
     7
370
    15
100
AcDbLine
 10
-482.61036833
 20
-208.1968856469
 30
0.0
 11
-504.786479447
 21
-208.1968856469
 31
0.0
  0
LINE
  5
434
330
1F
100
AcDbEntity
  8
0
  6
Continuous
 62
     7
370
    15
100
AcDbLine
 10
-474.7864791863
 20
-208.1968856469
 30
0.0
 11
-482.61036833
 21
-208.1968856469
 31
0.0
  0
LINE
  5
435
330
1F
100
AcDbEntity
  8
0
  6
Continuous
 62
     7
370
    15
100
AcDbLine
 10
-482.61036833
 20
-211.796886982
 30
0.0
 11
-474.7864791863
 21
-211.796886982
 31
0.0
  0
LINE
  5
436
330
1F
100
AcDbEntity
  8
0
  6
Continuous
 62
     7
370
    15
100
AcDbLine
 10
-504.786479447
 20
-211.796886982
 30
0.0
 11
-482.61036833
 21
-211.796886982
 31
0.0
  0
LINE
  5
437
330
1F
100
AcDbEntity
  8
0
  6
Continuous
 62
     7
370
    15
100
AcDbLine
 10
-482.7060498502
 20
-207.9968859866
 30
0.0
 11
-474.9864797778
 21
-207.9968859866
 31
0.0
  0
LINE
  5
438
330
1F
100
AcDbEntity
  8
0
  6
Continuous
 62
     7
370
    15
100
AcDbLine
 10
-504.5864797868
 20
-207.9968859866
 30
0.0
 11
-482.7060498502
 21
-207.9968859866
 31
0.0
  0
LINE
  5
439
330
1F
100
AcDbEntity
  8
0
  6
Continuous
 62
     7
370
    15
100
AcDbLine
 10
-482.7060498502
 20
-211.9968866423
 30
0.0
 11
-504.5864797868
 21
-211.9968866423
 31
0.0
  0
LINE
  5
43A
330
1F
100
AcDbEntity
  8
0
  6
Continuous
 62
     7
370
    15
100
AcDbLine
 10
-474.9864797778
 20
-211.9968866423
 30
0.0
 11
-482.7060498502
 21
-211.9968866423
 31
0.0
  0
LINE
  5
43B
330
1F
100
AcDbEntity
  8
0
  6
Continuous
 62
     7
370
    15
100
AcDbLine
 10
217.3896551393
 20
-208.1968856469
 30
0.0
 11
195.213508632
 21
-208.1968856469
 31
0.0
  0
LINE
  5
43C
330
1F
100
AcDbEntity
  8
0
  6
Continuous
 62
     7
370
    15
100
AcDbLine
 10
225.2135396264
 20
-208.1968856469
 30
0.0
 11
217.3896551393
 21
-208.1968856469
 31
0.0
  0
LINE
  5
43D
330
1F
100
AcDbEntity
  8
0
  6
Continuous
 62
     7
370
    15
100
AcDbLine
 10
217.3896551393
 20
-211.796886982
 30
0.0
 11
225.2135396264
 21
-211.796886982
 31
0.0
  0
LINE
  5
43E
330
1F
100
AcDbEntity
  8
0
  6
Continuous
 62
     7
370
    15
100
AcDbLine
 10
195.213508632
 20
-211.796886982
 30
0.0
 11
217.3896551393
 21
-211.796886982
 31
0.0
  0
LINE
  5
43F
330
1F
100
AcDbEntity
  8
0
  6
Continuous
 62
     7
370
    15
100
AcDbLine
 10
217.2939300798
 20
-207.9968859866
 30
0.0
 11
225.0135064386
 21
-207.9968859866
 31
0.0
  0
LINE
  5
440
330
1F
100
AcDbEntity
  8
0
  6
Continuous
 62
     7
370
    15
100
AcDbLine
 10
195.4135418199
 20
-207.9968859866
 30
0.0
 11
217.2939300798
 21
-207.9968859866
 31
0.0
  0
LINE
  5
441
330
1F
100
AcDbEntity
  8
0
  6
Continuous
 62
     7
370
    15
100
AcDbLine
 10
217.2939300798
 20
-211.9968866423
 30
0.0
 11
195.4135418199
 21
-211.9968866423
 31
0.0
  0
LINE
  5
442
330
1F
100
AcDbEntity
  8
0
  6
Continuous
 62
     7
370
    15
100
AcDbLine
 10
225.0135064386
 20
-211.9968866423
 30
0.0
 11
217.2939300798
 21
-211.9968866423
 31
0.0
  0
LINE
  5
443
330
1F
100
AcDbEntity
  8
0
  6
Continuous
 62
     7
370
    15
100
AcDbLine
 10
237.9285216592
 20
-181.9968854502
 30
0.0
 11
239.2135381959
 21
-181.9968854502
 31
0.0
  0
LINE
  5
444
330
1F
100
AcDbEntity
  8
0
  6
Continuous
 62
     7
370
    15
100
AcDbLine
 10
181.2135100625
 20
-181.9968854502
 30
0.0
 11
237.9285216592
 21
-181.9968854502
 31
0.0
  0
LINE
  5
445
330
1F
100
AcDbEntity
  8
0
  6
Continuous
 62
     7
370
    15
100
AcDbLine
 10
237.9285216592
 20
-180.5968859658
 30
0.0
 11
181.2135100625
 21
-180.5968859658
 31
0.0
  0
LINE
  5
446
330
1F
100
AcDbEntity
  8
0
  6
Continuous
 62
     7
370
    15
100
AcDbLine
 10
239.2135381959
 20
-180.5968859658
 30
0.0
 11
237.9285216592
 21
-180.5968859658
 31
0.0
  0
LINE
  5
447
330
1F
100
AcDbEntity
  8
0
  6
Continuous
 62
     7
370
    15
100
AcDbLine
 10
237.8329754136
 20
-180.4968861357
 30
0.0
 11
239.113521602
 21
-180.4968861357
 31
0.0
  0
LINE
  5
448
330
1F
100
AcDbEntity
  8
0
  6
Continuous
 62
     7
370
    15
100
AcDbLine
 10
181.3135266565
 20
-180.4968861357
 30
0.0
 11
237.8329754136
 21
-180.4968861357
 31
0.0
  0
LINE
  5
449
330
1F
100
AcDbEntity
  8
0
  6
Continuous
 62
     7
370
    15
100
AcDbLine
 10
239.2135381959
 20
-199.9968846753
 30
0.0
 11
181.2135100625
 21
-199.9968846753
 31
0.0
  0
LINE
  5
44A
330
1F
100
AcDbEntity
  8
0
  6
Continuous
 62
     7
370
    15
100
AcDbLine
 10
181.2135100625
 20
-201.3968860224
 30
0.0
 11
239.2135381959
 21
-201.3968860224
 31
0.0
  0
LINE
  5
44B
330
1F
100
AcDbEntity
  8
0
  6
Continuous
 62
     7
370
    15
100
AcDbLine
 10
239.113521602
 20
-201.4968877152
 30
0.0
 11
181.3135266565
 21
-201.4968877152
 31
0.0
  0
LINE
  5
44C
330
1F
100
AcDbEntity
  8
0
  6
Continuous
 62
     7
370
    15
100
AcDbLine
 10
-518.7864780165
 20
-201.3968860224
 30
0.0
 11
-460.7864796855
 21
-201.3968860224
 31
0.0
  0
LINE
  5
44D
330
1F
100
AcDbEntity
  8
0
  6
Continuous
 62
     7
370
    15
100
AcDbLine
 10
-460.7864796855
 20
-199.9968846753
 30
0.0
 11
-518.7864780165
 21
-199.9968846753
 31
0.0
  0
LINE
  5
44E
330
1F
100
AcDbEntity
  8
0
  6
Continuous
 62
     7
370
    15
100
AcDbLine
 10
-460.8864795156
 20
-201.4968877152
 30
0.0
 11
-518.686480049
 21
-201.4968877152
 31
0.0
  0
LINE
  5
44F
330
1F
100
AcDbEntity
  8
0
  6
Continuous
 62
     7
370
    15
100
AcDbLine
 10
-462.1670350172
 20
-180.4968861357
 30
0.0
 11
-460.8864795156
 21
-180.4968861357
 31
0.0
  0
LINE
  5
450
330
1F
100
AcDbEntity
  8
0
  6
Continuous
 62
     7
370
    15
100
AcDbLine
 10
-518.686480049
 20
-180.4968861357
 30
0.0
 11
-462.1670350172
 21
-180.4968861357
 31
0.0
  0
LINE
  5
451
330
1F
100
AcDbEntity
  8
0
  6
Continuous
 62
     7
370
    15
100
AcDbLine
 10
-462.0714664199
 20
-180.5968859658
 30
0.0
 11
-518.7864780165
 21
-180.5968859658
 31
0.0
  0
LINE
  5
452
330
1F
100
AcDbEntity
  8
0
  6
Continuous
 62
     7
370
    15
100
AcDbLine
 10
-460.7864796855
 20
-180.5968859658
 30
0.0
 11
-462.0714664199
 21
-180.5968859658
 31
0.0
  0
LINE
  5
453
330
1F
100
AcDbEntity
  8
0
  6
Continuous
 62
     7
370
    15
100
AcDbLine
 10
-462.0714664199
 20
-181.9968854502
 30
0.0
 11
-460.7864796855
 21
-181.9968854502
 31
0.0
  0
LINE
  5
454
330
1F
100
AcDbEntity
  8
0
  6
Continuous
 62
     7
370
    15
100
AcDbLine
 10
-518.7864780165
 20
-181.9968854502
 30
0.0
 11
-462.0714664199
 21
-181.9968854502
 31
0.0
  0
LINE
  5
455
330
1F
100
AcDbEntity
  8
0
  6
Continuous
 62
     7
370
    15
100
AcDbLine
 10
-518.7864780165
 20
-181.9968854502
 30
0.0
 11
-460.7864796855
 21
-181.9968854502
 31
0.0
  0
LINE
  5
456
330
1F
100
AcDbEntity
  8
0
  6
Continuous
 62
     7
370
    15
100
AcDbLine
 10
-461.3443866111
 20
-183.0173151061
 30
0.0
 11
-460.7864796855
 21
-183.0173151061
 31
0.0
  0
LINE
  5
457
330
1F
100
AcDbEntity
  8
0
  6
Continuous
 62
     7
370
    15
100
AcDbLine
 10
-518.7864780165
 20
-183.0173151061
 30
0.0
 11
-461.3443866111
 21
-183.0173151061
 31
0.0
  0
LINE
  5
458
330
1F
100
AcDbEntity
  8
0
  6
Continuous
 62
     7
370
    15
100
AcDbLine
 10
-460.7864796855
 20
-199.0285587922
 30
0.0
 11
-518.7864780165
 21
-199.0285587922
 31
0.0
  0
LINE
  5
459
330
1F
100
AcDbEntity
  8
0
  6
Continuous
 62
     7
370
    15
100
AcDbLine
 10
238.6556387208
 20
-183.0173151061
 30
0.0
 11
239.2135381959
 21
-183.0173151061
 31
0.0
  0
LINE
  5
45A
330
1F
100
AcDbEntity
  8
0
  6
Continuous
 62
     7
370
    15
100
AcDbLine
 10
181.2135100625
 20
-183.0173151061
 30
0.0
 11
238.6556387208
 21
-183.0173151061
 31
0.0
  0
LINE
  5
45B
330
1F
100
AcDbEntity
  8
0
  6
Continuous
 62
     7
370
    15
100
AcDbLine
 10
181.2135100625
 20
-181.9968854502
 30
0.0
 11
239.2135381959
 21
-181.9968854502
 31
0.0
  0
LINE
  5
45C
330
1F
100
AcDbEntity
  8
0
  6
Continuous
 62
     7
370
    15
100
AcDbLine
 10
239.2135381959
 20
-199.0285587922
 30
0.0
 11
181.2135100625
 21
-199.0285587922
 31
0.0
  0
LINE
  5
45D
330
1F
100
AcDbEntity
  8
0
  6
Continuous
 62
     7
370
    15
100
AcDbLine
 10
-474.7864791863
 20
-212.1968863025
 30
0.0
 11
-504.786479447
 21
-212.1968863025
 31
0.0
  0
LINE
  5
45E
330
1F
100
AcDbEntity
  8
0
  6
Continuous
 62
     7
370
    15
100
AcDbLine
 10
-474.7864791863
 20
-217.7968842402
 30
0.0
 11
-474.7864791863
 21
-212.1968863025
 31
0.0
  0
LINE
  5
45F
330
1F
100
AcDbEntity
  8
0
  6
Continuous
 62
     7
370
    15
100
AcDbLine
 10
-504.786479447
 20
-217.7968842402
 30
0.0
 11
-474.7864791863
 21
-217.7968842402
 31
0.0
  0
LINE
  5
460
330
1F
100
AcDbEntity
  8
0
  6
Continuous
 62
     7
370
    15
100
AcDbLine
 10
-504.786479447
 20
-217.7968842402
 30
0.0
 11
-504.786479447
 21
-212.1968863025
 31
0.0
  0
LINE
  5
461
330
1F
100
AcDbEntity
  8
0
  6
Continuous
 62
     7
370
    15
100
AcDbLine
 10
-504.5864797868
 20
-211.9968866423
 30
0.0
 11
-474.9864797778
 21
-211.9968866423
 31
0.0
  0
LINE
  5
462
330
1F
100
AcDbEntity
  8
0
  6
Continuous
 62
     7
370
    15
100
AcDbLine
 10
-474.9864797778
 20
-211.9968866423
 30
0.0
 11
-474.7864791863
 21
-212.1968863025
 31
0.0
  0
LINE
  5
463
330
1F
100
AcDbEntity
  8
0
  6
Continuous
 62
     7
370
    15
100
AcDbLine
 10
-504.5864797868
 20
-211.9968866423
 30
0.0
 11
-504.786479447
 21
-212.1968863025
 31
0.0
  0
LINE
  5
464
330
1F
100
AcDbEntity
  8
0
  6
Continuous
 62
     7
370
    15
100
AcDbLine
 10
-474.9864797778
 20
-217.9968876258
 30
0.0
 11
-504.5864797868
 21
-217.9968876258
 31
0.0
  0
LINE
  5
465
330
1F
100
AcDbEntity
  8
0
  6
Continuous
 62
     7
370
    15
100
AcDbLine
 10
-504.5864797868
 20
-217.9968876258
 30
0.0
 11
-504.786479447
 21
-217.7968842402
 31
0.0
  0
LINE
  5
466
330
1F
100
AcDbEntity
  8
0
  6
Continuous
 62
     7
370
    15
100
AcDbLine
 10
-474.9864797778
 20
-217.9968876258
 30
0.0
 11
-474.7864791863
 21
-217.7968842402
 31
0.0
  0
LINE
  5
467
330
1F
100
AcDbEntity
  8
0
  6
Continuous
 62
     7
370
    15
100
AcDbLine
 10
225.2135396264
 20
-212.1968863025
 30
0.0
 11
195.213508632
 21
-212.1968863025
 31
0.0
  0
LINE
  5
468
330
1F
100
AcDbEntity
  8
0
  6
Continuous
 62
     7
370
    15
100
AcDbLine
 10
225.2135396264
 20
-217.7968842402
 30
0.0
 11
225.2135396264
 21
-212.1968863025
 31
0.0
  0
LINE
  5
469
330
1F
100
AcDbEntity
  8
0
  6
Continuous
 62
     7
370
    15
100
AcDbLine
 10
195.213508632
 20
-217.7968842402
 30
0.0
 11
225.2135396264
 21
-217.7968842402
 31
0.0
  0
LINE
  5
46A
330
1F
100
AcDbEntity
  8
0
  6
Continuous
 62
     7
370
    15
100
AcDbLine
 10
195.213508632
 20
-217.7968842402
 30
0.0
 11
195.213508632
 21
-212.1968863025
 31
0.0
  0
LINE
  5
46B
330
1F
100
AcDbEntity
  8
0
  6
Continuous
 62
     7
370
    15
100
AcDbLine
 10
195.4135418199
 20
-211.9968866423
 30
0.0
 11
225.0135064386
 21
-211.9968866423
 31
0.0
  0
LINE
  5
46C
330
1F
100
AcDbEntity
  8
0
  6
Continuous
 62
     7
370
    15
100
AcDbLine
 10
225.0135064386
 20
-211.9968866423
 30
0.0
 11
225.2135396264
 21
-212.1968863025
 31
0.0
  0
LINE
  5
46D
330
1F
100
AcDbEntity
  8
0
  6
Continuous
 62
     7
370
    15
100
AcDbLine
 10
195.4135418199
 20
-211.9968866423
 30
0.0
 11
195.213508632
 21
-212.1968863025
 31
0.0
  0
LINE
  5
46E
330
1F
100
AcDbEntity
  8
0
  6
Continuous
 62
     7
370
    15
100
AcDbLine
 10
225.0135064386
 20
-217.9968876258
 30
0.0
 11
195.4135418199
 21
-217.9968876258
 31
0.0
  0
LINE
  5
46F
330
1F
100
AcDbEntity
  8
0
  6
Continuous
 62
     7
370
    15
100
AcDbLine
 10
195.4135418199
 20
-217.9968876258
 30
0.0
 11
195.213508632
 21
-217.7968842402
 31
0.0
  0
LINE
  5
470
330
1F
100
AcDbEntity
  8
0
  6
Continuous
 62
     7
370
    15
100
AcDbLine
 10
225.0135064386
 20
-217.9968876258
 30
0.0
 11
225.2135396264
 21
-217.7968842402
 31
0.0
  0
LINE
  5
471
330
1F
100
AcDbEntity
  8
0
  6
Continuous
 62
     7
370
    15
100
AcDbLine
 10
225.2135396264
 20
-202.2968863562
 30
0.0
 11
195.213508632
 21
-202.2968863562
 31
0.0
  0
LINE
  5
472
330
1F
100
AcDbEntity
  8
0
  6
Continuous
 62
     7
370
    15
100
AcDbLine
 10
195.213508632
 20
-207.6968846336
 30
0.0
 11
225.2135396264
 21
-207.6968846336
 31
0.0
  0
LINE
  5
473
330
1F
100
AcDbEntity
  8
0
  6
Continuous
 62
     7
370
    15
100
AcDbLine
 10
195.5134988092
 20
-201.9968850032
 30
0.0
 11
224.9135494493
 21
-201.9968850032
 31
0.0
  0
LINE
  5
474
330
1F
100
AcDbEntity
  8
0
  6
Continuous
 62
     7
370
    15
100
AcDbLine
 10
-474.7864791863
 20
-202.2968863562
 30
0.0
 11
-504.786479447
 21
-202.2968863562
 31
0.0
  0
LINE
  5
475
330
1F
100
AcDbEntity
  8
0
  6
Continuous
 62
     7
370
    15
100
AcDbLine
 10
-504.786479447
 20
-207.6968846336
 30
0.0
 11
-474.7864791863
 21
-207.6968846336
 31
0.0
  0
LINE
  5
476
330
1F
100
AcDbEntity
  8
0
  6
Continuous
 62
     7
370
    15
100
AcDbLine
 10
-504.486478094
 20
-201.9968850032
 30
0.0
 11
-475.086479608
 21
-201.9968850032
 31
0.0
  0
ARC
  5
477
330
1F
100
AcDbEntity
  8
0
  6
Continuous
 62
     7
370
    15
100
AcDbCircle
 10
310.9402632974
 20
-203.496885927
 30
0.0
 40
2.5
100
AcDbArc
 50
270.0
 51
0.0
  0
LINE
  5
478
330
1F
100
AcDbEntity
  8
0
  6
Continuous
 62
     7
370
    15
100
AcDbLine
 10
310.2135181688
 20
-205.9968856588
 30
0.0
 11
310.9402776025
 21
-205.9968856588
 31
0.0
  0
LINE
  5
479
330
1F
100
AcDbEntity
  8
0
  6
Continuous
 62
     7
370
    15
100
AcDbLine
 10
310.9402776025
 20
-177.9968866572
 30
0.0
 11
310.2135181688
 21
-177.9968866572
 31
0.0
  0
ARC
  5
47A
330
1F
100
AcDbEntity
  8
0
  6
Continuous
 62
     7
370
    15
100
AcDbCircle
 10
310.9402632974
 20
-180.496885927
 30
0.0
 40
2.500000000000034
100
AcDbArc
 50
53.1301023539
 51
90.0
  0
SPLINE
  5
47B
330
1F
100
AcDbEntity
  8
0
  6
Continuous
 62
     7
370
    15
100
AcDbSpline
210
0.0
220
0.0
230
1.0
 70
     8
 71
     3
 72
     9
 73
     5
 74
     0
 42
0.000000001
 43
0.00000001
 40
0.0
 40
0.0
 40
0.0
 40
0.0
 40
0.1853558185015223
 40
1.0
 40
1.0
 40
1.0
 40
1.0
 10
-545.2946752049077
 20
-218.4604329481869
 30
0.0
 10
-545.279315961138
 20
-218.4627379506359
 30
0.0
 10
-545.1964523969189
 20
-218.4751735054927
 30
0.0
 10
-545.1123849193451
 20
-218.4561392090756
 30
0.0
 10
-545.0438998378861
 20
-218.4406330302506
 30
0.0
  0
LINE
  5
47C
330
1F
100
AcDbEntity
  8
0
  6
Continuous
 62
     7
370
    15
100
AcDbLine
 10
-539.6682202555
 20
-218.4406330303
 30
0.0
 11
-539.8247569539
 21
-218.4604292229
 31
0.0
  0
SPLINE
  5
47D
330
1F
100
AcDbEntity
  8
0
  6
Continuous
 62
     7
370
    15
100
AcDbSpline
210
0.0
220
0.0
230
1.0
 70
     8
 71
     3
 72
     9
 73
     5
 74
     0
 42
0.000000001
 43
0.00000001
 40
0.0
 40
0.0
 40
0.0
 40
0.0
 40
0.5000001262990322
 40
1.0
 40
1.0
 40
1.0
 40
1.0
 10
-542.1523816622841
 20
-218.4406330302506
 30
0.0
 10
-541.7380539962073
 20
-218.4534498936808
 30
0.0
 10
-540.9093988733702
 20
-218.4790836140662
 30
0.0
 10
-540.081946391805
 20
-218.4534498893641
 30
0.0
 10
-539.6682202555287
 20
-218.4406330302506
 30
0.0
  0
SPLINE
  5
47E
330
1F
100
AcDbEntity
  8
0
  6
Continuous
 62
     7
370
    15
100
AcDbSpline
210
0.0
220
0.0
230
1.0
 70
     8
 71
     3
 72
     9
 73
     5
 74
     0
 42
0.000000001
 43
0.00000001
 40
0.0
 40
0.0
 40
0.0
 40
0.0
 40
0.4999995416768427
 40
1.0
 40
1.0
 40
1.0
 40
1.0
 10
-545.0438998378861
 20
-218.4406330302506
 30
0.0
 10
-544.5621699107672
 20
-218.4534498836901
 30
0.0
 10
-543.5987091733763
 20
-218.4790836140662
 30
0.0
 10
-542.6344911272638
 20
-218.4534498993548
 30
0.0
 10
-542.1523816622841
 20
-218.4406330302506
 30
0.0
  0
SPLINE
  5
47F
330
1F
100
AcDbEntity
  8
0
  6
Continuous
 62
     7
370
    15
100
AcDbSpline
210
0.0
220
0.0
230
1.0
 70
     8
 71
     3
 72
     9
 73
     5
 74
     0
 42
0.000000001
 43
0.00000001
 40
0.0
 40
0.0
 40
0.0
 40
0.0
 40
0.1853563077768134
 40
1.0
 40
1.0
 40
1.0
 40
1.0
 10
1414.705288436259
 20
-218.4604329481869
 30
0.0
 10
1414.720652919426
 20
-218.4627379521711
 30
0.0
 10
1414.803544531539
 20
-218.4751734824846
 30
0.0
 10
1414.887616270024
 20
-218.4561391936146
 30
0.0
 10
1414.956104781474
 20
-218.4406330302506
 30
0.0
  0
LINE
  5
480
330
1F
100
AcDbEntity
  8
0
  6
Continuous
 62
     7
370
    15
100
AcDbLine
 10
1420.3317284845
 20
-218.4406330303
 30
0.0
 11
1420.1752066873
 21
-218.4604292229
 31
0.0
  0
SPLINE
  5
481
330
1F
100
AcDbEntity
  8
0
  6
Continuous
 62
     7
370
    15
100
AcDbSpline
210
0.0
220
0.0
230
1.0
 70
     8
 71
     3
 72
     9
 73
     5
 74
     0
 42
0.000000001
 43
0.00000001
 40
0.0
 40
0.0
 40
0.0
 40
0.0
 40
0.4999987052023287
 40
1.0
 40
1.0
 40
1.0
 40
1.0
 10
1417.847645308818
 20
-218.4406330302506
 30
0.0
 10
1418.261957730198
 20
-218.4534498693955
 30
0.0
 10
1419.090584718768
 20
-218.4790836140664
 30
0.0
 10
1419.918013181672
 20
-218.4534499136495
 30
0.0
 10
1420.331728484477
 20
-218.4406330302506
 30
0.0
  0
SPLINE
  5
482
330
1F
100
AcDbEntity
  8
0
  6
Continuous
 62
     7
370
    15
100
AcDbSpline
210
0.0
220
0.0
230
1.0
 70
     8
 71
     3
 72
     9
 73
     5
 74
     0
 42
0.000000001
 43
0.00000001
 40
0.0
 40
0.0
 40
0.0
 40
0.0
 40
0.5000061349031862
 40
1.0
 40
1.0
 40
1.0
 40
1.0
 10
1414.956104781474
 20
-218.4406330302506
 30
0.0
 10
1415.437846430675
 20
-218.453449996364
 30
0.0
 10
1416.401317907468
 20
-218.4790836140713
 30
0.0
 10
1417.365540118641
 20
-218.4534497866834
 30
0.0
 10
1417.847645308818
 20
-218.4406330302506
 30
0.0
  0
LINE
  5
483
330
1F
100
AcDbEntity
  8
0
  6
Continuous
 62
     7
370
    15
100
AcDbLine
 10
1437.4402880929
 20
-207.5968866661
 30
0.0
 11
1397.4402070306
 21
-207.5968866661
 31
0.0
  0
LINE
  5
484
330
1F
100
AcDbEntity
  8
0
  6
Continuous
 62
     7
370
    15
100
AcDbLine
 10
1437.4402880929
 20
-215.5968842521
 30
0.0
 11
1397.4402070306
 21
-215.5968842521
 31
0.0
  0
LINE
  5
485
330
1F
100
AcDbEntity
  8
0
  6
Continuous
 62
     7
370
    15
100
AcDbLine
 10
-522.5597351529
 20
-207.5968866661
 30
0.0
 11
-562.5597342588
 21
-207.5968866661
 31
0.0
  0
LINE
  5
486
330
1F
100
AcDbEntity
  8
0
  6
Continuous
 62
     7
370
    15
100
AcDbLine
 10
-522.5597351529
 20
-215.5968842521
 30
0.0
 11
-562.5597342588
 21
-215.5968842521
 31
0.0
  0
LINE
  5
487
330
1F
100
AcDbEntity
  8
0
  6
Continuous
 62
     7
370
    15
100
AcDbLine
 10
1433.4402203821
 20
-176.796886833
 30
0.0
 11
1401.4402747415
 21
-176.796886833
 31
0.0
  0
LINE
  5
488
330
1F
100
AcDbEntity
  8
0
  6
Continuous
 62
     7
370
    15
100
AcDbLine
 10
1403.2402158044
 20
-174.9968861655
 30
0.0
 11
1431.6402793191
 21
-174.9968861655
 31
0.0
  0
SPLINE
  5
489
330
1F
100
AcDbEntity
  8
0
  6
Continuous
 62
     7
370
    15
100
AcDbSpline
210
0.0
220
0.0
230
1.0
 70
     8
 71
     3
 72
    22
 73
    18
 74
     0
 42
0.000000001
 43
0.00000001
 40
0.0
 40
0.0
 40
0.0
 40
0.0
 40
0.0424483201085554
 40
0.1226354464883156
 40
0.2089114029067221
 40
0.3120076204318326
 40
0.3621945285776814
 40
0.4135787555155037
 40
0.4821780743103833
 40
0.5511345427078846
 40
0.6347835545011874
 40
0.6944715666059722
 40
0.7558524979135599
 40
0.8161947523748091
 40
0.8787130723432374
 40
0.9629714423791874
 40
1.0
 40
1.0
 40
1.0
 40
1.0
 10
1433.3393693231
 20
-203.4685050562172
 30
0.0
 10
1433.35933649123
 20
-203.493972807481
 30
0.0
 10
1433.417022698187
 20
-203.567550490633
 30
0.0
 10
1432.700865705808
 20
-202.6542147515629
 30
0.0
 10
1431.368392994483
 20
-200.8709847402493
 30
0.0
 10
1429.85602054089
 20
-198.630292397404
 30
0.0
 10
1428.643954001472
 20
-196.3877135391287
 30
0.0
 10
1427.772403501947
 20
-194.3228231338729
 30
0.0
 10
1427.183911315411
 20
-191.7512445154032
 30
0.0
 10
1427.426357666759
 20
-188.617227178887
 30
0.0
 10
1428.458266965238
 20
-185.9282607155096
 30
0.0
 10
1429.680139628058
 20
-183.6954376051337
 30
0.0
 10
1430.797889280009
 20
-181.9611483917544
 30
0.0
 10
1431.853458799803
 20
-180.4720398265897
 30
0.0
 10
1432.829577176405
 20
-179.1741334883041
 30
0.0
 10
1433.375675844988
 20
-178.4788719985292
 30
0.0
 10
1433.425123999632
 20
-178.4160617651543
 30
0.0
 10
1433.44022038206
 20
-178.3968859777003
 30
0.0
  0
SPLINE
  5
48A
330
1F
100
AcDbEntity
  8
0
  6
Continuous
 62
     7
370
    15
100
AcDbSpline
210
0.0
220
0.0
230
1.0
 70
     8
 71
     3
 72
    22
 73
    18
 74
     0
 42
0.000000001
 43
0.00000001
 40
0.0
 40
0.0
 40
0.0
 40
0.0
 40
0.0870777678431485
 40
0.1738036675192174
 40
0.2313476709044317
 40
0.2905522698711849
 40
0.3488883925192394
 40
0.4089775801240328
 40
0.4779433661780612
 40
0.5473133744453432
 40
0.6291794581916019
 40
0.688137311036734
 40
0.7487581101797393
 40
0.8086822302574708
 40
0.8706631348828127
 40
0.9564114378996958
 40
1.0
 40
1.0
 40
1.0
 40
1.0
 10
1401.440274741496
 20
-178.3968859777003
 30
0.0
 10
1401.522909363192
 20
-178.5010242036997
 30
0.0
 10
1401.687844692504
 20
-178.7088798487854
 30
0.0
 10
1402.734511862982
 20
-180.0702490357304
 30
0.0
 10
1403.86102053409
 20
-181.6411375118156
 30
0.0
 10
1404.932224948685
 20
-183.2613490093372
 30
0.0
 10
1406.012486781939
 20
-185.1398769943057
 30
0.0
 10
1407.017579035851
 20
-187.3738747425769
 30
0.0
 10
1407.680742901658
 20
-190.0542146994686
 30
0.0
 10
1407.49859571251
 20
-193.1823663028705
 30
0.0
 10
1406.511578687696
 20
-195.8699455454294
 30
0.0
 10
1405.321018657754
 20
-198.0954207078698
 30
0.0
 10
1404.21414172779
 20
-199.8383506848229
 30
0.0
 10
1403.149401693993
 20
-201.3540060866636
 30
0.0
 10
1402.155030020422
 20
-202.685553370244
 30
0.0
 10
1401.46644358033
 20
-203.563837767563
 30
0.0
 10
1401.522300977281
 20
-203.4925351591093
 30
0.0
 10
1401.541125800456
 20
-203.4685050562172
 30
0.0
  0
LINE
  5
48B
330
1F
100
AcDbEntity
  8
0
  6
Continuous
 62
     7
370
    15
100
AcDbLine
 10
-526.5597358085
 20
-176.796886833
 30
0.0
 11
-558.5597336032
 21
-176.796886833
 31
0.0
  0
LINE
  5
48C
330
1F
100
AcDbEntity
  8
0
  6
Continuous
 62
     7
370
    15
100
AcDbLine
 10
-556.7597403862
 20
-174.9968861655
 30
0.0
 11
-528.3597364761
 21
-174.9968861655
 31
0.0
  0
SPLINE
  5
48D
330
1F
100
AcDbEntity
  8
0
  6
Continuous
 62
     7
370
    15
100
AcDbSpline
210
0.0
220
0.0
230
1.0
 70
     8
 71
     3
 72
    22
 73
    18
 74
     0
 42
0.000000001
 43
0.00000001
 40
0.0
 40
0.0
 40
0.0
 40
0.0
 40
0.0424483261073648
 40
0.1226356445925412
 40
0.2089112357383635
 40
0.3120079663544791
 40
0.3621940194493104
 40
0.413578125611839
 40
0.4821779209311112
 40
0.551134528108814
 40
0.6347834384333214
 40
0.6944711956882836
 40
0.7558517073226995
 40
0.8161944404919044
 40
0.8787129774752217
 40
0.9629714459670016
 40
1.0
 40
1.0
 40
1.0
 40
1.0
 10
-526.6606390215504
 20
-203.4685050562172
 30
0.0
 10
-526.6406668599531
 20
-203.4939725285607
 30
0.0
 10
-526.5829661415495
 20
-203.5675495143547
 30
0.0
 10
-527.2992061482685
 20
-202.6542236289816
 30
0.0
 10
-528.6315544526748
 20
-200.8709635764759
 30
0.0
 10
-530.1440722647715
 20
-198.6303300856015
 30
0.0
 10
-531.3559915440196
 20
-196.3876974038594
 30
0.0
 10
-532.2275130805516
 20
-194.3228123388596
 30
0.0
 10
-532.8161900447463
 20
-191.7512538861309
 30
0.0
 10
-532.5735531361033
 20
-188.617231381778
 30
0.0
 10
-531.5417160123314
 20
-185.9282640072544
 30
0.0
 10
-530.3198518163872
 20
-183.6954418815885
 30
0.0
 10
-529.2021711816682
 20
-181.9611329754898
 30
0.0
 10
-528.1465241646949
 20
-180.472045509367
 30
0.0
 10
-527.1703920002777
 20
-179.1741335765001
 30
0.0
 10
-526.6242660405851
 20
-178.4788722420757
 30
0.0
 10
-526.5748288349772
 20
-178.4160618092034
 30
0.0
 10
-526.5597358085263
 20
-178.3968859777003
 30
0.0
  0
SPLINE
  5
48E
330
1F
100
AcDbEntity
  8
0
  6
Continuous
 62
     7
370
    15
100
AcDbSpline
210
0.0
220
0.0
230
1.0
 70
     8
 71
     3
 72
    22
 73
    18
 74
     0
 42
0.000000001
 43
0.00000001
 40
0.0
 40
0.0
 40
0.0
 40
0.0
 40
0.0870777287443594
 40
0.1738038279041429
 40
0.2313481405017509
 40
0.290552148773342
 40
0.3488892956417975
 40
0.4089778466712254
 40
0.4779436646888346
 40
0.5473137422051874
 40
0.6291798638939292
 40
0.6881376697632469
 40
0.7487576395068672
 40
0.8086819342805076
 40
0.8706631142978276
 40
0.9564114193009529
 40
1.0
 40
1.0
 40
1.0
 40
1.0
 10
-558.5597336031544
 20
-178.3968859777003
 30
0.0
 10
-558.477111482627
 20
-178.5010239279179
 30
0.0
 10
-558.3122008789137
 20
-178.7088793076909
 30
0.0
 10
-557.2655223539626
 20
-180.0702570118622
 30
0.0
 10
-556.138936948493
 20
-181.6411180716119
 30
0.0
 10
-555.0678657738723
 20
-183.2613856313085
 30
0.0
 10
-553.9874134035749
 20
-185.1398363453776
 30
0.0
 10
-552.9824824540927
 20
-187.3738975178262
 30
0.0
 10
-552.3192584644152
 20
-190.0542119258106
 30
0.0
 10
-552.5014754049753
 20
-193.1823658991761
 30
0.0
 10
-553.488464706188
 20
-195.8699465474714
 30
0.0
 10
-554.6790447937984
 20
-198.0954042731869
 30
0.0
 10
-555.7858018929891
 20
-199.8383692222988
 30
0.0
 10
-556.8505805536784
 20
-201.3540047483873
 30
0.0
 10
-557.8449825823621
 20
-202.6855507419312
 30
0.0
 10
-558.5335804336511
 20
-203.563837992405
 30
0.0
 10
-558.4776723130241
 20
-203.4925352205925
 30
0.0
 10
-558.4588303901303
 20
-203.4685050562172
 30
0.0
  0
LINE
  5
48F
330
1F
100
AcDbEntity
  8
0
  6
Continuous
 62
     8
370
    15
100
AcDbLine
 10
224.9190926813
 20
-170.6668853253
 30
0.0
 11
195.213508632
 21
-170.6668853253
 31
0.0
  0
LINE
  5
490
330
1F
100
AcDbEntity
  8
0
  6
Continuous
 62
     8
370
    15
100
AcDbLine
 10
225.2135396264
 20
-170.6668853253
 30
0.0
 11
224.9190926813
 21
-170.6668853253
 31
0.0
  0
LINE
  5
491
330
1F
100
AcDbEntity
  8
0
  6
Continuous
 62
     8
370
    15
100
AcDbLine
 10
224.7544646524
 20
-170.4694747418
 30
0.0
 11
225.0455737375
 21
-170.4694747418
 31
0.0
  0
LINE
  5
492
330
1F
100
AcDbEntity
  8
0
  6
Continuous
 62
     8
370
    15
100
AcDbLine
 10
195.3814149164
 20
-170.4694747418
 30
0.0
 11
224.7544646524
 21
-170.4694747418
 31
0.0
  0
LINE
  5
493
330
1F
100
AcDbEntity
  8
0
  6
Continuous
 62
     8
370
    15
100
AcDbLine
 10
-475.2455280833
 20
-170.4694747418
 30
0.0
 11
-474.9543975778
 21
-170.4694747418
 31
0.0
  0
LINE
  5
494
330
1F
100
AcDbEntity
  8
0
  6
Continuous
 62
     8
370
    15
100
AcDbLine
 10
-504.6185601242
 20
-170.4694747418
 30
0.0
 11
-494.059736535
 21
-170.4694747418
 31
0.0
  0
LINE
  5
495
330
1F
100
AcDbEntity
  8
0
  6
Continuous
 62
     8
370
    15
100
AcDbLine
 10
-479.0597368702
 20
-170.4694747418
 30
0.0
 11
-475.2455280833
 21
-170.4694747418
 31
0.0
  0
LINE
  5
496
330
1F
100
AcDbEntity
  8
0
  6
Continuous
 62
     8
370
    15
100
AcDbLine
 10
-475.0809056424
 20
-170.6668853253
 30
0.0
 11
-479.0597368702
 21
-170.6668853253
 31
0.0
  0
LINE
  5
497
330
1F
100
AcDbEntity
  8
0
  6
Continuous
 62
     8
370
    15
100
AcDbLine
 10
-494.059736535
 20
-170.6668853253
 30
0.0
 11
-504.786479447
 21
-170.6668853253
 31
0.0
  0
LINE
  5
498
330
1F
100
AcDbEntity
  8
0
  6
Continuous
 62
     8
370
    15
100
AcDbLine
 10
-474.7864791863
 20
-170.6668853253
 30
0.0
 11
-475.0809056424
 21
-170.6668853253
 31
0.0
  0
LINE
  5
499
330
1F
100
AcDbEntity
  8
0
  6
Continuous
 62
     8
370
    15
100
AcDbLine
 10
-474.7864791863
 20
-178.6668857053
 30
0.0
 11
-504.786479447
 21
-178.6668857053
 31
0.0
  0
LINE
  5
49A
330
1F
100
AcDbEntity
  8
0
  6
Continuous
 62
     8
370
    15
100
AcDbLine
 10
-504.1231579818
 20
-179.7968854621
 30
0.0
 11
-474.7864791863
 21
-179.7968854621
 31
0.0
  0
LINE
  5
49B
330
1F
100
AcDbEntity
  8
0
  6
Continuous
 62
     8
370
    15
100
AcDbLine
 10
-504.786479447
 20
-179.7968854621
 30
0.0
 11
-504.1231579818
 21
-179.7968854621
 31
0.0
  0
LINE
  5
49C
330
1F
100
AcDbEntity
  8
0
  6
Continuous
 62
     8
370
    15
100
AcDbLine
 10
-504.6185601242
 20
-178.4694751218
 30
0.0
 11
-474.9543975778
 21
-178.4694751218
 31
0.0
  0
LINE
  5
49D
330
1F
100
AcDbEntity
  8
0
  6
Continuous
 62
     8
370
    15
100
AcDbLine
 10
-499.1053204723
 20
-180.1968866453
 30
0.0
 11
-499.5364790522
 21
-180.1968866453
 31
0.0
  0
LINE
  5
49E
330
1F
100
AcDbEntity
  8
0
  6
Continuous
 62
     8
370
    15
100
AcDbLine
 10
-480.0364795812
 20
-180.1968866453
 30
0.0
 11
-499.1053204723
 21
-180.1968866453
 31
0.0
  0
LINE
  5
49F
330
1F
100
AcDbEntity
  8
0
  6
Continuous
 62
     8
370
    15
100
AcDbLine
 10
195.3814149164
 20
-178.4694751218
 30
0.0
 11
225.0455737375
 21
-178.4694751218
 31
0.0
  0
LINE
  5
4A0
330
1F
100
AcDbEntity
  8
0
  6
Continuous
 62
     8
370
    15
100
AcDbLine
 10
225.2135396264
 20
-178.6668857053
 30
0.0
 11
195.213508632
 21
-178.6668857053
 31
0.0
  0
LINE
  5
4A1
330
1F
100
AcDbEntity
  8
0
  6
Continuous
 62
     8
370
    15
100
AcDbLine
 10
195.8768487237
 20
-179.7968854621
 30
0.0
 11
225.2135396264
 21
-179.7968854621
 31
0.0
  0
LINE
  5
4A2
330
1F
100
AcDbEntity
  8
0
  6
Continuous
 62
     8
370
    15
100
AcDbLine
 10
195.213508632
 20
-179.7968854621
 30
0.0
 11
195.8768487237
 21
-179.7968854621
 31
0.0
  0
LINE
  5
4A3
330
1F
100
AcDbEntity
  8
0
  6
Continuous
 62
     8
370
    15
100
AcDbLine
 10
200.8946657442
 20
-180.1968866453
 30
0.0
 11
200.4635453485
 21
-180.1968866453
 31
0.0
  0
LINE
  5
4A4
330
1F
100
AcDbEntity
  8
0
  6
Continuous
 62
     8
370
    15
100
AcDbLine
 10
219.96350291
 20
-180.1968866453
 30
0.0
 11
200.8946657442
 21
-180.1968866453
 31
0.0
  0
LINE
  5
4A5
330
1F
100
AcDbEntity
  8
0
  6
Continuous
 62
     8
370
    15
100
AcDbLine
 10
-502.2864799686
 20
-219.3284963682
 30
0.0
 11
-477.2864795961
 21
-219.3284963682
 31
0.0
  0
LINE
  5
4A6
330
1F
100
AcDbEntity
  8
0
  6
Continuous
 62
     8
370
    15
100
AcDbLine
 10
-477.452542793
 20
-219.5256014779
 30
0.0
 11
-502.1204158403
 21
-219.5256014779
 31
0.0
  0
LINE
  5
4A7
330
1F
100
AcDbEntity
  8
0
  6
Continuous
 62
     8
370
    15
100
AcDbLine
 10
197.7135062478
 20
-219.3284963682
 30
0.0
 11
222.7135420106
 21
-219.3284963682
 31
0.0
  0
LINE
  5
4A8
330
1F
100
AcDbEntity
  8
0
  6
Continuous
 62
     8
370
    15
100
AcDbLine
 10
222.5474834703
 20
-219.5256014779
 30
0.0
 11
197.8795647882
 21
-219.5256014779
 31
0.0
  0
LINE
  5
4A9
330
1F
100
AcDbEntity
  8
0
  6
Continuous
 62
     8
370
    15
100
AcDbLine
 10
-557.5597390272
 20
-216.9268873945
 30
0.0
 11
-527.5597378351
 21
-216.9268873945
 31
0.0
  0
LINE
  5
4AA
330
1F
100
AcDbEntity
  8
0
  6
Continuous
 62
     8
370
    15
100
AcDbLine
 10
-527.7276552953
 20
-217.124297978
 30
0.0
 11
-557.3918178417
 21
-217.124297978
 31
0.0
  0
LINE
  5
4AB
330
1F
100
AcDbEntity
  8
0
  6
Continuous
 62
     8
370
    15
100
AcDbLine
 10
1402.4403214715
 20
-216.9268873945
 30
0.0
 11
1432.4402928613
 21
-216.9268873945
 31
0.0
  0
LINE
  5
4AC
330
1F
100
AcDbEntity
  8
0
  6
Continuous
 62
     8
370
    15
100
AcDbLine
 10
1432.2723269723
 20
-217.124297978
 30
0.0
 11
1402.6081681512
 21
-217.124297978
 31
0.0
  0
ENDSEC
  0
SECTION
  2
OBJECTS
  0
DICTIONARY
  5
C
330
0
100
AcDbDictionary
281
     1
  3
ACAD_GROUP
350
D
  3
ACAD_LAYOUT
350
1A
  3
ACAD_MLINESTYLE
350
17
  3
ACAD_PLOTSETTINGS
350
19
  3
ACAD_PLOTSTYLENAME
350
E
  3
ACAD_SCALELIST
350
47
  0
DICTIONARY
  5
D
102
{ACAD_REACTORS
330
C
102
}
330
C
100
AcDbDictionary
281
     1
  0
DICTIONARY
  5
1A
102
{ACAD_REACTORS
330
C
102
}
330
C
100
AcDbDictionary
281
     1
  3
Layout1
350
1E
  3
Layout2
350
26
  3
Model
350
22
  0
DICTIONARY
  5
17
102
{ACAD_REACTORS
330
C
102
}
330
C
100
AcDbDictionary
281
     1
  3
Standard
350
18
  0
DICTIONARY
  5
19
102
{ACAD_REACTORS
330
C
102
}
330
C
100
AcDbDictionary
281
     1
  0
ACDBDICTIONARYWDFLT
  5
E
102
{ACAD_REACTORS
330
C
102
}
330
C
100
AcDbDictionary
281
     1
  3
Normal
350
F
100
AcDbDictionaryWithDefault
340
F
  0
DICTIONARY
  5
47
102
{ACAD_REACTORS
330
C
102
}
330
C
100
AcDbDictionary
281
     1
  3
A0
350
48
  3
A1
350
49
  3
A2
350
4A
  3
A3
350
4B
  3
A4
350
4C
  3
A5
350
4D
  3
A6
350
4E
  3
A7
350
4F
  3
A8
350
50
  3
A9
350
51
  3
B0
350
52
  3
B1
350
53
  3
B2
350
54
  3
B3
350
55
  3
B4
350
56
  3
B5
350
57
  3
B6
350
58
  3
B7
350
59
  3
B8
350
5A
  3
B9
350
5B
  3
C0
350
5C
  3
C1
350
5D
  3
C2
350
5E
  3
C3
350
5F
  3
C4
350
60
  3
C5
350
61
  3
C6
350
62
  3
C7
350
63
  3
C8
350
64
  3
C9
350
65
  3
D0
350
66
  3
D1
350
67
  3
D2
350
68
  0
LAYOUT
  5
1E
102
{ACAD_REACTORS
330
1A
102
}
330
1A
100
AcDbPlotSettings
  1

  2
none_device
  4

  6

 40
0.0
 41
0.0
 42
0.0
 43
0.0
 44
0.0
 45
0.0
 46
0.0
 47
0.0
 48
0.0
 49
0.0
140
0.0
141
0.0
142
1.0
143
1.0
 70
   688
 72
     1
 73
     0
 74
     5
  7

 75
    16
147
1.0
148
0.0
149
0.0
100
AcDbLayout
  1
Layout1
 70
     1
 71
     1
 10
0.0
 20
0.0
 11
420.0
 21
297.0
 12
0.0
 22
0.0
 32
0.0
 14
1.0000000000E+20
 24
1.0000000000E+20
 34
1.0000000000E+20
 15
-1.0000000000E+20
 25
-1.0000000000E+20
 35
-1.0000000000E+20
146
0.0
 13
0.0
 23
0.0
 33
0.0
 16
1.0
 26
0.0
 36
0.0
 17
0.0
 27
1.0
 37
0.0
 76
     0
330
1B
  0
LAYOUT
  5
26
102
{ACAD_REACTORS
330
1A
102
}
330
1A
100
AcDbPlotSettings
  1

  2
none_device
  4

  6

 40
0.0
 41
0.0
 42
0.0
 43
0.0
 44
0.0
 45
0.0
 46
0.0
 47
0.0
 48
0.0
 49
0.0
140
0.0
141
0.0
142
1.0
143
1.0
 70
   688
 72
     1
 73
     0
 74
     5
  7

 75
    16
147
1.0
148
0.0
149
0.0
100
AcDbLayout
  1
Layout2
 70
     1
 71
     2
 10
0.0
 20
0.0
 11
0.0
 21
0.0
 12
0.0
 22
0.0
 32
0.0
 14
0.0
 24
0.0
 34
0.0
 15
0.0
 25
0.0
 35
0.0
146
0.0
 13
0.0
 23
0.0
 33
0.0
 16
1.0
 26
0.0
 36
0.0
 17
0.0
 27
1.0
 37
0.0
 76
     0
330
23
  0
LAYOUT
  5
22
102
{ACAD_REACTORS
330
1A
102
}
330
1A
100
AcDbPlotSettings
  1

  2
none_device
  4
Letter_(8.50_x_11.00_Inches)
  6

 40
6.35
 41
6.35
 42
6.35000508
 43
6.35000508
 44
215.9
 45
279.4
 46
0.0
 47
0.0
 48
0.0
 49
0.0
140
0.0
141
0.0
142
1.0
143
1.0
 70
  1712
 72
     1
 73
     0
 74
     0
  7

 75
     0
147
1.0
148
0.0
149
0.0
100
AcDbLayout
  1
Model
 70
     1
 71
     0
 10
0.0
 20
0.0
 11
431.8
 21
279.4
 12
0.0
 22
0.0
 32
0.0
 14
0.0
 24
0.0
 34
0.0
 15
431.8
 25
279.4
 35
0.0
146
0.0
 13
0.0
 23
0.0
 33
0.0
 16
1.0
 26
0.0
 36
0.0
 17
0.0
 27
1.0
 37
0.0
 76
     0
330
1F
331
29
  0
MLINESTYLE
  5
18
102
{ACAD_REACTORS
330
17
102
}
330
17
100
AcDbMlineStyle
  2
Standard
 70
     0
  3

 62
   256
 51
90.0
 52
90.0
 71
     2
 49
0.5
 62
   256
  6
BYLAYER
 49
-0.5
 62
   256
  6
BYLAYER
  0
ACDBPLACEHOLDER
  5
F
102
{ACAD_REACTORS
330
E
102
}
330
E
  0
SCALE
  5
48
102
{ACAD_REACTORS
330
47
102
}
330
47
100
AcDbScale
 70
     0
300
1:1
140
1.0
141
1.0
290
     1
  0
SCALE
  5
49
102
{ACAD_REACTORS
330
47
102
}
330
47
100
AcDbScale
 70
     0
300
1:2
140
1.0
141
2.0
290
     0
  0
SCALE
  5
4A
102
{ACAD_REACTORS
330
47
102
}
330
47
100
AcDbScale
 70
     0
300
1:4
140
1.0
141
4.0
290
     0
  0
SCALE
  5
4B
102
{ACAD_REACTORS
330
47
102
}
330
47
100
AcDbScale
 70
     0
300
1:5
140
1.0
141
5.0
290
     0
  0
SCALE
  5
4C
102
{ACAD_REACTORS
330
47
102
}
330
47
100
AcDbScale
 70
     0
300
1:8
140
1.0
141
8.0
290
     0
  0
SCALE
  5
4D
102
{ACAD_REACTORS
330
47
102
}
330
47
100
AcDbScale
 70
     0
300
1:10
140
1.0
141
10.0
290
     0
  0
SCALE
  5
4E
102
{ACAD_REACTORS
330
47
102
}
330
47
100
AcDbScale
 70
     0
300
1:16
140
1.0
141
16.0
290
     0
  0
SCALE
  5
4F
102
{ACAD_REACTORS
330
47
102
}
330
47
100
AcDbScale
 70
     0
300
1:20
140
1.0
141
20.0
290
     0
  0
SCALE
  5
50
102
{ACAD_REACTORS
330
47
102
}
330
47
100
AcDbScale
 70
     0
300
1:30
140
1.0
141
30.0
290
     0
  0
SCALE
  5
51
102
{ACAD_REACTORS
330
47
102
}
330
47
100
AcDbScale
 70
     0
300
1:40
140
1.0
141
40.0
290
     0
  0
SCALE
  5
52
102
{ACAD_REACTORS
330
47
102
}
330
47
100
AcDbScale
 70
     0
300
1:50
140
1.0
141
50.0
290
     0
  0
SCALE
  5
53
102
{ACAD_REACTORS
330
47
102
}
330
47
100
AcDbScale
 70
     0
300
1:100
140
1.0
141
100.0
290
     0
  0
SCALE
  5
54
102
{ACAD_REACTORS
330
47
102
}
330
47
100
AcDbScale
 70
     0
300
2:1
140
2.0
141
1.0
290
     0
  0
SCALE
  5
55
102
{ACAD_REACTORS
330
47
102
}
330
47
100
AcDbScale
 70
     0
300
4:1
140
4.0
141
1.0
290
     0
  0
SCALE
  5
56
102
{ACAD_REACTORS
330
47
102
}
330
47
100
AcDbScale
 70
     0
300
8:1
140
8.0
141
1.0
290
     0
  0
SCALE
  5
57
102
{ACAD_REACTORS
330
47
102
}
330
47
100
AcDbScale
 70
     0
300
10:1
140
10.0
141
1.0
290
     0
  0
SCALE
  5
58
102
{ACAD_REACTORS
330
47
102
}
330
47
100
AcDbScale
 70
     0
300
100:1
140
100.0
141
1.0
290
     0
  0
SCALE
  5
59
102
{ACAD_REACTORS
330
47
102
}
330
47
100
AcDbScale
 70
     0
300
1/128" = 1'-0"
140
0.0078125
141
12.0
290
     0
  0
SCALE
  5
5A
102
{ACAD_REACTORS
330
47
102
}
330
47
100
AcDbScale
 70
     0
300
1/64" = 1'-0"
140
0.015625
141
12.0
290
     0
  0
SCALE
  5
5B
102
{ACAD_REACTORS
330
47
102
}
330
47
100
AcDbScale
 70
     0
300
1/32" = 1'-0"
140
0.03125
141
12.0
290
     0
  0
SCALE
  5
5C
102
{ACAD_REACTORS
330
47
102
}
330
47
100
AcDbScale
 70
     0
300
1/16" = 1'-0"
140
0.0625
141
12.0
290
     0
  0
SCALE
  5
5D
102
{ACAD_REACTORS
330
47
102
}
330
47
100
AcDbScale
 70
     0
300
3/32" = 1'-0"
140
0.09375
141
12.0
290
     0
  0
SCALE
  5
5E
102
{ACAD_REACTORS
330
47
102
}
330
47
100
AcDbScale
 70
     0
300
1/8" = 1'-0"
140
0.125
141
12.0
290
     0
  0
SCALE
  5
5F
102
{ACAD_REACTORS
330
47
102
}
330
47
100
AcDbScale
 70
     0
300
3/16" = 1'-0"
140
0.1875
141
12.0
290
     0
  0
SCALE
  5
60
102
{ACAD_REACTORS
330
47
102
}
330
47
100
AcDbScale
 70
     0
300
1/4" = 1'-0"
140
0.25
141
12.0
290
     0
  0
SCALE
  5
61
102
{ACAD_REACTORS
330
47
102
}
330
47
100
AcDbScale
 70
     0
300
3/8" = 1'-0"
140
0.375
141
12.0
290
     0
  0
SCALE
  5
62
102
{ACAD_REACTORS
330
47
102
}
330
47
100
AcDbScale
 70
     0
300
1/2" = 1'-0"
140
0.5
141
12.0
290
     0
  0
SCALE
  5
63
102
{ACAD_REACTORS
330
47
102
}
330
47
100
AcDbScale
 70
     0
300
3/4" = 1'-0"
140
0.75
141
12.0
290
     0
  0
SCALE
  5
64
102
{ACAD_REACTORS
330
47
102
}
330
47
100
AcDbScale
 70
     0
300
1" = 1'-0"
140
1.0
141
12.0
290
     0
  0
SCALE
  5
65
102
{ACAD_REACTORS
330
47
102
}
330
47
100
AcDbScale
 70
     0
300
1-1/2" = 1'-0"
140
1.5
141
12.0
290
     0
  0
SCALE
  5
66
102
{ACAD_REACTORS
330
47
102
}
330
47
100
AcDbScale
 70
     0
300
3" = 1'-0"
140
3.0
141
12.0
290
     0
  0
SCALE
  5
67
102
{ACAD_REACTORS
330
47
102
}
330
47
100
AcDbScale
 70
     0
300
6" = 1'-0"
140
6.0
141
12.0
290
     0
  0
SCALE
  5
68
102
{ACAD_REACTORS
330
47
102
}
330
47
100
AcDbScale
 70
     0
300
1'-0" = 1'-0"
140
12.0
141
12.0
290
     0
  0
ENDSEC
  0
EOF
