  0
SECTION
  2
HEADER
  9
$ACADVER
  1
AC1015
  9
$ACADMAINTVER
 70
     6
  9
$DWGCODEPAGE
  3
ANSI_1252
  9
$INSBASE
 10
0.0
 20
0.0
 30
0.0
  9
$EXTMIN
 10
0.0
 20
0.0
 30
0.0
  9
$EXTMAX
 10
431.8
 20
279.4
 30
0.0
  9
$LIMMIN
 10
0.0
 20
0.0
  9
$LIMMAX
 10
431.8
 20
279.4
  9
$ORTHOMODE
 70
     0
  9
$REGENMODE
 70
     1
  9
$FILLMODE
 70
     1
  9
$QTEXTMODE
 70
     0
  9
$MIRRTEXT
 70
     1
  9
$LTSCALE
 40
1.0
  9
$ATTMODE
 70
     1
  9
$TEXTSIZE
 40
4.9388888889
  9
$TRACEWID
 40
1.0
  9
$TEXTSTYLE
  7
Standard
  9
$CLAYER
  8
0
  9
$CELTYPE
  6
ByLayer
  9
$CECOLOR
 62
   256
  9
$CELTSCALE
 40
1.0
  9
$DISPSILH
 70
     0
  9
$DIMSCALE
 40
1.0
  9
$DIMASZ
 40
5.1366373698
  9
$DIMEXO
 40
2.0
  9
$DIMDLI
 40
3.75
  9
$DIMRND
 40
0.0
  9
$DIMDLE
 40
0.0
  9
$DIMEXE
 40
2.0
  9
$DIMTP
 40
0.0
  9
$DIMTM
 40
0.0
  9
$DIMTXT
 40
7.0555555556
  9
$DIMCEN
 40
2.5
  9
$DIMTSZ
 40
0.0
  9
$DIMTOL
 70
     0
  9
$DIMLIM
 70
     0
  9
$DIMTIH
 70
     1
  9
$DIMTOH
 70
     1
  9
$DIMSE1
 70
     0
  9
$DIMSE2
 70
     0
  9
$DIMTAD
 70
     1
  9
$DIMZIN
 70
     0
  9
$DIMBLK
  1

  9
$DIMASO
 70
     1
  9
$DIMSHO
 70
     1
  9
$DIMPOST
  1

  9
$DIMAPOST
  1

  9
$DIMALT
 70
     0
  9
$DIMALTD
 70
     3
  9
$DIMALTF
 40
0.0393700787
  9
$DIMLFAC
 40
1.0
  9
$DIMTOFL
 70
     1
  9
$DIMTVP
 40
0.0
  9
$DIMTIX
 70
     0
  9
$DIMSOXD
 70
     0
  9
$DIMSAH
 70
     0
  9
$DIMBLK1
  1

  9
$DIMBLK2
  1

  9
$DIMSTYLE
  2
ISO-25
  9
$DIMCLRD
 70
     0
  9
$DIMCLRE
 70
     0
  9
$DIMCLRT
 70
     0
  9
$DIMTFAC
 40
1.0
  9
$DIMGAP
 40
2.0
  9
$DIMJUST
 70
     0
  9
$DIMSD1
 70
     0
  9
$DIMSD2
 70
     0
  9
$DIMTOLJ
 70
     0
  9
$DIMTZIN
 70
     0
  9
$DIMALTZ
 70
     0
  9
$DIMALTTZ
 70
     0
  9
$DIMUPT
 70
     0
  9
$DIMDEC
 70
     2
  9
$DIMTDEC
 70
     2
  9
$DIMALTU
 70
     2
  9
$DIMALTTD
 70
     3
  9
$DIMTXSTY
  7
Standard
  9
$DIMAUNIT
 70
     0
  9
$DIMADEC
 70
     2
  9
$DIMALTRND
 40
0.0
  9
$DIMAZIN
 70
     0
  9
$DIMDSEP
 70
    44
  9
$DIMATFIT
 70
     3
  9
$DIMFRAC
 70
     0
  9
$DIMLDRBLK
  1

  9
$DIMLUNIT
 70
     2
  9
$DIMLWD
 70
    -2
  9
$DIMLWE
 70
    -2
  9
$DIMTMOVE
 70
     0
  9
$LUNITS
 70
     2
  9
$LUPREC
 70
     2
  9
$SKETCHINC
 40
1.0
  9
$FILLETRAD
 40
10.0
  9
$AUNITS
 70
     0
  9
$AUPREC
 70
     2
  9
$MENU
  1
.
  9
$ELEVATION
 40
0.0
  9
$PELEVATION
 40
0.0
  9
$THICKNESS
 40
0.0
  9
$LIMCHECK
 70
     0
  9
$CHAMFERA
 40
0.0
  9
$CHAMFERB
 40
0.0
  9
$CHAMFERC
 40
0.0
  9
$CHAMFERD
 40
0.0
  9
$SKPOLY
 70
     0
  9
$TDCREATE
 40
2457690.329157824
  9
$TDUCREATE
 40
2457690.245824491
  9
$TDUPDATE
 40
2457690.329158484
  9
$TDUUPDATE
 40
2457690.245825151
  9
$TDINDWG
 40
0.0000000116
  9
$TDUSRTIMER
 40
0.0000000116
  9
$USRTIMER
 70
     1
  9
$ANGBASE
 50
0.0
  9
$ANGDIR
 70
     0
  9
$PDMODE
 70
     0
  9
$PDSIZE
 40
-1.0
  9
$PLINEWID
 40
0.0
  9
$SPLFRAME
 70
     0
  9
$SPLINETYPE
 70
     6
  9
$SPLINESEGS
 70
     8
  9
$HANDSEED
  5
3B2
  9
$SURFTAB1
 70
     6
  9
$SURFTAB2
 70
     6
  9
$SURFTYPE
 70
     6
  9
$SURFU
 70
     6
  9
$SURFV
 70
     6
  9
$UCSBASE
  2

  9
$UCSNAME
  2

  9
$UCSORG
 10
0.0
 20
0.0
 30
0.0
  9
$UCSXDIR
 10
1.0
 20
0.0
 30
0.0
  9
$UCSYDIR
 10
0.0
 20
1.0
 30
0.0
  9
$UCSORTHOREF
  2

  9
$UCSORTHOVIEW
 70
     0
  9
$UCSORGTOP
 10
0.0
 20
0.0
 30
0.0
  9
$UCSORGBOTTOM
 10
0.0
 20
0.0
 30
0.0
  9
$UCSORGLEFT
 10
0.0
 20
0.0
 30
0.0
  9
$UCSORGRIGHT
 10
0.0
 20
0.0
 30
0.0
  9
$UCSORGFRONT
 10
0.0
 20
0.0
 30
0.0
  9
$UCSORGBACK
 10
0.0
 20
0.0
 30
0.0
  9
$PUCSBASE
  2

  9
$PUCSNAME
  2

  9
$PUCSORG
 10
0.0
 20
0.0
 30
0.0
  9
$PUCSXDIR
 10
1.0
 20
0.0
 30
0.0
  9
$PUCSYDIR
 10
0.0
 20
1.0
 30
0.0
  9
$PUCSORTHOREF
  2

  9
$PUCSORTHOVIEW
 70
     0
  9
$PUCSORGTOP
 10
0.0
 20
0.0
 30
0.0
  9
$PUCSORGBOTTOM
 10
0.0
 20
0.0
 30
0.0
  9
$PUCSORGLEFT
 10
0.0
 20
0.0
 30
0.0
  9
$PUCSORGRIGHT
 10
0.0
 20
0.0
 30
0.0
  9
$PUCSORGFRONT
 10
0.0
 20
0.0
 30
0.0
  9
$PUCSORGBACK
 10
0.0
 20
0.0
 30
0.0
  9
$USERI1
 70
     0
  9
$USERI2
 70
     0
  9
$USERI3
 70
     0
  9
$USERI4
 70
     0
  9
$USERI5
 70
     0
  9
$USERR1
 40
0.0
  9
$USERR2
 40
0.0
  9
$USERR3
 40
0.0
  9
$USERR4
 40
0.0
  9
$USERR5
 40
0.0
  9
$WORLDVIEW
 70
     1
  9
$SHADEDGE
 70
     3
  9
$SHADEDIF
 70
    70
  9
$TILEMODE
 70
     1
  9
$MAXACTVP
 70
    64
  9
$PINSBASE
 10
0.0
 20
0.0
 30
0.0
  9
$PLIMCHECK
 70
     0
  9
$PEXTMIN
 10
1.0000000000E+20
 20
1.0000000000E+20
 30
1.0000000000E+20
  9
$PEXTMAX
 10
-1.0000000000E+20
 20
-1.0000000000E+20
 30
-1.0000000000E+20
  9
$PLIMMIN
 10
0.0
 20
0.0
  9
$PLIMMAX
 10
420.0
 20
297.0
  9
$UNITMODE
 70
     0
  9
$VISRETAIN
 70
     1
  9
$PLINEGEN
 70
     0
  9
$PSLTSCALE
 70
     1
  9
$TREEDEPTH
 70
  3020
  9
$CMLSTYLE
  2
Standard
  9
$CMLJUST
 70
     0
  9
$CMLSCALE
 40
20.0
  9
$PROXYGRAPHICS
 70
     1
  9
$MEASUREMENT
 70
     1
  9
$CELWEIGHT
370
    -1
  9
$ENDCAPS
280
     0
  9
$JOINSTYLE
280
     0
  9
$LWDISPLAY
290
     1
  9
$INSUNITS
 70
     4
  9
$HYPERLINKBASE
  1

  9
$STYLESHEET
  1

  9
$XEDIT
290
     1
  9
$CEPSNTYPE
380
     0
  9
$PSTYLEMODE
290
     1
  9
$FINGERPRINTGUID
  2
{DC3E68B1-DECB-4D2B-9402-AD8D293473CE}
  9
$VERSIONGUID
  2
{FAEB1C32-E019-11D5-929B-00C0DF256EC4}
  9
$EXTNAMES
290
     1
  9
$PSVPSCALE
 40
0.0
  9
$OLESTARTUP
290
     0
  0
ENDSEC
  0
SECTION
  2
CLASSES
  0
CLASS
  1
ACDBDICTIONARYWDFLT
  2
AcDbDictionaryWithDefault
  3
ObjectDBX Classes
 90
        0
280
     0
281
     0
  0
CLASS
  1
VISUALSTYLE
  2
AcDbVisualStyle
  3
ObjectDBX Classes
 90
     4095
280
     0
281
     0
  0
CLASS
  1
MATERIAL
  2
AcDbMaterial
  3
ObjectDBX Classes
 90
     1153
280
     0
281
     0
  0
CLASS
  1
SCALE
  2
AcDbScale
  3
ObjectDBX Classes
 90
     1153
280
     0
281
     0
  0
CLASS
  1
TABLESTYLE
  2
AcDbTableStyle
  3
ObjectDBX Classes
 90
     4095
280
     0
281
     0
  0
CLASS
  1
MLEADERSTYLE
  2
AcDbMLeaderStyle
  3
ACDB_MLEADERSTYLE_CLASS
 90
     4095
280
     0
281
     0
  0
CLASS
  1
SUN
  2
AcDbSun
  3
SCENEOE
 90
     1153
280
     0
281
     0
  0
CLASS
  1
ACDBPLACEHOLDER
  2
AcDbPlaceHolder
  3
ObjectDBX Classes
 90
        0
280
     0
281
     0
  0
CLASS
  1
LAYOUT
  2
AcDbLayout
  3
ObjectDBX Classes
 90
        0
280
     0
281
     0
  0
ENDSEC
  0
SECTION
  2
TABLES
  0
TABLE
  2
VPORT
  5
8
330
0
100
AcDbSymbolTable
 70
     1
  0
VPORT
  5
29
330
8
100
AcDbSymbolTableRecord
100
AcDbViewportTableRecord
  2
*Active
 70
     0
 10
0.0
 20
0.0
 11
1.0
 21
1.0
 12
215.9
 22
139.7
 13
0.0
 23
0.0
 14
10.0
 24
10.0
 15
10.0
 25
10.0
 16
0.0
 26
0.0
 36
1.0
 17
0.0
 27
0.0
 37
0.0
 40
279.4
 41
1.5454545455
 42
50.0
 43
0.0
 44
0.0
 50
0.0
 51
0.0
 71
     0
 72
  2000
 73
     1
 74
     3
 75
     0
 76
     0
 77
     0
 78
     0
281
     0
 65
     1
110
0.0
120
0.0
130
0.0
111
1.0
121
0.0
131
0.0
112
0.0
122
1.0
132
0.0
 79
     0
146
0.0
  0
ENDTAB
  0
TABLE
  2
LTYPE
  5
5
330
0
100
AcDbSymbolTable
 70
     6
  0
LTYPE
  5
14
330
5
100
AcDbSymbolTableRecord
100
AcDbLinetypeTableRecord
  2
ByBlock
 70
     0
  3

 72
    65
 73
     0
 40
0.0
  0
LTYPE
  5
15
330
5
100
AcDbSymbolTableRecord
100
AcDbLinetypeTableRecord
  2
ByLayer
 70
     0
  3

 72
    65
 73
     0
 40
0.0
  0
LTYPE
  5
16
330
5
100
AcDbSymbolTableRecord
100
AcDbLinetypeTableRecord
  2
Continuous
 70
     0
  3
Solid line
 72
    65
 73
     0
 40
0.0
  0
LTYPE
  5
6E
330
5
100
AcDbSymbolTableRecord
100
AcDbLinetypeTableRecord
  2
HIDDEN
 70
     0
  3
Hidden __ __ __ __ __ __ __ __ __ __ __ __ __ __
 72
    65
 73
     2
 40
1.905
 49
1.27
 74
     0
 49
-0.635
 74
     0
  0
LTYPE
  5
6F
330
5
100
AcDbSymbolTableRecord
100
AcDbLinetypeTableRecord
  2
PHANTOM
 70
     0
  3
Phantom ______  __  __  ______  __  __  ______
 72
    65
 73
     6
 40
12.7
 49
6.35
 74
     0
 49
-1.27
 74
     0
 49
1.27
 74
     0
 49
-1.27
 74
     0
 49
1.27
 74
     0
 49
-1.27
 74
     0
  0
LTYPE
  5
70
330
5
100
AcDbSymbolTableRecord
100
AcDbLinetypeTableRecord
  2
CENTER
 70
     0
  3
Center ____ _ ____ _ ____ _ ____ _ ____ _ ____
 72
    65
 73
     4
 40
10.16
 49
6.35
 74
     0
 49
-1.27
 74
     0
 49
1.27
 74
     0
 49
-1.27
 74
     0
  0
LTYPE
  5
71
330
5
100
AcDbSymbolTableRecord
100
AcDbLinetypeTableRecord
  2
CENTERX2
 70
     0
  3
Center (2x) ________  __  ________  __  _____
 72
    65
 73
     4
 40
20.32
 49
12.7
 74
     0
 49
-2.54
 74
     0
 49
2.54
 74
     0
 49
-2.54
 74
     0
  0
LTYPE
  5
72
330
5
100
AcDbSymbolTableRecord
100
AcDbLinetypeTableRecord
  2
DOT2
 70
     0
  3
Dot (.5x) ........................................
 72
    65
 73
     2
 40
0.635
 49
0.0
 74
     0
 49
-0.635
 74
     0
  0
ENDTAB
  0
TABLE
  2
LAYER
  5
2
330
0
100
AcDbSymbolTable
 70
     3
  0
LAYER
  5
10
330
2
100
AcDbSymbolTableRecord
100
AcDbLayerTableRecord
  2
0
 70
     0
 62
     7
  6
Continuous
370
    -3
390
F
  0
LAYER
  5
73
330
2
100
AcDbSymbolTableRecord
100
AcDbLayerTableRecord
  2
SLD-0
 70
     0
 62
   179
  6
Continuous
370
    -3
390
F
  0
LAYER
  5
74
330
2
100
AcDbSymbolTableRecord
100
AcDbLayerTableRecord
  2
EBENE_1
 70
     0
 62
   179
  6
Continuous
370
    -3
390
F
  0
ENDTAB
  0
TABLE
  2
STYLE
  5
3
330
0
100
AcDbSymbolTable
 70
     3
  0
STYLE
  5
11
330
3
100
AcDbSymbolTableRecord
100
AcDbTextStyleTableRecord
  2
Standard
 70
     0
 40
0.0
 41
1.0
 50
0.0
 71
     0
 42
4.9388888889
  3
txt
  4

  0
STYLE
  5
96
330
3
100
AcDbSymbolTableRecord
100
AcDbTextStyleTableRecord
  2
SLDTEXTSTYLE0
 70
     0
 40
0.0
 41
0.605
 50
0.0
 71
     0
 42
4.9388888889
  3
TXT
  4

  0
STYLE
  5
16E
330
3
100
AcDbSymbolTableRecord
100
AcDbTextStyleTableRecord
  2
SLDTEXTSTYLE1
 70
     0
 40
0.0
 41
0.75
 50
0.0
 71
     0
 42
4.9388888889
  3
TXT
  4

  0
ENDTAB
  0
TABLE
  2
VIEW
  5
6
330
0
100
AcDbSymbolTable
 70
     0
  0
ENDTAB
  0
TABLE
  2
UCS
  5
7
330
0
100
AcDbSymbolTable
 70
     0
  0
ENDTAB
  0
TABLE
  2
APPID
  5
9
330
0
100
AcDbSymbolTable
 70
     1
  0
APPID
  5
12
330
9
100
AcDbSymbolTableRecord
100
AcDbRegAppTableRecord
  2
ACAD
 70
     0
  0
ENDTAB
  0
TABLE
  2
DIMSTYLE
  5
A
330
0
100
AcDbSymbolTable
 70
     1
100
AcDbDimStyleTable
  0
DIMSTYLE
105
27
330
A
100
AcDbSymbolTableRecord
100
AcDbDimStyleTableRecord
  2
ISO-25
 70
     0
 41
2.5
 42
0.625
 43
3.75
 44
1.25
 73
     0
 74
     0
 77
     1
 78
     8
140
2.5
141
2.5
143
0.0393700787
147
0.625
171
     3
172
     1
178
     0
271
     2
272
     2
274
     3
278
    44
283
     0
284
     8
340
11
  0
ENDTAB
  0
TABLE
  2
BLOCK_RECORD
  5
1
330
0
100
AcDbSymbolTable
 70
    25
  0
BLOCK_RECORD
  5
1F
330
1
100
AcDbSymbolTableRecord
100
AcDbBlockTableRecord
  2
*Model_Space
340
22
  0
BLOCK_RECORD
  5
1B
330
1
100
AcDbSymbolTableRecord
100
AcDbBlockTableRecord
  2
*Paper_Space
340
1E
  0
BLOCK_RECORD
  5
23
330
1
100
AcDbSymbolTableRecord
100
AcDbBlockTableRecord
  2
*Paper_Space0
340
26
  0
BLOCK_RECORD
  5
75
330
1
100
AcDbSymbolTableRecord
100
AcDbBlockTableRecord
  2
Block1
340
0
102
{BLKREFS
331
16D
102
}
  0
BLOCK_RECORD
  5
8C
330
1
100
AcDbSymbolTableRecord
100
AcDbBlockTableRecord
  2
SW_BLOCK_DIMENSION_0
340
0
102
{BLKREFS
331
98
102
}
  0
BLOCK_RECORD
  5
8F
330
1
100
AcDbSymbolTableRecord
100
AcDbBlockTableRecord
  2
_ORIGIN
340
0
102
{BLKREFS
331
94
331
104
102
}
  0
BLOCK_RECORD
  5
99
330
1
100
AcDbSymbolTableRecord
100
AcDbBlockTableRecord
  2
SW_BLOCK_DIMENSION_1
340
0
102
{BLKREFS
331
A0
102
}
  0
BLOCK_RECORD
  5
A1
330
1
100
AcDbSymbolTableRecord
100
AcDbBlockTableRecord
  2
SW_BLOCK_DIMENSION_2
340
0
102
{BLKREFS
331
A8
102
}
  0
BLOCK_RECORD
  5
A9
330
1
100
AcDbSymbolTableRecord
100
AcDbBlockTableRecord
  2
SW_BLOCK_DIMENSION_3
340
0
102
{BLKREFS
331
B0
102
}
  0
BLOCK_RECORD
  5
B1
330
1
100
AcDbSymbolTableRecord
100
AcDbBlockTableRecord
  2
SW_BLOCK_DIMENSION_4
340
0
102
{BLKREFS
331
B8
102
}
  0
BLOCK_RECORD
  5
B9
330
1
100
AcDbSymbolTableRecord
100
AcDbBlockTableRecord
  2
SW_BLOCK_DIMENSION_5
340
0
102
{BLKREFS
331
C0
102
}
  0
BLOCK_RECORD
  5
C1
330
1
100
AcDbSymbolTableRecord
100
AcDbBlockTableRecord
  2
SW_BLOCK_DIMENSION_6
340
0
102
{BLKREFS
331
C8
102
}
  0
BLOCK_RECORD
  5
C9
330
1
100
AcDbSymbolTableRecord
100
AcDbBlockTableRecord
  2
SW_BLOCK_DIMENSION_7
340
0
102
{BLKREFS
331
D0
102
}
  0
BLOCK_RECORD
  5
D1
330
1
100
AcDbSymbolTableRecord
100
AcDbBlockTableRecord
  2
SW_BLOCK_DIMENSION_8
340
0
102
{BLKREFS
331
D8
102
}
  0
BLOCK_RECORD
  5
D9
330
1
100
AcDbSymbolTableRecord
100
AcDbBlockTableRecord
  2
SW_BLOCK_DIMENSION_9
340
0
102
{BLKREFS
331
E0
102
}
  0
BLOCK_RECORD
  5
E1
330
1
100
AcDbSymbolTableRecord
100
AcDbBlockTableRecord
  2
SW_BLOCK_DIMENSION_10
340
0
102
{BLKREFS
331
E8
102
}
  0
BLOCK_RECORD
  5
E9
330
1
100
AcDbSymbolTableRecord
100
AcDbBlockTableRecord
  2
SW_BLOCK_DIMENSION_11
340
0
102
{BLKREFS
331
F0
102
}
  0
BLOCK_RECORD
  5
F1
330
1
100
AcDbSymbolTableRecord
100
AcDbBlockTableRecord
  2
SW_BLOCK_DIMENSION_12
340
0
102
{BLKREFS
331
F8
102
}
  0
BLOCK_RECORD
  5
F9
330
1
100
AcDbSymbolTableRecord
100
AcDbBlockTableRecord
  2
SW_BLOCK_DIMENSION_13
340
0
102
{BLKREFS
331
100
102
}
  0
BLOCK_RECORD
  5
101
330
1
100
AcDbSymbolTableRecord
100
AcDbBlockTableRecord
  2
SW_BLOCK_DIMENSION_14
340
0
102
{BLKREFS
331
110
102
}
  0
BLOCK_RECORD
  5
111
330
1
100
AcDbSymbolTableRecord
100
AcDbBlockTableRecord
  2
SW_BLOCK_DIMENSION_15
340
0
102
{BLKREFS
331
121
102
}
  0
BLOCK_RECORD
  5
122
330
1
100
AcDbSymbolTableRecord
100
AcDbBlockTableRecord
  2
SW_BLOCK_DIMENSION_16
340
0
102
{BLKREFS
331
132
102
}
  0
BLOCK_RECORD
  5
133
330
1
100
AcDbSymbolTableRecord
100
AcDbBlockTableRecord
  2
SW_BLOCK_DIMENSION_17
340
0
102
{BLKREFS
331
143
102
}
  0
BLOCK_RECORD
  5
144
330
1
100
AcDbSymbolTableRecord
100
AcDbBlockTableRecord
  2
SW_BLOCK_DIMENSION_18
340
0
102
{BLKREFS
331
154
102
}
  0
BLOCK_RECORD
  5
155
330
1
100
AcDbSymbolTableRecord
100
AcDbBlockTableRecord
  2
SW_BLOCK_DIMENSION_19
340
0
102
{BLKREFS
331
165
102
}
  0
BLOCK_RECORD
  5
166
330
1
100
AcDbSymbolTableRecord
100
AcDbBlockTableRecord
  2
SW_NOTE_0
340
0
102
{BLKREFS
331
16B
102
}
  0
BLOCK_RECORD
  5
171
330
1
100
AcDbSymbolTableRecord
100
AcDbBlockTableRecord
  2
SW_NOTE_1
340
0
102
{BLKREFS
331
178
102
}
  0
ENDTAB
  0
ENDSEC
  0
SECTION
  2
BLOCKS
  0
BLOCK
  5
20
330
1F
100
AcDbEntity
  8
0
100
AcDbBlockBegin
  2
*Model_Space
 70
     0
 10
0.0
 20
0.0
 30
0.0
  3
*Model_Space
  1

  0
ENDBLK
  5
21
330
1F
100
AcDbEntity
  8
0
100
AcDbBlockEnd
  0
BLOCK
  5
1C
330
1B
100
AcDbEntity
 67
     1
  8
0
100
AcDbBlockBegin
  2
*Paper_Space
 70
     0
 10
0.0
 20
0.0
 30
0.0
  3
*Paper_Space
  1

  0
ENDBLK
  5
1D
330
1B
100
AcDbEntity
 67
     1
  8
0
100
AcDbBlockEnd
  0
BLOCK
  5
24
330
23
100
AcDbEntity
  8
0
100
AcDbBlockBegin
  2
*Paper_Space0
 70
     0
 10
0.0
 20
0.0
 30
0.0
  3
*Paper_Space0
  1

  0
ENDBLK
  5
25
330
23
100
AcDbEntity
  8
0
100
AcDbBlockEnd
  0
BLOCK
  5
76
330
75
100
AcDbEntity
  8
0
100
AcDbBlockBegin
  2
Block1
 70
     0
 10
0.0
 20
0.0
 30
0.0
  3
Block1
  1

  0
LINE
  5
78
330
75
100
AcDbEntity
  8
EBENE_1
100
AcDbLine
 10
363.6834285714
 20
41.3579706949
 30
0.0
 11
388.6834285714
 21
41.3579706949
 31
0.0
  0
LINE
  5
79
330
75
100
AcDbEntity
  8
EBENE_1
100
AcDbLine
 10
374.9034285714
 20
41.3579706949
 30
0.0
 11
374.9034285714
 21
171.3579706949
 31
0.0
  0
LINE
  5
7A
330
75
100
AcDbEntity
  8
EBENE_1
100
AcDbLine
 10
374.9034285714
 20
51.3579706949
 30
0.0
 11
384.9034285714
 21
51.3579706949
 31
0.0
  0
LINE
  5
7B
330
75
100
AcDbEntity
  8
EBENE_1
100
AcDbLine
 10
374.9034285714
 20
61.3579706949
 30
0.0
 11
384.9034285714
 21
61.3579706949
 31
0.0
  0
LINE
  5
7C
330
75
100
AcDbEntity
  8
EBENE_1
100
AcDbLine
 10
374.9034285714
 20
71.3579706949
 30
0.0
 11
384.9034285714
 21
71.3579706949
 31
0.0
  0
LINE
  5
7D
330
75
100
AcDbEntity
  8
EBENE_1
100
AcDbLine
 10
374.9034285714
 20
81.3579706949
 30
0.0
 11
384.9034285714
 21
81.3579706949
 31
0.0
  0
LINE
  5
7E
330
75
100
AcDbEntity
  8
EBENE_1
100
AcDbLine
 10
374.9034285714
 20
91.3579706949
 30
0.0
 11
384.9034285714
 21
91.3579706949
 31
0.0
  0
LINE
  5
7F
330
75
100
AcDbEntity
  8
EBENE_1
100
AcDbLine
 10
374.9034285714
 20
101.3579706949
 30
0.0
 11
384.9034285714
 21
101.3579706949
 31
0.0
  0
LINE
  5
80
330
75
100
AcDbEntity
  8
EBENE_1
100
AcDbLine
 10
374.9034285714
 20
111.3579706949
 30
0.0
 11
384.9034285714
 21
111.3579706949
 31
0.0
  0
LINE
  5
81
330
75
100
AcDbEntity
  8
EBENE_1
100
AcDbLine
 10
374.9034285714
 20
121.3579706949
 30
0.0
 11
384.9034285714
 21
121.3579706949
 31
0.0
  0
LINE
  5
82
330
75
100
AcDbEntity
  8
EBENE_1
100
AcDbLine
 10
374.9034285714
 20
131.3579706949
 30
0.0
 11
384.9034285714
 21
131.3579706949
 31
0.0
  0
LINE
  5
83
330
75
100
AcDbEntity
  8
EBENE_1
100
AcDbLine
 10
374.9034285714
 20
141.3579706949
 30
0.0
 11
384.9034285714
 21
141.3579706949
 31
0.0
  0
LINE
  5
84
330
75
100
AcDbEntity
  8
EBENE_1
100
AcDbLine
 10
374.9034285714
 20
151.3579706949
 30
0.0
 11
384.9034285714
 21
151.3579706949
 31
0.0
  0
LINE
  5
85
330
75
100
AcDbEntity
  8
EBENE_1
100
AcDbLine
 10
374.9034285714
 20
161.3579706949
 30
0.0
 11
384.9034285714
 21
161.3579706949
 31
0.0
  0
LINE
  5
86
330
75
100
AcDbEntity
  8
EBENE_1
100
AcDbLine
 10
374.9034285714
 20
171.3579706949
 30
0.0
 11
384.9034285714
 21
171.3579706949
 31
0.0
  0
LINE
  5
87
330
75
100
AcDbEntity
  8
EBENE_1
100
AcDbLine
 10
374.9034285714
 20
66.7579706949
 30
0.0
 11
362.9034285714
 21
66.7579706949
 31
0.0
  0
LINE
  5
88
330
75
100
AcDbEntity
  8
EBENE_1
100
AcDbLine
 10
374.9034285714
 20
92.1579706949
 30
0.0
 11
362.9034285714
 21
92.1579706949
 31
0.0
  0
LINE
  5
89
330
75
100
AcDbEntity
  8
EBENE_1
100
AcDbLine
 10
374.9034285714
 20
117.5579706949
 30
0.0
 11
362.9034285714
 21
117.5579706949
 31
0.0
  0
LINE
  5
8A
330
75
100
AcDbEntity
  8
EBENE_1
100
AcDbLine
 10
374.9034285714
 20
142.9579706949
 30
0.0
 11
362.9034285714
 21
142.9579706949
 31
0.0
  0
LINE
  5
8B
330
75
100
AcDbEntity
  8
EBENE_1
100
AcDbLine
 10
374.9034285714
 20
168.3579706949
 30
0.0
 11
362.9034285714
 21
168.3579706949
 31
0.0
  0
INSERT
  5
98
330
75
100
AcDbEntity
  8
EBENE_1
100
AcDbBlockReference
  2
SW_BLOCK_DIMENSION_0
 10
397.2096946378
 20
38.9914197296
 30
0.0
  0
INSERT
  5
A0
330
75
100
AcDbEntity
  8
EBENE_1
100
AcDbBlockReference
  2
SW_BLOCK_DIMENSION_1
 10
397.2096946378
 20
48.9914197296
 30
0.0
  0
INSERT
  5
A8
330
75
100
AcDbEntity
  8
EBENE_1
100
AcDbBlockReference
  2
SW_BLOCK_DIMENSION_2
 10
397.2096946378
 20
58.9914197296
 30
0.0
  0
INSERT
  5
B0
330
75
100
AcDbEntity
  8
EBENE_1
100
AcDbBlockReference
  2
SW_BLOCK_DIMENSION_3
 10
397.2096946378
 20
68.9914197296
 30
0.0
  0
INSERT
  5
B8
330
75
100
AcDbEntity
  8
EBENE_1
100
AcDbBlockReference
  2
SW_BLOCK_DIMENSION_4
 10
397.2096946378
 20
78.9914197296
 30
0.0
  0
INSERT
  5
C0
330
75
100
AcDbEntity
  8
EBENE_1
100
AcDbBlockReference
  2
SW_BLOCK_DIMENSION_5
 10
397.2096946378
 20
88.9914197296
 30
0.0
  0
INSERT
  5
C8
330
75
100
AcDbEntity
  8
EBENE_1
100
AcDbBlockReference
  2
SW_BLOCK_DIMENSION_6
 10
397.2096946378
 20
98.9914197296
 30
0.0
  0
INSERT
  5
D0
330
75
100
AcDbEntity
  8
EBENE_1
100
AcDbBlockReference
  2
SW_BLOCK_DIMENSION_7
 10
397.2096946378
 20
108.9914197296
 30
0.0
  0
INSERT
  5
D8
330
75
100
AcDbEntity
  8
EBENE_1
100
AcDbBlockReference
  2
SW_BLOCK_DIMENSION_8
 10
397.2096946378
 20
118.9914197296
 30
0.0
  0
INSERT
  5
E0
330
75
100
AcDbEntity
  8
EBENE_1
100
AcDbBlockReference
  2
SW_BLOCK_DIMENSION_9
 10
397.2096946378
 20
128.9914197296
 30
0.0
  0
INSERT
  5
E8
330
75
100
AcDbEntity
  8
EBENE_1
100
AcDbBlockReference
  2
SW_BLOCK_DIMENSION_10
 10
397.2096946378
 20
138.9914197296
 30
0.0
  0
INSERT
  5
F0
330
75
100
AcDbEntity
  8
EBENE_1
100
AcDbBlockReference
  2
SW_BLOCK_DIMENSION_11
 10
397.2096946378
 20
148.9914197296
 30
0.0
  0
INSERT
  5
F8
330
75
100
AcDbEntity
  8
EBENE_1
100
AcDbBlockReference
  2
SW_BLOCK_DIMENSION_12
 10
397.2096946378
 20
158.9914197296
 30
0.0
  0
INSERT
  5
100
330
75
100
AcDbEntity
  8
EBENE_1
100
AcDbBlockReference
  2
SW_BLOCK_DIMENSION_13
 10
397.2096946378
 20
168.9914197296
 30
0.0
  0
INSERT
  5
110
330
75
100
AcDbEntity
  8
EBENE_1
100
AcDbBlockReference
  2
SW_BLOCK_DIMENSION_14
 10
337.2987953614
 20
36.1691980072
 30
0.0
  0
INSERT
  5
121
330
75
100
AcDbEntity
  8
EBENE_1
100
AcDbBlockReference
  2
SW_BLOCK_DIMENSION_15
 10
337.2987953614
 20
61.5691980072
 30
0.0
  0
INSERT
  5
132
330
75
100
AcDbEntity
  8
EBENE_1
100
AcDbBlockReference
  2
SW_BLOCK_DIMENSION_16
 10
337.2987953614
 20
86.9691980072
 30
0.0
  0
INSERT
  5
143
330
75
100
AcDbEntity
  8
EBENE_1
100
AcDbBlockReference
  2
SW_BLOCK_DIMENSION_17
 10
337.2987953614
 20
112.3691980072
 30
0.0
  0
INSERT
  5
154
330
75
100
AcDbEntity
  8
EBENE_1
100
AcDbBlockReference
  2
SW_BLOCK_DIMENSION_18
 10
336.8284243759
 20
137.7691980072
 30
0.0
  0
INSERT
  5
165
330
75
100
AcDbEntity
  8
EBENE_1
100
AcDbBlockReference
  2
SW_BLOCK_DIMENSION_19
 10
337.2987953614
 20
163.1691980072
 30
0.0
  0
INSERT
  5
16B
330
75
100
AcDbEntity
  8
EBENE_1
 62
   179
100
AcDbBlockReference
  2
SW_NOTE_0
 10
337.5586028241
 20
28.8175207347
 30
0.0
  0
MTEXT
  5
16C
330
75
100
AcDbEntity
  8
EBENE_1
100
AcDbMText
 10
393.160738319
 20
33.5924424874
 30
0.0
 40
3.7041666667
 41
0.0
 71
     1
 72
     1
  1
mm
  7
SLDTEXTSTYLE0
 73
     1
 44
1.0
  0
ENDBLK
  5
77
330
75
100
AcDbEntity
  8
0
100
AcDbBlockEnd
  0
BLOCK
  5
8D
330
8C
100
AcDbEntity
  8
0
100
AcDbBlockBegin
  2
SW_BLOCK_DIMENSION_0
 70
     0
 10
0.0
 20
0.0
 30
0.0
  3
SW_BLOCK_DIMENSION_0
  1

  0
INSERT
  5
94
330
8C
100
AcDbEntity
  8
EBENE_1
 62
     0
100
AcDbBlockReference
  2
_ORIGIN
 10
-1.5805038061
 20
2.3665509652
 30
0.0
 41
0.9483022837
 42
0.9483022837
 50
0.0
  0
LINE
  5
95
330
8C
100
AcDbEntity
  8
EBENE_1
 62
     0
100
AcDbLine
 10
-6.5262660664
 20
2.3665509652
 30
0.0
 11
0.0
 21
2.3665509652
 31
0.0
  0
MTEXT
  5
97
330
8C
100
AcDbEntity
  8
EBENE_1
 62
     0
100
AcDbMText
 10
0.0
 20
4.0927900738
 30
0.0
 40
3.175
 41
0.0
 71
     1
 72
     1
  1
0
  7
SLDTEXTSTYLE0
 73
     1
 44
1.0
  0
ENDBLK
  5
8E
330
8C
100
AcDbEntity
  8
0
100
AcDbBlockEnd
  0
BLOCK
  5
90
330
8F
100
AcDbEntity
  8
0
100
AcDbBlockBegin
  2
_ORIGIN
 70
     0
 10
0.0
 20
0.0
 30
0.0
  3
_ORIGIN
  1

  0
CIRCLE
  5
92
330
8F
100
AcDbEntity
  8
0
  6
ByBlock
 62
     0
370
    -2
100
AcDbCircle
 10
0.0
 20
0.0
 30
0.0
 40
0.5
  0
LINE
  5
93
330
8F
100
AcDbEntity
  8
0
  6
ByBlock
 62
     0
370
    -2
100
AcDbLine
 10
0.0
 20
0.0
 30
0.0
 11
-1.0
 21
0.0
 31
0.0
  0
ENDBLK
  5
91
330
8F
100
AcDbEntity
  8
0
100
AcDbBlockEnd
  0
BLOCK
  5
9A
330
99
100
AcDbEntity
  8
0
100
AcDbBlockBegin
  2
SW_BLOCK_DIMENSION_1
 70
     0
 10
0.0
 20
0.0
 30
0.0
  3
SW_BLOCK_DIMENSION_1
  1

  0
SOLID
  5
9C
330
99
100
AcDbEntity
  8
EBENE_1
 62
     0
100
AcDbTrace
 10
-1.5805038061
 20
2.3665509652
 30
0.0
 11
-2.0546549479
 21
-0.7154314566
 31
0.0
 12
-1.1063526643
 22
-0.7154314566
 32
0.0
 13
-1.1063526643
 23
-0.7154314566
 33
0.0
  0
LINE
  5
9D
330
99
100
AcDbEntity
  8
EBENE_1
 62
     0
100
AcDbLine
 10
-10.3062660664
 20
2.3665509652
 30
0.0
 11
0.0
 21
2.3665509652
 31
0.0
  0
LINE
  5
9E
330
99
100
AcDbEntity
  8
EBENE_1
 62
     0
100
AcDbLine
 10
-1.5805038061
 20
-7.6334490348
 30
0.0
 11
-1.5805038061
 21
2.3665509652
 31
0.0
  0
MTEXT
  5
9F
330
99
100
AcDbEntity
  8
EBENE_1
 62
     0
100
AcDbMText
 10
0.0
 20
4.0927900738
 30
0.0
 40
3.175
 41
0.0
 71
     1
 72
     1
  1
10
  7
SLDTEXTSTYLE0
 73
     1
 44
1.0
  0
ENDBLK
  5
9B
330
99
100
AcDbEntity
  8
0
100
AcDbBlockEnd
  0
BLOCK
  5
A2
330
A1
100
AcDbEntity
  8
0
100
AcDbBlockBegin
  2
SW_BLOCK_DIMENSION_2
 70
     0
 10
0.0
 20
0.0
 30
0.0
  3
SW_BLOCK_DIMENSION_2
  1

  0
SOLID
  5
A4
330
A1
100
AcDbEntity
  8
EBENE_1
 62
     0
100
AcDbTrace
 10
-1.5805038061
 20
2.3665509652
 30
0.0
 11
-2.0546549479
 21
-0.7154314566
 31
0.0
 12
-1.1063526643
 22
-0.7154314566
 32
0.0
 13
-1.1063526643
 23
-0.7154314566
 33
0.0
  0
LINE
  5
A5
330
A1
100
AcDbEntity
  8
EBENE_1
 62
     0
100
AcDbLine
 10
-10.3062660664
 20
2.3665509652
 30
0.0
 11
0.0
 21
2.3665509652
 31
0.0
  0
LINE
  5
A6
330
A1
100
AcDbEntity
  8
EBENE_1
 62
     0
100
AcDbLine
 10
-1.5805038061
 20
-7.6334490348
 30
0.0
 11
-1.5805038061
 21
2.3665509652
 31
0.0
  0
MTEXT
  5
A7
330
A1
100
AcDbEntity
  8
EBENE_1
 62
     0
100
AcDbMText
 10
0.0
 20
4.0927900738
 30
0.0
 40
3.175
 41
0.0
 71
     1
 72
     1
  1
20
  7
SLDTEXTSTYLE0
 73
     1
 44
1.0
  0
ENDBLK
  5
A3
330
A1
100
AcDbEntity
  8
0
100
AcDbBlockEnd
  0
BLOCK
  5
AA
330
A9
100
AcDbEntity
  8
0
100
AcDbBlockBegin
  2
SW_BLOCK_DIMENSION_3
 70
     0
 10
0.0
 20
0.0
 30
0.0
  3
SW_BLOCK_DIMENSION_3
  1

  0
SOLID
  5
AC
330
A9
100
AcDbEntity
  8
EBENE_1
 62
     0
100
AcDbTrace
 10
-1.5805038061
 20
2.3665509652
 30
0.0
 11
-2.0546549479
 21
-0.7154314566
 31
0.0
 12
-1.1063526643
 22
-0.7154314566
 32
0.0
 13
-1.1063526643
 23
-0.7154314566
 33
0.0
  0
LINE
  5
AD
330
A9
100
AcDbEntity
  8
EBENE_1
 62
     0
100
AcDbLine
 10
-10.3062660664
 20
2.3665509652
 30
0.0
 11
0.0
 21
2.3665509652
 31
0.0
  0
LINE
  5
AE
330
A9
100
AcDbEntity
  8
EBENE_1
 62
     0
100
AcDbLine
 10
-1.5805038061
 20
-7.6334490348
 30
0.0
 11
-1.5805038061
 21
2.3665509652
 31
0.0
  0
MTEXT
  5
AF
330
A9
100
AcDbEntity
  8
EBENE_1
 62
     0
100
AcDbMText
 10
0.0
 20
4.0927900738
 30
0.0
 40
3.175
 41
0.0
 71
     1
 72
     1
  1
30
  7
SLDTEXTSTYLE0
 73
     1
 44
1.0
  0
ENDBLK
  5
AB
330
A9
100
AcDbEntity
  8
0
100
AcDbBlockEnd
  0
BLOCK
  5
B2
330
B1
100
AcDbEntity
  8
0
100
AcDbBlockBegin
  2
SW_BLOCK_DIMENSION_4
 70
     0
 10
0.0
 20
0.0
 30
0.0
  3
SW_BLOCK_DIMENSION_4
  1

  0
SOLID
  5
B4
330
B1
100
AcDbEntity
  8
EBENE_1
 62
     0
100
AcDbTrace
 10
-1.5805038061
 20
2.3665509652
 30
0.0
 11
-2.0546549479
 21
-0.7154314566
 31
0.0
 12
-1.1063526643
 22
-0.7154314566
 32
0.0
 13
-1.1063526643
 23
-0.7154314566
 33
0.0
  0
LINE
  5
B5
330
B1
100
AcDbEntity
  8
EBENE_1
 62
     0
100
AcDbLine
 10
-10.3062660664
 20
2.3665509652
 30
0.0
 11
0.0
 21
2.3665509652
 31
0.0
  0
LINE
  5
B6
330
B1
100
AcDbEntity
  8
EBENE_1
 62
     0
100
AcDbLine
 10
-1.5805038061
 20
-7.6334490348
 30
0.0
 11
-1.5805038061
 21
2.3665509652
 31
0.0
  0
MTEXT
  5
B7
330
B1
100
AcDbEntity
  8
EBENE_1
 62
     0
100
AcDbMText
 10
0.0
 20
4.0927900738
 30
0.0
 40
3.175
 41
0.0
 71
     1
 72
     1
  1
40
  7
SLDTEXTSTYLE0
 73
     1
 44
1.0
  0
ENDBLK
  5
B3
330
B1
100
AcDbEntity
  8
0
100
AcDbBlockEnd
  0
BLOCK
  5
BA
330
B9
100
AcDbEntity
  8
0
100
AcDbBlockBegin
  2
SW_BLOCK_DIMENSION_5
 70
     0
 10
0.0
 20
0.0
 30
0.0
  3
SW_BLOCK_DIMENSION_5
  1

  0
SOLID
  5
BC
330
B9
100
AcDbEntity
  8
EBENE_1
 62
     0
100
AcDbTrace
 10
-1.5805038061
 20
2.3665509652
 30
0.0
 11
-2.0546549479
 21
-0.7154314566
 31
0.0
 12
-1.1063526643
 22
-0.7154314566
 32
0.0
 13
-1.1063526643
 23
-0.7154314566
 33
0.0
  0
LINE
  5
BD
330
B9
100
AcDbEntity
  8
EBENE_1
 62
     0
100
AcDbLine
 10
-10.3062660664
 20
2.3665509652
 30
0.0
 11
0.0
 21
2.3665509652
 31
0.0
  0
LINE
  5
BE
330
B9
100
AcDbEntity
  8
EBENE_1
 62
     0
100
AcDbLine
 10
-1.5805038061
 20
-7.6334490348
 30
0.0
 11
-1.5805038061
 21
2.3665509652
 31
0.0
  0
MTEXT
  5
BF
330
B9
100
AcDbEntity
  8
EBENE_1
 62
     0
100
AcDbMText
 10
0.0
 20
4.0927900738
 30
0.0
 40
3.175
 41
0.0
 71
     1
 72
     1
  1
50
  7
SLDTEXTSTYLE0
 73
     1
 44
1.0
  0
ENDBLK
  5
BB
330
B9
100
AcDbEntity
  8
0
100
AcDbBlockEnd
  0
BLOCK
  5
C2
330
C1
100
AcDbEntity
  8
0
100
AcDbBlockBegin
  2
SW_BLOCK_DIMENSION_6
 70
     0
 10
0.0
 20
0.0
 30
0.0
  3
SW_BLOCK_DIMENSION_6
  1

  0
SOLID
  5
C4
330
C1
100
AcDbEntity
  8
EBENE_1
 62
     0
100
AcDbTrace
 10
-1.5805038061
 20
2.3665509652
 30
0.0
 11
-2.0546549479
 21
-0.7154314566
 31
0.0
 12
-1.1063526643
 22
-0.7154314566
 32
0.0
 13
-1.1063526643
 23
-0.7154314566
 33
0.0
  0
LINE
  5
C5
330
C1
100
AcDbEntity
  8
EBENE_1
 62
     0
100
AcDbLine
 10
-10.3062660664
 20
2.3665509652
 30
0.0
 11
0.0
 21
2.3665509652
 31
0.0
  0
LINE
  5
C6
330
C1
100
AcDbEntity
  8
EBENE_1
 62
     0
100
AcDbLine
 10
-1.5805038061
 20
-7.6334490348
 30
0.0
 11
-1.5805038061
 21
2.3665509652
 31
0.0
  0
MTEXT
  5
C7
330
C1
100
AcDbEntity
  8
EBENE_1
 62
     0
100
AcDbMText
 10
0.0
 20
4.0927900738
 30
0.0
 40
3.175
 41
0.0
 71
     1
 72
     1
  1
60
  7
SLDTEXTSTYLE0
 73
     1
 44
1.0
  0
ENDBLK
  5
C3
330
C1
100
AcDbEntity
  8
0
100
AcDbBlockEnd
  0
BLOCK
  5
CA
330
C9
100
AcDbEntity
  8
0
100
AcDbBlockBegin
  2
SW_BLOCK_DIMENSION_7
 70
     0
 10
0.0
 20
0.0
 30
0.0
  3
SW_BLOCK_DIMENSION_7
  1

  0
SOLID
  5
CC
330
C9
100
AcDbEntity
  8
EBENE_1
 62
     0
100
AcDbTrace
 10
-1.5805038061
 20
2.3665509652
 30
0.0
 11
-2.0546549479
 21
-0.7154314566
 31
0.0
 12
-1.1063526643
 22
-0.7154314566
 32
0.0
 13
-1.1063526643
 23
-0.7154314566
 33
0.0
  0
LINE
  5
CD
330
C9
100
AcDbEntity
  8
EBENE_1
 62
     0
100
AcDbLine
 10
-10.3062660664
 20
2.3665509652
 30
0.0
 11
0.0
 21
2.3665509652
 31
0.0
  0
LINE
  5
CE
330
C9
100
AcDbEntity
  8
EBENE_1
 62
     0
100
AcDbLine
 10
-1.5805038061
 20
-7.6334490348
 30
0.0
 11
-1.5805038061
 21
2.3665509652
 31
0.0
  0
MTEXT
  5
CF
330
C9
100
AcDbEntity
  8
EBENE_1
 62
     0
100
AcDbMText
 10
0.0
 20
4.0927900738
 30
0.0
 40
3.175
 41
0.0
 71
     1
 72
     1
  1
70
  7
SLDTEXTSTYLE0
 73
     1
 44
1.0
  0
ENDBLK
  5
CB
330
C9
100
AcDbEntity
  8
0
100
AcDbBlockEnd
  0
BLOCK
  5
D2
330
D1
100
AcDbEntity
  8
0
100
AcDbBlockBegin
  2
SW_BLOCK_DIMENSION_8
 70
     0
 10
0.0
 20
0.0
 30
0.0
  3
SW_BLOCK_DIMENSION_8
  1

  0
SOLID
  5
D4
330
D1
100
AcDbEntity
  8
EBENE_1
 62
     0
100
AcDbTrace
 10
-1.5805038061
 20
2.3665509652
 30
0.0
 11
-2.0546549479
 21
-0.7154314566
 31
0.0
 12
-1.1063526643
 22
-0.7154314566
 32
0.0
 13
-1.1063526643
 23
-0.7154314566
 33
0.0
  0
LINE
  5
D5
330
D1
100
AcDbEntity
  8
EBENE_1
 62
     0
100
AcDbLine
 10
-10.3062660664
 20
2.3665509652
 30
0.0
 11
0.0
 21
2.3665509652
 31
0.0
  0
LINE
  5
D6
330
D1
100
AcDbEntity
  8
EBENE_1
 62
     0
100
AcDbLine
 10
-1.5805038061
 20
-7.6334490348
 30
0.0
 11
-1.5805038061
 21
2.3665509652
 31
0.0
  0
MTEXT
  5
D7
330
D1
100
AcDbEntity
  8
EBENE_1
 62
     0
100
AcDbMText
 10
0.0
 20
4.0927900738
 30
0.0
 40
3.175
 41
0.0
 71
     1
 72
     1
  1
80
  7
SLDTEXTSTYLE0
 73
     1
 44
1.0
  0
ENDBLK
  5
D3
330
D1
100
AcDbEntity
  8
0
100
AcDbBlockEnd
  0
BLOCK
  5
DA
330
D9
100
AcDbEntity
  8
0
100
AcDbBlockBegin
  2
SW_BLOCK_DIMENSION_9
 70
     0
 10
0.0
 20
0.0
 30
0.0
  3
SW_BLOCK_DIMENSION_9
  1

  0
SOLID
  5
DC
330
D9
100
AcDbEntity
  8
EBENE_1
 62
     0
100
AcDbTrace
 10
-1.5805038061
 20
2.3665509652
 30
0.0
 11
-2.0546549479
 21
-0.7154314566
 31
0.0
 12
-1.1063526643
 22
-0.7154314566
 32
0.0
 13
-1.1063526643
 23
-0.7154314566
 33
0.0
  0
LINE
  5
DD
330
D9
100
AcDbEntity
  8
EBENE_1
 62
     0
100
AcDbLine
 10
-10.3062660664
 20
2.3665509652
 30
0.0
 11
0.0
 21
2.3665509652
 31
0.0
  0
LINE
  5
DE
330
D9
100
AcDbEntity
  8
EBENE_1
 62
     0
100
AcDbLine
 10
-1.5805038061
 20
-7.6334490348
 30
0.0
 11
-1.5805038061
 21
2.3665509652
 31
0.0
  0
MTEXT
  5
DF
330
D9
100
AcDbEntity
  8
EBENE_1
 62
     0
100
AcDbMText
 10
0.0
 20
4.0927900738
 30
0.0
 40
3.175
 41
0.0
 71
     1
 72
     1
  1
90
  7
SLDTEXTSTYLE0
 73
     1
 44
1.0
  0
ENDBLK
  5
DB
330
D9
100
AcDbEntity
  8
0
100
AcDbBlockEnd
  0
BLOCK
  5
E2
330
E1
100
AcDbEntity
  8
0
100
AcDbBlockBegin
  2
SW_BLOCK_DIMENSION_10
 70
     0
 10
0.0
 20
0.0
 30
0.0
  3
SW_BLOCK_DIMENSION_10
  1

  0
SOLID
  5
E4
330
E1
100
AcDbEntity
  8
EBENE_1
 62
     0
100
AcDbTrace
 10
-1.5805038061
 20
2.3665509652
 30
0.0
 11
-2.0546549479
 21
-0.7154314566
 31
0.0
 12
-1.1063526643
 22
-0.7154314566
 32
0.0
 13
-1.1063526643
 23
-0.7154314566
 33
0.0
  0
LINE
  5
E5
330
E1
100
AcDbEntity
  8
EBENE_1
 62
     0
100
AcDbLine
 10
-10.3062660664
 20
2.3665509652
 30
0.0
 11
0.0
 21
2.3665509652
 31
0.0
  0
LINE
  5
E6
330
E1
100
AcDbEntity
  8
EBENE_1
 62
     0
100
AcDbLine
 10
-1.5805038061
 20
-7.6334490348
 30
0.0
 11
-1.5805038061
 21
2.3665509652
 31
0.0
  0
MTEXT
  5
E7
330
E1
100
AcDbEntity
  8
EBENE_1
 62
     0
100
AcDbMText
 10
0.0
 20
4.0927900738
 30
0.0
 40
3.175
 41
0.0
 71
     1
 72
     1
  1
100
  7
SLDTEXTSTYLE0
 73
     1
 44
1.0
  0
ENDBLK
  5
E3
330
E1
100
AcDbEntity
  8
0
100
AcDbBlockEnd
  0
BLOCK
  5
EA
330
E9
100
AcDbEntity
  8
0
100
AcDbBlockBegin
  2
SW_BLOCK_DIMENSION_11
 70
     0
 10
0.0
 20
0.0
 30
0.0
  3
SW_BLOCK_DIMENSION_11
  1

  0
SOLID
  5
EC
330
E9
100
AcDbEntity
  8
EBENE_1
 62
     0
100
AcDbTrace
 10
-1.5805038061
 20
2.3665509652
 30
0.0
 11
-2.0546549479
 21
-0.7154314566
 31
0.0
 12
-1.1063526643
 22
-0.7154314566
 32
0.0
 13
-1.1063526643
 23
-0.7154314566
 33
0.0
  0
LINE
  5
ED
330
E9
100
AcDbEntity
  8
EBENE_1
 62
     0
100
AcDbLine
 10
-10.3062660664
 20
2.3665509652
 30
0.0
 11
0.0
 21
2.3665509652
 31
0.0
  0
LINE
  5
EE
330
E9
100
AcDbEntity
  8
EBENE_1
 62
     0
100
AcDbLine
 10
-1.5805038061
 20
-7.6334490348
 30
0.0
 11
-1.5805038061
 21
2.3665509652
 31
0.0
  0
MTEXT
  5
EF
330
E9
100
AcDbEntity
  8
EBENE_1
 62
     0
100
AcDbMText
 10
0.0
 20
4.0927900738
 30
0.0
 40
3.175
 41
0.0
 71
     1
 72
     1
  1
110
  7
SLDTEXTSTYLE0
 73
     1
 44
1.0
  0
ENDBLK
  5
EB
330
E9
100
AcDbEntity
  8
0
100
AcDbBlockEnd
  0
BLOCK
  5
F2
330
F1
100
AcDbEntity
  8
0
100
AcDbBlockBegin
  2
SW_BLOCK_DIMENSION_12
 70
     0
 10
0.0
 20
0.0
 30
0.0
  3
SW_BLOCK_DIMENSION_12
  1

  0
SOLID
  5
F4
330
F1
100
AcDbEntity
  8
EBENE_1
 62
     0
100
AcDbTrace
 10
-1.5805038061
 20
2.3665509652
 30
0.0
 11
-2.0546549479
 21
-0.7154314566
 31
0.0
 12
-1.1063526643
 22
-0.7154314566
 32
0.0
 13
-1.1063526643
 23
-0.7154314566
 33
0.0
  0
LINE
  5
F5
330
F1
100
AcDbEntity
  8
EBENE_1
 62
     0
100
AcDbLine
 10
-10.3062660664
 20
2.3665509652
 30
0.0
 11
0.0
 21
2.3665509652
 31
0.0
  0
LINE
  5
F6
330
F1
100
AcDbEntity
  8
EBENE_1
 62
     0
100
AcDbLine
 10
-1.5805038061
 20
-7.6334490348
 30
0.0
 11
-1.5805038061
 21
2.3665509652
 31
0.0
  0
MTEXT
  5
F7
330
F1
100
AcDbEntity
  8
EBENE_1
 62
     0
100
AcDbMText
 10
0.0
 20
4.0927900738
 30
0.0
 40
3.175
 41
0.0
 71
     1
 72
     1
  1
120
  7
SLDTEXTSTYLE0
 73
     1
 44
1.0
  0
ENDBLK
  5
F3
330
F1
100
AcDbEntity
  8
0
100
AcDbBlockEnd
  0
BLOCK
  5
FA
330
F9
100
AcDbEntity
  8
0
100
AcDbBlockBegin
  2
SW_BLOCK_DIMENSION_13
 70
     0
 10
0.0
 20
0.0
 30
0.0
  3
SW_BLOCK_DIMENSION_13
  1

  0
SOLID
  5
FC
330
F9
100
AcDbEntity
  8
EBENE_1
 62
     0
100
AcDbTrace
 10
-1.5805038061
 20
2.3665509652
 30
0.0
 11
-2.0546549479
 21
-0.7154314566
 31
0.0
 12
-1.1063526643
 22
-0.7154314566
 32
0.0
 13
-1.1063526643
 23
-0.7154314566
 33
0.0
  0
LINE
  5
FD
330
F9
100
AcDbEntity
  8
EBENE_1
 62
     0
100
AcDbLine
 10
-10.3062660664
 20
2.3665509652
 30
0.0
 11
0.0
 21
2.3665509652
 31
0.0
  0
LINE
  5
FE
330
F9
100
AcDbEntity
  8
EBENE_1
 62
     0
100
AcDbLine
 10
-1.5805038061
 20
-7.6334490348
 30
0.0
 11
-1.5805038061
 21
2.3665509652
 31
0.0
  0
MTEXT
  5
FF
330
F9
100
AcDbEntity
  8
EBENE_1
 62
     0
100
AcDbMText
 10
0.0
 20
4.0927900738
 30
0.0
 40
3.175
 41
0.0
 71
     1
 72
     1
  1
130
  7
SLDTEXTSTYLE0
 73
     1
 44
1.0
  0
ENDBLK
  5
FB
330
F9
100
AcDbEntity
  8
0
100
AcDbBlockEnd
  0
BLOCK
  5
102
330
101
100
AcDbEntity
  8
0
100
AcDbBlockBegin
  2
SW_BLOCK_DIMENSION_14
 70
     0
 10
0.0
 20
0.0
 30
0.0
  3
SW_BLOCK_DIMENSION_14
  1

  0
INSERT
  5
104
330
101
100
AcDbEntity
  8
EBENE_1
 62
     0
100
AcDbBlockReference
  2
_ORIGIN
 10
16.3971707594
 20
5.1887726877
 30
0.0
 41
0.9483022837
 42
0.9483022837
 50
0.0
  0
LINE
  5
105
330
101
100
AcDbEntity
  8
EBENE_1
 62
     0
100
AcDbLine
 10
3.2925925916
 20
9.671990294
 30
0.0
 11
2.2342592711
 21
9.671990294
 31
0.0
  0
LINE
  5
106
330
101
100
AcDbEntity
  8
EBENE_1
 62
     0
100
AcDbLine
 10
2.2342592711
 20
9.671990294
 30
0.0
 11
2.2342592711
 21
4.9388883635
 31
0.0
  0
LINE
  5
107
330
101
100
AcDbEntity
  8
EBENE_1
 62
     0
100
AcDbLine
 10
2.2342592711
 20
4.9388883635
 30
0.0
 11
3.2925925916
 21
4.9388883635
 31
0.0
  0
LINE
  5
108
330
101
100
AcDbEntity
  8
EBENE_1
 62
     0
100
AcDbLine
 10
11.5240741288
 20
9.671990294
 30
0.0
 11
12.5824074494
 21
9.671990294
 31
0.0
  0
LINE
  5
109
330
101
100
AcDbEntity
  8
EBENE_1
 62
     0
100
AcDbLine
 10
12.5824074494
 20
9.671990294
 30
0.0
 11
12.5824074494
 21
4.9388883635
 31
0.0
  0
LINE
  5
10A
330
101
100
AcDbEntity
  8
EBENE_1
 62
     0
100
AcDbLine
 10
12.5824074494
 20
4.9388883635
 30
0.0
 11
11.5240741288
 21
4.9388883635
 31
0.0
  0
LINE
  5
10B
330
101
100
AcDbEntity
  8
EBENE_1
 62
     0
100
AcDbLine
 10
24.38463321
 20
5.1887726877
 30
0.0
 11
14.8166669533
 21
5.1887726877
 31
0.0
  0
MTEXT
  5
10C
330
101
100
AcDbEntity
  8
EBENE_1
 62
     0
100
AcDbMText
 10
1.190625
 20
4.0927900738
 30
0.0
 40
3.175
 41
0.0
 71
     1
 72
     1
  1

  7
SLDTEXTSTYLE0
 73
     1
 44
1.0
  0
MTEXT
  5
10D
330
101
100
AcDbEntity
  8
EBENE_1
 62
     0
100
AcDbMText
 10
3.2925925916
 20
9.0316784373
 30
0.0
 40
3.175
 41
0.0
 71
     1
 72
     1
  1
0,00
  7
SLDTEXTSTYLE0
 73
     1
 44
1.0
  0
MTEXT
  5
10E
330
101
100
AcDbEntity
  8
EBENE_1
 62
     0
100
AcDbMText
 10
6.2324074097
 20
4.0927898409
 30
0.0
 40
3.175
 41
0.0
 71
     1
 72
     1
  1
0
  7
SLDTEXTSTYLE0
 73
     1
 44
1.0
  0
MTEXT
  5
10F
330
101
100
AcDbEntity
  8
EBENE_1
 62
     0
100
AcDbMText
 10
14.8313658863
 20
4.0927900738
 30
0.0
 40
3.175
 41
0.0
 71
     1
 72
     1
  1

  7
SLDTEXTSTYLE0
 73
     1
 44
1.0
  0
ENDBLK
  5
103
330
101
100
AcDbEntity
  8
0
100
AcDbBlockEnd
  0
BLOCK
  5
112
330
111
100
AcDbEntity
  8
0
100
AcDbBlockBegin
  2
SW_BLOCK_DIMENSION_15
 70
     0
 10
0.0
 20
0.0
 30
0.0
  3
SW_BLOCK_DIMENSION_15
  1

  0
SOLID
  5
114
330
111
100
AcDbEntity
  8
EBENE_1
 62
     0
100
AcDbTrace
 10
16.3971707594
 20
5.1887726877
 30
0.0
 11
15.9230196175
 21
2.1067902658
 31
0.0
 12
16.8713219012
 22
2.1067902658
 32
0.0
 13
16.8713219012
 23
2.1067902658
 33
0.0
  0
LINE
  5
115
330
111
100
AcDbEntity
  8
EBENE_1
 62
     0
100
AcDbLine
 10
3.2925925916
 20
9.671990294
 30
0.0
 11
2.2342592711
 21
9.671990294
 31
0.0
  0
LINE
  5
116
330
111
100
AcDbEntity
  8
EBENE_1
 62
     0
100
AcDbLine
 10
2.2342592711
 20
9.671990294
 30
0.0
 11
2.2342592711
 21
4.9388883635
 31
0.0
  0
LINE
  5
117
330
111
100
AcDbEntity
  8
EBENE_1
 62
     0
100
AcDbLine
 10
2.2342592711
 20
4.9388883635
 30
0.0
 11
3.2925925916
 21
4.9388883635
 31
0.0
  0
LINE
  5
118
330
111
100
AcDbEntity
  8
EBENE_1
 62
     0
100
AcDbLine
 10
11.5240741288
 20
9.671990294
 30
0.0
 11
12.5824074494
 21
9.671990294
 31
0.0
  0
LINE
  5
119
330
111
100
AcDbEntity
  8
EBENE_1
 62
     0
100
AcDbLine
 10
12.5824074494
 20
9.671990294
 30
0.0
 11
12.5824074494
 21
4.9388883635
 31
0.0
  0
LINE
  5
11A
330
111
100
AcDbEntity
  8
EBENE_1
 62
     0
100
AcDbLine
 10
12.5824074494
 20
4.9388883635
 30
0.0
 11
11.5240741288
 21
4.9388883635
 31
0.0
  0
LINE
  5
11B
330
111
100
AcDbEntity
  8
EBENE_1
 62
     0
100
AcDbLine
 10
23.60463321
 20
5.1887726877
 30
0.0
 11
14.8166669533
 21
5.1887726877
 31
0.0
  0
LINE
  5
11C
330
111
100
AcDbEntity
  8
EBENE_1
 62
     0
100
AcDbLine
 10
16.3971707594
 20
-20.2112273123
 30
0.0
 11
16.3971707594
 21
5.1887726877
 31
0.0
  0
MTEXT
  5
11D
330
111
100
AcDbEntity
  8
EBENE_1
 62
     0
100
AcDbMText
 10
1.190625
 20
4.0927900738
 30
0.0
 40
3.175
 41
0.0
 71
     1
 72
     1
  1

  7
SLDTEXTSTYLE0
 73
     1
 44
1.0
  0
MTEXT
  5
11E
330
111
100
AcDbEntity
  8
EBENE_1
 62
     0
100
AcDbMText
 10
3.2925925916
 20
9.0316784373
 30
0.0
 40
3.175
 41
0.0
 71
     1
 72
     1
  1
1,00
  7
SLDTEXTSTYLE0
 73
     1
 44
1.0
  0
MTEXT
  5
11F
330
111
100
AcDbEntity
  8
EBENE_1
 62
     0
100
AcDbMText
 10
2.1166665247
 20
4.0927898409
 30
0.0
 40
3.175
 41
0.0
 71
     1
 72
     1
  1
25,40
  7
SLDTEXTSTYLE0
 73
     1
 44
1.0
  0
MTEXT
  5
120
330
111
100
AcDbEntity
  8
EBENE_1
 62
     0
100
AcDbMText
 10
14.8313658863
 20
4.0927900738
 30
0.0
 40
3.175
 41
0.0
 71
     1
 72
     1
  1

  7
SLDTEXTSTYLE0
 73
     1
 44
1.0
  0
ENDBLK
  5
113
330
111
100
AcDbEntity
  8
0
100
AcDbBlockEnd
  0
BLOCK
  5
123
330
122
100
AcDbEntity
  8
0
100
AcDbBlockBegin
  2
SW_BLOCK_DIMENSION_16
 70
     0
 10
0.0
 20
0.0
 30
0.0
  3
SW_BLOCK_DIMENSION_16
  1

  0
SOLID
  5
125
330
122
100
AcDbEntity
  8
EBENE_1
 62
     0
100
AcDbTrace
 10
16.3971707594
 20
5.1887726877
 30
0.0
 11
15.9230196175
 21
2.1067902658
 31
0.0
 12
16.8713219012
 22
2.1067902658
 32
0.0
 13
16.8713219012
 23
2.1067902658
 33
0.0
  0
LINE
  5
126
330
122
100
AcDbEntity
  8
EBENE_1
 62
     0
100
AcDbLine
 10
3.2925925916
 20
9.671990294
 30
0.0
 11
2.2342592711
 21
9.671990294
 31
0.0
  0
LINE
  5
127
330
122
100
AcDbEntity
  8
EBENE_1
 62
     0
100
AcDbLine
 10
2.2342592711
 20
9.671990294
 30
0.0
 11
2.2342592711
 21
4.9388883635
 31
0.0
  0
LINE
  5
128
330
122
100
AcDbEntity
  8
EBENE_1
 62
     0
100
AcDbLine
 10
2.2342592711
 20
4.9388883635
 30
0.0
 11
3.2925925916
 21
4.9388883635
 31
0.0
  0
LINE
  5
129
330
122
100
AcDbEntity
  8
EBENE_1
 62
     0
100
AcDbLine
 10
11.5240741288
 20
9.671990294
 30
0.0
 11
12.5824074494
 21
9.671990294
 31
0.0
  0
LINE
  5
12A
330
122
100
AcDbEntity
  8
EBENE_1
 62
     0
100
AcDbLine
 10
12.5824074494
 20
9.671990294
 30
0.0
 11
12.5824074494
 21
4.9388883635
 31
0.0
  0
LINE
  5
12B
330
122
100
AcDbEntity
  8
EBENE_1
 62
     0
100
AcDbLine
 10
12.5824074494
 20
4.9388883635
 30
0.0
 11
11.5240741288
 21
4.9388883635
 31
0.0
  0
LINE
  5
12C
330
122
100
AcDbEntity
  8
EBENE_1
 62
     0
100
AcDbLine
 10
23.60463321
 20
5.1887726877
 30
0.0
 11
14.8166669533
 21
5.1887726877
 31
0.0
  0
LINE
  5
12D
330
122
100
AcDbEntity
  8
EBENE_1
 62
     0
100
AcDbLine
 10
16.3971707594
 20
-20.2112273123
 30
0.0
 11
16.3971707594
 21
5.1887726877
 31
0.0
  0
MTEXT
  5
12E
330
122
100
AcDbEntity
  8
EBENE_1
 62
     0
100
AcDbMText
 10
1.190625
 20
4.0927900738
 30
0.0
 40
3.175
 41
0.0
 71
     1
 72
     1
  1

  7
SLDTEXTSTYLE0
 73
     1
 44
1.0
  0
MTEXT
  5
12F
330
122
100
AcDbEntity
  8
EBENE_1
 62
     0
100
AcDbMText
 10
3.2925925916
 20
9.0316784373
 30
0.0
 40
3.175
 41
0.0
 71
     1
 72
     1
  1
2,00
  7
SLDTEXTSTYLE0
 73
     1
 44
1.0
  0
MTEXT
  5
130
330
122
100
AcDbEntity
  8
EBENE_1
 62
     0
100
AcDbMText
 10
2.1166665247
 20
4.0927898409
 30
0.0
 40
3.175
 41
0.0
 71
     1
 72
     1
  1
50,80
  7
SLDTEXTSTYLE0
 73
     1
 44
1.0
  0
MTEXT
  5
131
330
122
100
AcDbEntity
  8
EBENE_1
 62
     0
100
AcDbMText
 10
14.8313658863
 20
4.0927900738
 30
0.0
 40
3.175
 41
0.0
 71
     1
 72
     1
  1

  7
SLDTEXTSTYLE0
 73
     1
 44
1.0
  0
ENDBLK
  5
124
330
122
100
AcDbEntity
  8
0
100
AcDbBlockEnd
  0
BLOCK
  5
134
330
133
100
AcDbEntity
  8
0
100
AcDbBlockBegin
  2
SW_BLOCK_DIMENSION_17
 70
     0
 10
0.0
 20
0.0
 30
0.0
  3
SW_BLOCK_DIMENSION_17
  1

  0
SOLID
  5
136
330
133
100
AcDbEntity
  8
EBENE_1
 62
     0
100
AcDbTrace
 10
16.3971707594
 20
5.1887726877
 30
0.0
 11
15.9230196175
 21
2.1067902658
 31
0.0
 12
16.8713219012
 22
2.1067902658
 32
0.0
 13
16.8713219012
 23
2.1067902658
 33
0.0
  0
LINE
  5
137
330
133
100
AcDbEntity
  8
EBENE_1
 62
     0
100
AcDbLine
 10
3.2925925916
 20
9.671990294
 30
0.0
 11
2.2342592711
 21
9.671990294
 31
0.0
  0
LINE
  5
138
330
133
100
AcDbEntity
  8
EBENE_1
 62
     0
100
AcDbLine
 10
2.2342592711
 20
9.671990294
 30
0.0
 11
2.2342592711
 21
4.9388883635
 31
0.0
  0
LINE
  5
139
330
133
100
AcDbEntity
  8
EBENE_1
 62
     0
100
AcDbLine
 10
2.2342592711
 20
4.9388883635
 30
0.0
 11
3.2925925916
 21
4.9388883635
 31
0.0
  0
LINE
  5
13A
330
133
100
AcDbEntity
  8
EBENE_1
 62
     0
100
AcDbLine
 10
11.5240741288
 20
9.671990294
 30
0.0
 11
12.5824074494
 21
9.671990294
 31
0.0
  0
LINE
  5
13B
330
133
100
AcDbEntity
  8
EBENE_1
 62
     0
100
AcDbLine
 10
12.5824074494
 20
9.671990294
 30
0.0
 11
12.5824074494
 21
4.9388883635
 31
0.0
  0
LINE
  5
13C
330
133
100
AcDbEntity
  8
EBENE_1
 62
     0
100
AcDbLine
 10
12.5824074494
 20
4.9388883635
 30
0.0
 11
11.5240741288
 21
4.9388883635
 31
0.0
  0
LINE
  5
13D
330
133
100
AcDbEntity
  8
EBENE_1
 62
     0
100
AcDbLine
 10
23.60463321
 20
5.1887726877
 30
0.0
 11
14.8166669533
 21
5.1887726877
 31
0.0
  0
LINE
  5
13E
330
133
100
AcDbEntity
  8
EBENE_1
 62
     0
100
AcDbLine
 10
16.3971707594
 20
-20.2112273123
 30
0.0
 11
16.3971707594
 21
5.1887726877
 31
0.0
  0
MTEXT
  5
13F
330
133
100
AcDbEntity
  8
EBENE_1
 62
     0
100
AcDbMText
 10
1.190625
 20
4.0927900738
 30
0.0
 40
3.175
 41
0.0
 71
     1
 72
     1
  1

  7
SLDTEXTSTYLE0
 73
     1
 44
1.0
  0
MTEXT
  5
140
330
133
100
AcDbEntity
  8
EBENE_1
 62
     0
100
AcDbMText
 10
3.2925925916
 20
9.0316784373
 30
0.0
 40
3.175
 41
0.0
 71
     1
 72
     1
  1
3,00
  7
SLDTEXTSTYLE0
 73
     1
 44
1.0
  0
MTEXT
  5
141
330
133
100
AcDbEntity
  8
EBENE_1
 62
     0
100
AcDbMText
 10
2.1166665247
 20
4.0927898409
 30
0.0
 40
3.175
 41
0.0
 71
     1
 72
     1
  1
76,20
  7
SLDTEXTSTYLE0
 73
     1
 44
1.0
  0
MTEXT
  5
142
330
133
100
AcDbEntity
  8
EBENE_1
 62
     0
100
AcDbMText
 10
14.8313658863
 20
4.0927900738
 30
0.0
 40
3.175
 41
0.0
 71
     1
 72
     1
  1

  7
SLDTEXTSTYLE0
 73
     1
 44
1.0
  0
ENDBLK
  5
135
330
133
100
AcDbEntity
  8
0
100
AcDbBlockEnd
  0
BLOCK
  5
145
330
144
100
AcDbEntity
  8
0
100
AcDbBlockBegin
  2
SW_BLOCK_DIMENSION_18
 70
     0
 10
0.0
 20
0.0
 30
0.0
  3
SW_BLOCK_DIMENSION_18
  1

  0
SOLID
  5
147
330
144
100
AcDbEntity
  8
EBENE_1
 62
     0
100
AcDbTrace
 10
16.8675417449
 20
5.1887726877
 30
0.0
 11
16.3933906031
 21
2.1067902658
 31
0.0
 12
17.3416928867
 22
2.1067902658
 32
0.0
 13
17.3416928867
 23
2.1067902658
 33
0.0
  0
LINE
  5
148
330
144
100
AcDbEntity
  8
EBENE_1
 62
     0
100
AcDbLine
 10
3.5277780844
 20
9.671990294
 30
0.0
 11
2.4694447638
 21
9.671990294
 31
0.0
  0
LINE
  5
149
330
144
100
AcDbEntity
  8
EBENE_1
 62
     0
100
AcDbLine
 10
2.4694447638
 20
9.671990294
 30
0.0
 11
2.4694447638
 21
4.9388883635
 31
0.0
  0
LINE
  5
14A
330
144
100
AcDbEntity
  8
EBENE_1
 62
     0
100
AcDbLine
 10
2.4694447638
 20
4.9388883635
 30
0.0
 11
3.5277780844
 21
4.9388883635
 31
0.0
  0
LINE
  5
14B
330
144
100
AcDbEntity
  8
EBENE_1
 62
     0
100
AcDbLine
 10
11.7592596216
 20
9.671990294
 30
0.0
 11
12.8175929422
 21
9.671990294
 31
0.0
  0
LINE
  5
14C
330
144
100
AcDbEntity
  8
EBENE_1
 62
     0
100
AcDbLine
 10
12.8175929422
 20
9.671990294
 30
0.0
 11
12.8175929422
 21
4.9388883635
 31
0.0
  0
LINE
  5
14D
330
144
100
AcDbEntity
  8
EBENE_1
 62
     0
100
AcDbLine
 10
12.8175929422
 20
4.9388883635
 30
0.0
 11
11.7592596216
 21
4.9388883635
 31
0.0
  0
LINE
  5
14E
330
144
100
AcDbEntity
  8
EBENE_1
 62
     0
100
AcDbLine
 10
24.0750041956
 20
5.1887726877
 30
0.0
 11
15.2870379388
 21
5.1887726877
 31
0.0
  0
LINE
  5
14F
330
144
100
AcDbEntity
  8
EBENE_1
 62
     0
100
AcDbLine
 10
16.8675417449
 20
-20.2112273123
 30
0.0
 11
16.8675417449
 21
5.1887726877
 31
0.0
  0
MTEXT
  5
150
330
144
100
AcDbEntity
  8
EBENE_1
 62
     0
100
AcDbMText
 10
1.190625
 20
4.0927900738
 30
0.0
 40
3.175
 41
0.0
 71
     1
 72
     1
  1

  7
SLDTEXTSTYLE0
 73
     1
 44
1.0
  0
MTEXT
  5
151
330
144
100
AcDbEntity
  8
EBENE_1
 62
     0
100
AcDbMText
 10
3.5277780844
 20
9.0316784373
 30
0.0
 40
3.175
 41
0.0
 71
     1
 72
     1
  1
4,00
  7
SLDTEXTSTYLE0
 73
     1
 44
1.0
  0
MTEXT
  5
152
330
144
100
AcDbEntity
  8
EBENE_1
 62
     0
100
AcDbMText
 10
1.1759259505
 20
4.0927898409
 30
0.0
 40
3.175
 41
0.0
 71
     1
 72
     1
  1
101,60
  7
SLDTEXTSTYLE0
 73
     1
 44
1.0
  0
MTEXT
  5
153
330
144
100
AcDbEntity
  8
EBENE_1
 62
     0
100
AcDbMText
 10
15.3017368719
 20
4.0927900738
 30
0.0
 40
3.175
 41
0.0
 71
     1
 72
     1
  1

  7
SLDTEXTSTYLE0
 73
     1
 44
1.0
  0
ENDBLK
  5
146
330
144
100
AcDbEntity
  8
0
100
AcDbBlockEnd
  0
BLOCK
  5
156
330
155
100
AcDbEntity
  8
0
100
AcDbBlockBegin
  2
SW_BLOCK_DIMENSION_19
 70
     0
 10
0.0
 20
0.0
 30
0.0
  3
SW_BLOCK_DIMENSION_19
  1

  0
SOLID
  5
158
330
155
100
AcDbEntity
  8
EBENE_1
 62
     0
100
AcDbTrace
 10
16.3971707594
 20
5.1887726877
 30
0.0
 11
15.9230196175
 21
2.1067902658
 31
0.0
 12
16.8713219012
 22
2.1067902658
 32
0.0
 13
16.8713219012
 23
2.1067902658
 33
0.0
  0
LINE
  5
159
330
155
100
AcDbEntity
  8
EBENE_1
 62
     0
100
AcDbLine
 10
3.2925925916
 20
9.671990294
 30
0.0
 11
2.2342592711
 21
9.671990294
 31
0.0
  0
LINE
  5
15A
330
155
100
AcDbEntity
  8
EBENE_1
 62
     0
100
AcDbLine
 10
2.2342592711
 20
9.671990294
 30
0.0
 11
2.2342592711
 21
4.9388883635
 31
0.0
  0
LINE
  5
15B
330
155
100
AcDbEntity
  8
EBENE_1
 62
     0
100
AcDbLine
 10
2.2342592711
 20
4.9388883635
 30
0.0
 11
3.2925925916
 21
4.9388883635
 31
0.0
  0
LINE
  5
15C
330
155
100
AcDbEntity
  8
EBENE_1
 62
     0
100
AcDbLine
 10
11.5240741288
 20
9.671990294
 30
0.0
 11
12.5824074494
 21
9.671990294
 31
0.0
  0
LINE
  5
15D
330
155
100
AcDbEntity
  8
EBENE_1
 62
     0
100
AcDbLine
 10
12.5824074494
 20
9.671990294
 30
0.0
 11
12.5824074494
 21
4.9388883635
 31
0.0
  0
LINE
  5
15E
330
155
100
AcDbEntity
  8
EBENE_1
 62
     0
100
AcDbLine
 10
12.5824074494
 20
4.9388883635
 30
0.0
 11
11.5240741288
 21
4.9388883635
 31
0.0
  0
LINE
  5
15F
330
155
100
AcDbEntity
  8
EBENE_1
 62
     0
100
AcDbLine
 10
23.60463321
 20
5.1887726877
 30
0.0
 11
14.8166669533
 21
5.1887726877
 31
0.0
  0
LINE
  5
160
330
155
100
AcDbEntity
  8
EBENE_1
 62
     0
100
AcDbLine
 10
16.3971707594
 20
-20.2112273123
 30
0.0
 11
16.3971707594
 21
5.1887726877
 31
0.0
  0
MTEXT
  5
161
330
155
100
AcDbEntity
  8
EBENE_1
 62
     0
100
AcDbMText
 10
1.190625
 20
4.0927900738
 30
0.0
 40
3.175
 41
0.0
 71
     1
 72
     1
  1

  7
SLDTEXTSTYLE0
 73
     1
 44
1.0
  0
MTEXT
  5
162
330
155
100
AcDbEntity
  8
EBENE_1
 62
     0
100
AcDbMText
 10
3.2925925916
 20
9.0316784373
 30
0.0
 40
3.175
 41
0.0
 71
     1
 72
     1
  1
5,00
  7
SLDTEXTSTYLE0
 73
     1
 44
1.0
  0
MTEXT
  5
163
330
155
100
AcDbEntity
  8
EBENE_1
 62
     0
100
AcDbMText
 10
3.8805556251
 20
4.0927898409
 30
0.0
 40
3.175
 41
0.0
 71
     1
 72
     1
  1
127
  7
SLDTEXTSTYLE0
 73
     1
 44
1.0
  0
MTEXT
  5
164
330
155
100
AcDbEntity
  8
EBENE_1
 62
     0
100
AcDbMText
 10
14.8313658863
 20
4.0927900738
 30
0.0
 40
3.175
 41
0.0
 71
     1
 72
     1
  1

  7
SLDTEXTSTYLE0
 73
     1
 44
1.0
  0
ENDBLK
  5
157
330
155
100
AcDbEntity
  8
0
100
AcDbBlockEnd
  0
BLOCK
  5
167
330
166
100
AcDbEntity
  8
0
100
AcDbBlockBegin
  2
SW_NOTE_0
 70
     0
 10
0.0
 20
0.0
 30
0.0
  3
SW_NOTE_0
  1

  0
MTEXT
  5
169
330
166
100
AcDbEntity
  8
EBENE_1
 62
     0
100
AcDbMText
 10
6.7138020833
 20
4.7749217527
 30
0.0
 40
3.7041666667
 41
0.0
 71
     2
 72
     1
  1
(Inch)
  7
SLDTEXTSTYLE0
 73
     1
 44
1.0
  0
MTEXT
  5
16A
330
166
100
AcDbEntity
  8
EBENE_1
 62
     0
100
AcDbMText
 10
6.7309508326
 20
-1.1639672404
 30
0.0
 40
3.7041666667
 41
0.0
 71
     2
 72
     1
  1
mm
  7
SLDTEXTSTYLE0
 73
     1
 44
1.0
  0
ENDBLK
  5
168
330
166
100
AcDbEntity
  8
0
100
AcDbBlockEnd
  0
BLOCK
  5
172
330
171
100
AcDbEntity
  8
0
100
AcDbBlockBegin
  2
SW_NOTE_1
 70
     0
 10
0.0
 20
0.0
 30
0.0
  3
SW_NOTE_1
  1

  0
MTEXT
  5
174
330
171
100
AcDbEntity
  8
0
  6
Continuous
 62
     0
370
     0
100
AcDbMText
 10
19.893359375
 20
4.0927900738
 30
0.0
 40
3.175
 41
0.0
 71
     2
 72
     1
  1
ABP-Beyerle GmbH
  7
SLDTEXTSTYLE0
 73
     1
 44
1.0
  0
MTEXT
  5
175
330
171
100
AcDbEntity
  8
0
  6
Continuous
 62
     0
370
     0
100
AcDbMText
 10
20.6558884293
 20
-0.1405432084
 30
0.0
 40
3.175
 41
0.0
 71
     2
 72
     1
  1
Im Schollengarten 24b, 76646 Bruchsal
  7
SLDTEXTSTYLE0
 73
     1
 44
1.0
  0
MTEXT
  5
176
330
171
100
AcDbEntity
  8
0
  6
Continuous
 62
     0
370
     0
100
AcDbMText
 10
20.7863491923
 20
-4.3738764906
 30
0.0
 40
3.175
 41
0.0
 71
     2
 72
     1
  1
Tel. +49 (0)7251-9127-0, Fax. +49 (0)7251-9127-29
  7
SLDTEXTSTYLE0
 73
     1
 44
1.0
  0
MTEXT
  5
177
330
171
100
AcDbEntity
  8
0
  6
Continuous
 62
     0
370
     0
100
AcDbMText
 10
20.8392552227
 20
-8.6072097727
 30
0.0
 40
3.175
 41
0.0
 71
     2
 72
     1
  1
info@abp-beyerle.de, www.abp-beyerle.de
  7
SLDTEXTSTYLE0
 73
     1
 44
1.0
  0
ENDBLK
  5
173
330
171
100
AcDbEntity
  8
0
100
AcDbBlockEnd
  0
ENDSEC
  0
SECTION
  2
ENTITIES
  0
INSERT
  5
16D
330
1F
100
AcDbEntity
  8
EBENE_1
100
AcDbBlockReference
  2
Block1
 10
19.561342692
 20
-6.9223244521
 30
0.0
  0
MTEXT
  5
16F
330
1F
100
AcDbEntity
  8
0
  6
Continuous
 62
     7
370
     0
100
AcDbMText
 10
402.5
 20
14.7189135832
 30
0.0
 40
6.35
 41
0.0
 71
     1
 72
     1
  1
1:1
  7
SLDTEXTSTYLE1
 73
     1
 44
1.0
  0
MTEXT
  5
170
330
1F
100
AcDbEntity
  8
0
  6
Continuous
 62
     7
370
     0
100
AcDbMText
 10
168.4090458961
 20
14.7189131175
 30
0.0
 40
6.35
 41
0.0
 71
     1
 72
     1
  1
USO121DS-EF
  7
SLDTEXTSTYLE1
 73
     1
 44
1.0
  0
INSERT
  5
178
330
1F
100
AcDbEntity
  8
0
  6
Continuous
 62
     7
370
     0
100
AcDbBlockReference
  2
SW_NOTE_1
 10
35.4202146835
 20
20.1681939512
 30
0.0
  0
CIRCLE
  5
179
330
1F
100
AcDbEntity
  8
0
  6
Continuous
 62
     7
370
    15
100
AcDbCircle
 10
187.7749863646
 20
265.3573718656
 30
0.0
 40
14.99999999999994
  0
CIRCLE
  5
17A
330
1F
100
AcDbEntity
  8
0
  6
Continuous
 62
     7
370
    15
100
AcDbCircle
 10
187.7749863646
 20
265.3573718656
 30
0.0
 40
12.99999999999994
  0
CIRCLE
  5
17B
330
1F
100
AcDbEntity
  8
0
  6
Continuous
 62
     7
370
    15
100
AcDbCircle
 10
181.0249863646
 20
265.3573718656
 30
0.0
 40
1.250000000000057
  0
CIRCLE
  5
17C
330
1F
100
AcDbEntity
  8
0
  6
Continuous
 62
     7
370
    15
100
AcDbCircle
 10
187.7749863646
 20
258.6073718656
 30
0.0
 40
1.249999999999943
  0
CIRCLE
  5
17D
330
1F
100
AcDbEntity
  8
0
  6
Continuous
 62
     7
370
    15
100
AcDbCircle
 10
194.5249863646
 20
265.3573718656
 30
0.0
 40
1.25
  0
CIRCLE
  5
17E
330
1F
100
AcDbEntity
  8
0
  6
Continuous
 62
     7
370
    15
100
AcDbCircle
 10
187.7749863646
 20
272.1073718656
 30
0.0
 40
1.249999999999943
  0
CIRCLE
  5
17F
330
1F
100
AcDbEntity
  8
0
  6
Continuous
 62
     7
370
    15
100
AcDbCircle
 10
187.7749863646
 20
325.3573718656
 30
0.0
 40
15.0
  0
CIRCLE
  5
180
330
1F
100
AcDbEntity
  8
0
  6
Continuous
 62
     7
370
    15
100
AcDbCircle
 10
187.7749863646
 20
325.3573718656
 30
0.0
 40
13.0
  0
CIRCLE
  5
181
330
1F
100
AcDbEntity
  8
0
  6
Continuous
 62
     7
370
    15
100
AcDbCircle
 10
181.0249863646
 20
325.3573718656
 30
0.0
 40
1.25
  0
CIRCLE
  5
182
330
1F
100
AcDbEntity
  8
0
  6
Continuous
 62
     7
370
    15
100
AcDbCircle
 10
187.7749863646
 20
318.6073718656
 30
0.0
 40
1.25
  0
CIRCLE
  5
183
330
1F
100
AcDbEntity
  8
0
  6
Continuous
 62
     7
370
    15
100
AcDbCircle
 10
194.5249863646
 20
325.3573718656
 30
0.0
 40
1.25
  0
CIRCLE
  5
184
330
1F
100
AcDbEntity
  8
0
  6
Continuous
 62
     7
370
    15
100
AcDbCircle
 10
187.7749863646
 20
332.1073718656
 30
0.0
 40
1.249999999999943
  0
ARC
  5
185
330
1F
100
AcDbEntity
  8
0
  6
Continuous
 62
     7
370
    15
100
AcDbCircle
 10
187.7749863646
 20
325.3573718656
 30
0.0
 40
28.95
100
AcDbArc
 50
301.2072148381
 51
223.6746648299
  0
ARC
  5
186
330
1F
100
AcDbEntity
  8
0
  6
Continuous
 62
     7
370
    15
100
AcDbCircle
 10
187.7749863646
 20
325.3573718656
 30
0.0
 40
28.95
100
AcDbArc
 50
223.6746648299
 51
238.7927851619
  0
ARC
  5
187
330
1F
100
AcDbEntity
  8
0
  6
Continuous
 62
     7
370
    15
100
AcDbCircle
 10
187.7749863646
 20
325.3573718656
 30
0.0
 40
28.99999999999998
100
AcDbArc
 50
301.1473899215
 51
219.6984741355
  0
ARC
  5
188
330
1F
100
AcDbEntity
  8
0
  6
Continuous
 62
     7
370
    15
100
AcDbCircle
 10
187.7749863646
 20
325.3573718656
 30
0.0
 40
28.99999999999999
100
AcDbArc
 50
219.6984741355
 51
238.8526100785
  0
CIRCLE
  5
189
330
1F
100
AcDbEntity
  8
0
  6
Continuous
 62
     7
370
    15
100
AcDbCircle
 10
187.8249863646
 20
195.3573897227
 30
0.0
 40
14.99999999999999
  0
CIRCLE
  5
18A
330
1F
100
AcDbEntity
  8
0
  6
Continuous
 62
     7
370
    15
100
AcDbCircle
 10
187.8249863646
 20
195.3573897227
 30
0.0
 40
13.0
  0
CIRCLE
  5
18B
330
1F
100
AcDbEntity
  8
0
  6
Continuous
 62
     7
370
    15
100
AcDbCircle
 10
186.329535922
 20
201.9396482996
 30
0.0
 40
1.250000000000017
  0
CIRCLE
  5
18C
330
1F
100
AcDbEntity
  8
0
  6
Continuous
 62
     7
370
    15
100
AcDbCircle
 10
181.2427277877
 20
193.8619392801
 30
0.0
 40
1.24999999999999
  0
CIRCLE
  5
18D
330
1F
100
AcDbEntity
  8
0
  6
Continuous
 62
     7
370
    15
100
AcDbCircle
 10
189.3204368073
 20
188.7751311458
 30
0.0
 40
1.250000000000017
  0
CIRCLE
  5
18E
330
1F
100
AcDbEntity
  8
0
  6
Continuous
 62
     7
370
    15
100
AcDbCircle
 10
194.4072449416
 20
196.8528401653
 30
0.0
 40
1.249999999999968
  0
CIRCLE
  5
18F
330
1F
100
AcDbEntity
  8
0
  6
Continuous
 62
     7
370
    15
100
AcDbCircle
 10
187.8249863646
 20
140.3573897227
 30
0.0
 40
15.00000000000002
  0
CIRCLE
  5
190
330
1F
100
AcDbEntity
  8
0
  6
Continuous
 62
     7
370
    15
100
AcDbCircle
 10
187.8249863646
 20
140.3573897227
 30
0.0
 40
13.0
  0
CIRCLE
  5
191
330
1F
100
AcDbEntity
  8
0
  6
Continuous
 62
     7
370
    15
100
AcDbCircle
 10
186.2736115611
 20
146.9266922899
 30
0.0
 40
1.249999999999992
  0
CIRCLE
  5
192
330
1F
100
AcDbEntity
  8
0
  6
Continuous
 62
     7
370
    15
100
AcDbCircle
 10
181.2556837975
 20
138.8060149192
 30
0.0
 40
1.249999999999992
  0
CIRCLE
  5
193
330
1F
100
AcDbEntity
  8
0
  6
Continuous
 62
     7
370
    15
100
AcDbCircle
 10
189.3763611681
 20
133.7880871555
 30
0.0
 40
1.249999999999992
  0
CIRCLE
  5
194
330
1F
100
AcDbEntity
  8
0
  6
Continuous
 62
     7
370
    15
100
AcDbCircle
 10
194.3942889318
 20
141.9087645262
 30
0.0
 40
1.249999999999992
  0
LINE
  5
195
330
1F
100
AcDbEntity
  8
0
  6
Continuous
 62
     7
370
    15
100
AcDbLine
 10
202.7749863646
 20
325.3573674548
 30
0.0
 11
202.7749863646
 21
196.5811151851
 31
0.0
  0
LINE
  5
196
330
1F
100
AcDbEntity
  8
0
  6
Continuous
 62
     7
370
    15
100
AcDbLine
 10
202.7749863646
 20
194.1336665142
 30
0.0
 11
202.7749863646
 21
141.5811136205
 31
0.0
  0
LINE
  5
197
330
1F
100
AcDbEntity
  8
0
  6
Continuous
 62
     7
370
    15
100
AcDbLine
 10
202.7749863646
 20
139.1336658809
 30
0.0
 11
202.7749863646
 21
136.3573718656
 31
0.0
  0
ARC
  5
198
330
1F
100
AcDbEntity
  8
0
  6
Continuous
 62
     7
370
    15
100
AcDbCircle
 10
187.7749863646
 20
136.3573718656
 30
0.0
 40
15.00000000000003
100
AcDbArc
 50
180.0
 51
0.0
  0
LINE
  5
199
330
1F
100
AcDbEntity
  8
0
  6
Continuous
 62
     7
370
    15
100
AcDbLine
 10
172.7749870352
 20
136.3573718656
 30
0.0
 11
172.7749870352
 21
325.3573674548
 31
0.0
  0
LINE
  5
19A
330
1F
100
AcDbEntity
  8
0
  6
Continuous
 62
     7
370
    15
100
AcDbLine
 10
68.53072094
 20
257.3573712099
 30
0.0
 11
78.5307225792
 21
257.3573712099
 31
0.0
  0
LINE
  5
19B
330
1F
100
AcDbEntity
  8
0
  6
Continuous
 62
     7
370
    15
100
AcDbLine
 10
78.5307225792
 20
273.3573663819
 30
0.0
 11
68.53072094
 21
273.3573663819
 31
0.0
  0
ARC
  5
19C
330
1F
100
AcDbEntity
  8
0
  6
Continuous
 62
     7
370
    15
100
AcDbCircle
 10
78.5307207314
 20
272.3573718656
 30
0.0
 40
1.0
100
AcDbArc
 50
0.0
 51
90.0
  0
ARC
  5
19D
330
1F
100
AcDbEntity
  8
0
  6
Continuous
 62
     7
370
    15
100
AcDbCircle
 10
78.5307207314
 20
258.3573718656
 30
0.0
 40
1.0
100
AcDbArc
 50
270.0
 51
0.0
  0
ARC
  5
19E
330
1F
100
AcDbEntity
  8
0
  6
Continuous
 62
     7
370
    15
100
AcDbCircle
 10
68.5307207314
 20
272.3573718656
 30
0.0
 40
1.0
100
AcDbArc
 50
90.0
 51
180.0
  0
ARC
  5
19F
330
1F
100
AcDbEntity
  8
0
  6
Continuous
 62
     7
370
    15
100
AcDbCircle
 10
68.5307207314
 20
258.3573718656
 30
0.0
 40
1.0
100
AcDbArc
 50
180.0
 51
270.0
  0
LINE
  5
1A0
330
1F
100
AcDbEntity
  8
0
  6
Continuous
 62
     7
370
    15
100
AcDbLine
 10
57.0307209177
 20
260.2573681462
 30
0.0
 11
67.0307216255
 21
260.2573681462
 31
0.0
  0
LINE
  5
1A1
330
1F
100
AcDbEntity
  8
0
  6
Continuous
 62
     7
370
    15
100
AcDbLine
 10
67.0307216255
 20
270.4573768962
 30
0.0
 11
57.0307209177
 21
270.4573768962
 31
0.0
  0
LINE
  5
1A2
330
1F
100
AcDbEntity
  8
0
  6
Continuous
 62
     7
370
    15
100
AcDbLine
 10
50.5307207836
 20
257.3573712099
 30
0.0
 11
55.5307206718
 21
257.3573712099
 31
0.0
  0
LINE
  5
1A3
330
1F
100
AcDbEntity
  8
0
  6
Continuous
 62
     7
370
    15
100
AcDbLine
 10
55.5307206718
 20
273.3573663819
 30
0.0
 11
50.5307207836
 21
273.3573663819
 31
0.0
  0
ARC
  5
1A4
330
1F
100
AcDbEntity
  8
0
  6
Continuous
 62
     7
370
    15
100
AcDbCircle
 10
55.5307207314
 20
272.3573718656
 30
0.0
 40
1.0
100
AcDbArc
 50
0.0
 51
90.0
  0
ARC
  5
1A5
330
1F
100
AcDbEntity
  8
0
  6
Continuous
 62
     7
370
    15
100
AcDbCircle
 10
55.5307207314
 20
258.3573718656
 30
0.0
 40
1.0
100
AcDbArc
 50
270.0
 51
0.0
  0
ARC
  5
1A6
330
1F
100
AcDbEntity
  8
0
  6
Continuous
 62
     7
370
    15
100
AcDbCircle
 10
57.5307207314
 20
270.1073718656
 30
0.0
 40
1.0
100
AcDbArc
 50
180.0
 51
240.0
  0
ARC
  5
1A7
330
1F
100
AcDbEntity
  8
0
  6
Continuous
 62
     7
370
    15
100
AcDbCircle
 10
57.5307207314
 20
260.6073718656
 30
0.0
 40
1.0
100
AcDbArc
 50
120.0
 51
180.0
  0
LINE
  5
1A8
330
1F
100
AcDbEntity
  8
0
  6
Continuous
 62
     7
370
    15
100
AcDbLine
 10
67.5307207761
 20
269.1073763955
 30
0.0
 11
67.0307216255
 21
269.1073763955
 31
0.0
  0
LINE
  5
1A9
330
1F
100
AcDbEntity
  8
0
  6
Continuous
 62
     7
370
    15
100
AcDbLine
 10
67.0307216255
 20
261.6073686469
 30
0.0
 11
67.5307207761
 21
261.6073686469
 31
0.0
  0
LINE
  5
1AA
330
1F
100
AcDbEntity
  8
0
  6
Continuous
 62
     7
370
    15
100
AcDbLine
 10
42.5307206364
 20
250.3573719252
 30
0.0
 11
44.5307207314
 21
250.3573719252
 31
0.0
  0
LINE
  5
1AB
330
1F
100
AcDbEntity
  8
0
  6
Continuous
 62
     7
370
    15
100
AcDbLine
 10
44.5307207314
 20
280.3573656667
 30
0.0
 11
42.5307206364
 21
280.3573656667
 31
0.0
  0
LINE
  5
1AC
330
1F
100
AcDbEntity
  8
0
  6
Continuous
 62
     7
370
    15
100
AcDbLine
 10
42.5307206364
 20
280.3573656667
 30
0.0
 11
40.5307205414
 21
278.3573765147
 31
0.0
  0
LINE
  5
1AD
330
1F
100
AcDbEntity
  8
0
  6
Continuous
 62
     7
370
    15
100
AcDbLine
 10
40.5307205414
 20
252.3573685277
 30
0.0
 11
42.5307206364
 21
250.3573719252
 31
0.0
  0
LINE
  5
1AE
330
1F
100
AcDbEntity
  8
0
  6
Continuous
 62
     7
370
    15
100
AcDbLine
 10
92.5307211487
 20
180.3573902536
 30
0.0
 11
94.5307214765
 21
182.3573905814
 31
0.0
  0
LINE
  5
1AF
330
1F
100
AcDbEntity
  8
0
  6
Continuous
 62
     7
370
    15
100
AcDbLine
 10
94.5307214765
 20
208.3573911179
 30
0.0
 11
92.5307211487
 21
210.3573877204
 31
0.0
  0
LINE
  5
1B0
330
1F
100
AcDbEntity
  8
0
  6
Continuous
 62
     7
370
    15
100
AcDbLine
 10
92.5307211487
 20
210.3573877204
 30
0.0
 11
90.5307208208
 21
210.3573877204
 31
0.0
  0
LINE
  5
1B1
330
1F
100
AcDbEntity
  8
0
  6
Continuous
 62
     7
370
    15
100
AcDbLine
 10
90.5307208208
 20
180.3573902536
 30
0.0
 11
92.5307211487
 21
180.3573902536
 31
0.0
  0
LINE
  5
1B2
330
1F
100
AcDbEntity
  8
0
  6
Continuous
 62
     7
370
    15
100
AcDbLine
 10
90.5307208208
 20
200.3573898066
 30
0.0
 11
83.0307205228
 21
200.3573898066
 31
0.0
  0
LINE
  5
1B3
330
1F
100
AcDbEntity
  8
0
  6
Continuous
 62
     7
370
    15
100
AcDbLine
 10
83.0307205228
 20
190.3573881674
 30
0.0
 11
90.5307208208
 21
190.3573881674
 31
0.0
  0
LINE
  5
1B4
330
1F
100
AcDbEntity
  8
0
  6
Continuous
 62
     7
370
    15
100
AcDbLine
 10
92.5307211487
 20
125.3573896203
 30
0.0
 11
94.5307214765
 21
127.3573899481
 31
0.0
  0
LINE
  5
1B5
330
1F
100
AcDbEntity
  8
0
  6
Continuous
 62
     7
370
    15
100
AcDbLine
 10
94.5307214765
 20
153.3573895532
 30
0.0
 11
92.5307211487
 21
155.3573898811
 31
0.0
  0
LINE
  5
1B6
330
1F
100
AcDbEntity
  8
0
  6
Continuous
 62
     7
370
    15
100
AcDbLine
 10
92.5307211487
 20
155.3573898811
 30
0.0
 11
90.5307208208
 21
155.3573898811
 31
0.0
  0
LINE
  5
1B7
330
1F
100
AcDbEntity
  8
0
  6
Continuous
 62
     7
370
    15
100
AcDbLine
 10
90.5307208208
 20
125.3573896203
 30
0.0
 11
92.5307211487
 21
125.3573896203
 31
0.0
  0
LINE
  5
1B8
330
1F
100
AcDbEntity
  8
0
  6
Continuous
 62
     7
370
    15
100
AcDbLine
 10
90.5307208208
 20
145.3573901046
 30
0.0
 11
83.0307205228
 21
145.3573901046
 31
0.0
  0
LINE
  5
1B9
330
1F
100
AcDbEntity
  8
0
  6
Continuous
 62
     7
370
    15
100
AcDbLine
 10
83.0307205228
 20
135.357389746
 30
0.0
 11
90.5307208208
 21
135.357389746
 31
0.0
  0
LINE
  5
1BA
330
1F
100
AcDbEntity
  8
0
  6
Continuous
 62
     7
370
    15
100
AcDbLine
 10
42.5307206364
 20
310.3573668588
 30
0.0
 11
44.5307207314
 21
310.3573668588
 31
0.0
  0
LINE
  5
1BB
330
1F
100
AcDbEntity
  8
0
  6
Continuous
 62
     7
370
    15
100
AcDbLine
 10
44.5307207314
 20
340.3573680509
 30
0.0
 11
42.5307206364
 21
340.3573680509
 31
0.0
  0
LINE
  5
1BC
330
1F
100
AcDbEntity
  8
0
  6
Continuous
 62
     7
370
    15
100
AcDbLine
 10
42.5307206364
 20
340.3573680509
 30
0.0
 11
40.5307205414
 21
338.3573788989
 31
0.0
  0
LINE
  5
1BD
330
1F
100
AcDbEntity
  8
0
  6
Continuous
 62
     7
370
    15
100
AcDbLine
 10
40.5307205414
 20
312.3573709119
 30
0.0
 11
42.5307206364
 21
310.3573668588
 31
0.0
  0
LINE
  5
1BE
330
1F
100
AcDbEntity
  8
0
  6
Continuous
 62
     7
370
    15
100
AcDbLine
 10
61.2807211487
 20
135.357389746
 30
0.0
 11
81.2807207016
 21
135.357389746
 31
0.0
  0
LINE
  5
1BF
330
1F
100
AcDbEntity
  8
0
  6
Continuous
 62
     7
370
    15
100
AcDbLine
 10
81.2807207016
 20
145.3573901046
 30
0.0
 11
61.2807211487
 21
145.3573901046
 31
0.0
  0
LINE
  5
1C0
330
1F
100
AcDbEntity
  8
0
  6
Continuous
 62
     7
370
    15
100
AcDbLine
 10
61.2807211487
 20
190.3573881674
 30
0.0
 11
81.2807207016
 21
190.3573881674
 31
0.0
  0
LINE
  5
1C1
330
1F
100
AcDbEntity
  8
0
  6
Continuous
 62
     7
370
    15
100
AcDbLine
 10
81.2807207016
 20
200.3573898066
 30
0.0
 11
61.2807211487
 21
200.3573898066
 31
0.0
  0
LINE
  5
1C2
330
1F
100
AcDbEntity
  8
0
  6
Continuous
 62
     7
370
    15
100
AcDbLine
 10
59.5307203962
 20
136.3573897227
 30
0.0
 11
61.2807211487
 21
136.3573897227
 31
0.0
  0
LINE
  5
1C3
330
1F
100
AcDbEntity
  8
0
  6
Continuous
 62
     7
370
    15
100
AcDbLine
 10
81.2807207016
 20
136.3573897227
 30
0.0
 11
83.0307205228
 21
136.3573897227
 31
0.0
  0
LINE
  5
1C4
330
1F
100
AcDbEntity
  8
0
  6
Continuous
 62
     7
370
    15
100
AcDbLine
 10
83.0307205228
 20
144.3573899407
 30
0.0
 11
81.2807207016
 21
144.3573899407
 31
0.0
  0
LINE
  5
1C5
330
1F
100
AcDbEntity
  8
0
  6
Continuous
 62
     7
370
    15
100
AcDbLine
 10
61.2807211487
 20
144.3573899407
 30
0.0
 11
59.5307203962
 21
144.3573899407
 31
0.0
  0
LINE
  5
1C6
330
1F
100
AcDbEntity
  8
0
  6
Continuous
 62
     7
370
    15
100
AcDbLine
 10
83.0307205228
 20
199.35738778
 30
0.0
 11
81.2807207016
 21
199.35738778
 31
0.0
  0
LINE
  5
1C7
330
1F
100
AcDbEntity
  8
0
  6
Continuous
 62
     7
370
    15
100
AcDbLine
 10
61.2807211487
 20
199.35738778
 30
0.0
 11
59.5307203962
 21
199.35738778
 31
0.0
  0
LINE
  5
1C8
330
1F
100
AcDbEntity
  8
0
  6
Continuous
 62
     7
370
    15
100
AcDbLine
 10
59.5307203962
 20
191.357390194
 30
0.0
 11
61.2807211487
 21
191.357390194
 31
0.0
  0
LINE
  5
1C9
330
1F
100
AcDbEntity
  8
0
  6
Continuous
 62
     7
370
    15
100
AcDbLine
 10
81.2807207016
 20
191.357390194
 30
0.0
 11
83.0307205228
 21
191.357390194
 31
0.0
  0
LINE
  5
1CA
330
1F
100
AcDbEntity
  8
0
  6
Continuous
 62
     7
370
    15
100
AcDbLine
 10
54.3307208477
 20
310.3573668588
 30
0.0
 11
54.5307205079
 21
310.5573702443
 31
0.0
  0
LINE
  5
1CB
330
1F
100
AcDbEntity
  8
0
  6
Continuous
 62
     7
370
    15
100
AcDbLine
 10
54.5307205079
 20
340.1573646653
 30
0.0
 11
54.3307208477
 21
340.3573680509
 31
0.0
  0
LINE
  5
1CC
330
1F
100
AcDbEntity
  8
0
  6
Continuous
 62
     7
370
    15
100
AcDbLine
 10
54.3307208477
 20
340.3573680509
 30
0.0
 11
50.7307209095
 21
340.3573680509
 31
0.0
  0
LINE
  5
1CD
330
1F
100
AcDbEntity
  8
0
  6
Continuous
 62
     7
370
    15
100
AcDbLine
 10
50.7307209095
 20
310.3573668588
 30
0.0
 11
54.3307208477
 21
310.3573668588
 31
0.0
  0
LINE
  5
1CE
330
1F
100
AcDbEntity
  8
0
  6
Continuous
 62
     7
370
    15
100
AcDbLine
 10
50.7307209095
 20
340.3573680509
 30
0.0
 11
50.5307207836
 21
340.1573646653
 31
0.0
  0
LINE
  5
1CF
330
1F
100
AcDbEntity
  8
0
  6
Continuous
 62
     7
370
    15
100
AcDbLine
 10
50.5307207836
 20
310.5573702443
 30
0.0
 11
50.7307209095
 21
310.3573668588
 31
0.0
  0
LINE
  5
1D0
330
1F
100
AcDbEntity
  8
0
  6
Continuous
 62
     7
370
    15
100
AcDbLine
 10
61.900721213
 20
296.4073765863
 30
0.0
 11
62.4007203637
 21
296.4073765863
 31
0.0
  0
LINE
  5
1D1
330
1F
100
AcDbEntity
  8
0
  6
Continuous
 62
     7
370
    15
100
AcDbLine
 10
62.4007203637
 20
354.3073732245
 30
0.0
 11
61.900721213
 21
354.3073732245
 31
0.0
  0
LINE
  5
1D2
330
1F
100
AcDbEntity
  8
0
  6
Continuous
 62
     7
370
    15
100
AcDbLine
 10
81.1607216505
 20
354.3073732245
 30
0.0
 11
80.6607206373
 21
354.3073732245
 31
0.0
  0
LINE
  5
1D3
330
1F
100
AcDbEntity
  8
0
  6
Continuous
 62
     7
370
    15
100
AcDbLine
 10
80.6607206373
 20
296.4073765863
 30
0.0
 11
81.1607216505
 21
296.4073765863
 31
0.0
  0
LINE
  5
1D4
330
1F
100
AcDbEntity
  8
0
  6
Continuous
 62
     7
370
    15
100
AcDbLine
 10
79.5102913884
 20
296.3573682893
 30
0.0
 11
80.5307191817
 21
296.3573682893
 31
0.0
  0
LINE
  5
1D5
330
1F
100
AcDbEntity
  8
0
  6
Continuous
 62
     7
370
    15
100
AcDbLine
 10
80.5307191817
 20
354.3573666204
 30
0.0
 11
79.5102913884
 21
354.3573666204
 31
0.0
  0
ARC
  5
1D6
330
1F
100
AcDbEntity
  8
0
  6
Continuous
 62
     7
370
    15
100
AcDbCircle
 10
71.5046693082
 20
286.7573718656
 30
0.0
 40
12.50000000000006
100
AcDbArc
 50
50.1746287392
 51
129.8253712608
  0
ARC
  5
1D7
330
1F
100
AcDbEntity
  8
0
  6
Continuous
 62
     7
370
    15
100
AcDbCircle
 10
71.5046693082
 20
363.9573718656
 30
0.0
 40
12.49999999999998
100
AcDbArc
 50
230.1746287392
 51
309.8253712608
  0
LINE
  5
1D8
330
1F
100
AcDbEntity
  8
0
  6
Continuous
 62
     7
370
    15
100
AcDbLine
 10
62.5307199566
 20
296.3573682893
 30
0.0
 11
63.4990458397
 21
296.3573682893
 31
0.0
  0
LINE
  5
1D9
330
1F
100
AcDbEntity
  8
0
  6
Continuous
 62
     7
370
    15
100
AcDbLine
 10
63.4990458397
 20
354.3573666204
 30
0.0
 11
62.5307199566
 21
354.3573666204
 31
0.0
  0
LINE
  5
1DA
330
1F
100
AcDbEntity
  8
0
  6
Continuous
 62
     7
370
    15
100
AcDbLine
 10
42.5307206364
 20
180.3573902536
 30
0.0
 11
44.5307207314
 21
180.3573902536
 31
0.0
  0
LINE
  5
1DB
330
1F
100
AcDbEntity
  8
0
  6
Continuous
 62
     7
370
    15
100
AcDbLine
 10
44.5307207314
 20
210.3573877204
 30
0.0
 11
42.5307206364
 21
210.3573877204
 31
0.0
  0
LINE
  5
1DC
330
1F
100
AcDbEntity
  8
0
  6
Continuous
 62
     7
370
    15
100
AcDbLine
 10
42.5307206364
 20
210.3573877204
 30
0.0
 11
40.5307205414
 21
208.3573911179
 31
0.0
  0
LINE
  5
1DD
330
1F
100
AcDbEntity
  8
0
  6
Continuous
 62
     7
370
    15
100
AcDbLine
 10
40.5307205414
 20
182.3573905814
 30
0.0
 11
42.5307206364
 21
180.3573902536
 31
0.0
  0
LINE
  5
1DE
330
1F
100
AcDbEntity
  8
0
  6
Continuous
 62
     7
370
    15
100
AcDbLine
 10
50.5307207836
 20
190.3573881674
 30
0.0
 11
59.5307203962
 21
190.3573881674
 31
0.0
  0
LINE
  5
1DF
330
1F
100
AcDbEntity
  8
0
  6
Continuous
 62
     7
370
    15
100
AcDbLine
 10
59.5307203962
 20
200.3573898066
 30
0.0
 11
50.5307207836
 21
200.3573898066
 31
0.0
  0
LINE
  5
1E0
330
1F
100
AcDbEntity
  8
0
  6
Continuous
 62
     7
370
    15
100
AcDbLine
 10
42.5307206364
 20
125.3573896203
 30
0.0
 11
44.5307207314
 21
125.3573896203
 31
0.0
  0
LINE
  5
1E1
330
1F
100
AcDbEntity
  8
0
  6
Continuous
 62
     7
370
    15
100
AcDbLine
 10
44.5307207314
 20
155.3573898811
 30
0.0
 11
42.5307206364
 21
155.3573898811
 31
0.0
  0
LINE
  5
1E2
330
1F
100
AcDbEntity
  8
0
  6
Continuous
 62
     7
370
    15
100
AcDbLine
 10
42.5307206364
 20
155.3573898811
 30
0.0
 11
40.5307205414
 21
153.3573895532
 31
0.0
  0
LINE
  5
1E3
330
1F
100
AcDbEntity
  8
0
  6
Continuous
 62
     7
370
    15
100
AcDbLine
 10
40.5307205414
 20
127.3573899481
 30
0.0
 11
42.5307206364
 21
125.3573896203
 31
0.0
  0
LINE
  5
1E4
330
1F
100
AcDbEntity
  8
0
  6
Continuous
 62
     7
370
    15
100
AcDbLine
 10
50.5307207836
 20
135.357389746
 30
0.0
 11
59.5307203962
 21
135.357389746
 31
0.0
  0
LINE
  5
1E5
330
1F
100
AcDbEntity
  8
0
  6
Continuous
 62
     7
370
    15
100
AcDbLine
 10
59.5307203962
 20
145.3573901046
 30
0.0
 11
50.5307207836
 21
145.3573901046
 31
0.0
  0
LINE
  5
1E6
330
1F
100
AcDbEntity
  8
0
  6
Continuous
 62
     7
370
    15
100
AcDbLine
 10
82.5307195095
 20
310.3573668588
 30
0.0
 11
84.5307198374
 21
312.3573709119
 31
0.0
  0
LINE
  5
1E7
330
1F
100
AcDbEntity
  8
0
  6
Continuous
 62
     7
370
    15
100
AcDbLine
 10
84.5307198374
 20
338.3573788989
 30
0.0
 11
82.5307195095
 21
340.3573680509
 31
0.0
  0
LINE
  5
1E8
330
1F
100
AcDbEntity
  8
0
  6
Continuous
 62
     7
370
    15
100
AcDbLine
 10
82.5307195095
 20
340.3573680509
 30
0.0
 11
81.5307212083
 21
340.3573680509
 31
0.0
  0
LINE
  5
1E9
330
1F
100
AcDbEntity
  8
0
  6
Continuous
 62
     7
370
    15
100
AcDbLine
 10
81.5307212083
 20
310.3573668588
 30
0.0
 11
82.5307195095
 21
310.3573668588
 31
0.0
  0
LINE
  5
1EA
330
1F
100
AcDbEntity
  8
0
  6
Continuous
 62
     7
370
    15
100
AcDbLine
 10
81.5307212083
 20
335.1073760379
 30
0.0
 11
81.1607216505
 21
335.1073760379
 31
0.0
  0
LINE
  5
1EB
330
1F
100
AcDbEntity
  8
0
  6
Continuous
 62
     7
370
    15
100
AcDbLine
 10
81.1607216505
 20
315.6073737729
 30
0.0
 11
81.5307212083
 21
315.6073737729
 31
0.0
  0
LINE
  5
1EC
330
1F
100
AcDbEntity
  8
0
  6
Continuous
 62
     7
370
    15
100
AcDbLine
 10
80.6607206373
 20
334.9373686898
 30
0.0
 11
80.5307191817
 21
334.8073709596
 31
0.0
  0
LINE
  5
1ED
330
1F
100
AcDbEntity
  8
0
  6
Continuous
 62
     7
370
    15
100
AcDbLine
 10
80.5307191817
 20
315.9073788512
 30
0.0
 11
80.6607206373
 21
315.7773662198
 31
0.0
  0
LINE
  5
1EE
330
1F
100
AcDbEntity
  8
0
  6
Continuous
 62
     7
370
    15
100
AcDbLine
 10
61.2307203023
 20
310.3573668588
 30
0.0
 11
61.5307216553
 21
310.6573719371
 31
0.0
  0
LINE
  5
1EF
330
1F
100
AcDbEntity
  8
0
  6
Continuous
 62
     7
370
    15
100
AcDbLine
 10
61.5307216553
 20
340.0573778737
 30
0.0
 11
61.2307203023
 21
340.3573680509
 31
0.0
  0
LINE
  5
1F0
330
1F
100
AcDbEntity
  8
0
  6
Continuous
 62
     7
370
    15
100
AcDbLine
 10
54.8307209296
 20
310.3573668588
 30
0.0
 11
61.2307203023
 21
310.3573668588
 31
0.0
  0
LINE
  5
1F1
330
1F
100
AcDbEntity
  8
0
  6
Continuous
 62
     7
370
    15
100
AcDbLine
 10
61.2307203023
 20
340.3573680509
 30
0.0
 11
54.8307209296
 21
340.3573680509
 31
0.0
  0
LINE
  5
1F2
330
1F
100
AcDbEntity
  8
0
  6
Continuous
 62
     7
370
    15
100
AcDbLine
 10
54.8307209296
 20
340.3573680509
 30
0.0
 11
54.5307205079
 21
340.0573778737
 31
0.0
  0
LINE
  5
1F3
330
1F
100
AcDbEntity
  8
0
  6
Continuous
 62
     7
370
    15
100
AcDbLine
 10
54.5307205079
 20
310.6573719371
 30
0.0
 11
54.8307209296
 21
310.3573668588
 31
0.0
  0
LINE
  5
1F4
330
1F
100
AcDbEntity
  8
0
  6
Continuous
 62
     7
370
    15
100
AcDbLine
 10
62.4007203637
 20
315.7773662198
 30
0.0
 11
62.5307199566
 21
315.9073788512
 31
0.0
  0
LINE
  5
1F5
330
1F
100
AcDbEntity
  8
0
  6
Continuous
 62
     7
370
    15
100
AcDbLine
 10
62.5307199566
 20
334.8073709596
 30
0.0
 11
62.4007203637
 21
334.9373686898
 31
0.0
  0
LINE
  5
1F6
330
1F
100
AcDbEntity
  8
0
  6
Continuous
 62
     7
370
    15
100
AcDbLine
 10
61.5307216553
 20
315.6073737729
 30
0.0
 11
61.900721213
 21
315.6073737729
 31
0.0
  0
LINE
  5
1F7
330
1F
100
AcDbEntity
  8
0
  6
Continuous
 62
     7
370
    15
100
AcDbLine
 10
61.900721213
 20
335.1073760379
 30
0.0
 11
61.5307216553
 21
335.1073760379
 31
0.0
  0
LINE
  5
1F8
330
1F
100
AcDbEntity
  8
0
  6
Continuous
 62
     7
370
    15
100
AcDbLine
 10
49.1600970758
 20
121.3573722008
 30
0.0
 11
50.5307207836
 21
121.3573722008
 31
0.0
  0
LINE
  5
1F9
330
1F
100
AcDbEntity
  8
0
  6
Continuous
 62
     7
370
    15
100
AcDbLine
 10
44.5307207314
 20
121.3573722008
 30
0.0
 11
45.8807207664
 21
121.3573722008
 31
0.0
  0
LINE
  5
1FA
330
1F
100
AcDbEntity
  8
0
  6
Continuous
 62
     7
370
    15
100
AcDbLine
 10
50.5307207836
 20
340.3573680509
 30
0.0
 11
44.5307207314
 21
340.3573680509
 31
0.0
  0
LINE
  5
1FB
330
1F
100
AcDbEntity
  8
0
  6
Continuous
 62
     7
370
    15
100
AcDbLine
 10
79.5307208804
 20
272.3573643554
 30
0.0
 11
79.5307208804
 21
258.3573732365
 31
0.0
  0
LINE
  5
1FC
330
1F
100
AcDbEntity
  8
0
  6
Continuous
 62
     7
370
    15
100
AcDbLine
 10
67.5307207761
 20
258.3573732365
 30
0.0
 11
67.5307207761
 21
272.3573643554
 31
0.0
  0
LINE
  5
1FD
330
1F
100
AcDbEntity
  8
0
  6
Continuous
 62
     7
370
    15
100
AcDbLine
 10
57.0307209177
 20
270.4573768962
 30
0.0
 11
57.0307209177
 21
260.2573681462
 31
0.0
  0
LINE
  5
1FE
330
1F
100
AcDbEntity
  8
0
  6
Continuous
 62
     7
370
    15
100
AcDbLine
 10
67.0307216255
 20
270.4573768962
 30
0.0
 11
67.0307216255
 21
260.2573681462
 31
0.0
  0
LINE
  5
1FF
330
1F
100
AcDbEntity
  8
0
  6
Continuous
 62
     7
370
    15
100
AcDbLine
 10
56.5307208357
 20
272.3573643554
 30
0.0
 11
56.5307208357
 21
258.3573732365
 31
0.0
  0
LINE
  5
200
330
1F
100
AcDbEntity
  8
0
  6
Continuous
 62
     7
370
    15
100
AcDbLine
 10
42.5307206364
 20
280.3573656667
 30
0.0
 11
42.5307206364
 21
250.3573719252
 31
0.0
  0
LINE
  5
201
330
1F
100
AcDbEntity
  8
0
  6
Continuous
 62
     7
370
    15
100
AcDbLine
 10
40.5307205414
 20
252.3573685277
 30
0.0
 11
40.5307205414
 21
278.3573765147
 31
0.0
  0
LINE
  5
202
330
1F
100
AcDbEntity
  8
0
  6
Continuous
 62
     7
370
    15
100
AcDbLine
 10
92.5307211487
 20
180.3573902536
 30
0.0
 11
92.5307211487
 21
210.3573877204
 31
0.0
  0
LINE
  5
203
330
1F
100
AcDbEntity
  8
0
  6
Continuous
 62
     7
370
    15
100
AcDbLine
 10
94.5307214765
 20
208.3573911179
 30
0.0
 11
94.5307214765
 21
182.3573905814
 31
0.0
  0
LINE
  5
204
330
1F
100
AcDbEntity
  8
0
  6
Continuous
 62
     7
370
    15
100
AcDbLine
 10
90.5307208208
 20
180.3573902536
 30
0.0
 11
90.5307208208
 21
210.3573877204
 31
0.0
  0
LINE
  5
205
330
1F
100
AcDbEntity
  8
0
  6
Continuous
 62
     7
370
    15
100
AcDbLine
 10
83.0307205228
 20
190.3573881674
 30
0.0
 11
83.0307205228
 21
200.3573898066
 31
0.0
  0
LINE
  5
206
330
1F
100
AcDbEntity
  8
0
  6
Continuous
 62
     7
370
    15
100
AcDbLine
 10
92.5307211487
 20
153.0412334788
 30
0.0
 11
92.5307211487
 21
155.3573898811
 31
0.0
  0
LINE
  5
207
330
1F
100
AcDbEntity
  8
0
  6
Continuous
 62
     7
370
    15
100
AcDbLine
 10
92.5307211487
 20
125.3573896203
 30
0.0
 11
92.5307211487
 21
153.0412334788
 31
0.0
  0
LINE
  5
208
330
1F
100
AcDbEntity
  8
0
  6
Continuous
 62
     7
370
    15
100
AcDbLine
 10
94.5307214765
 20
151.3500531975
 30
0.0
 11
94.5307214765
 21
127.3573899481
 31
0.0
  0
LINE
  5
209
330
1F
100
AcDbEntity
  8
0
  6
Continuous
 62
     7
370
    15
100
AcDbLine
 10
94.5307214765
 20
153.3573895532
 30
0.0
 11
94.5307214765
 21
151.3500531975
 31
0.0
  0
LINE
  5
20A
330
1F
100
AcDbEntity
  8
0
  6
Continuous
 62
     7
370
    15
100
AcDbLine
 10
90.5307208208
 20
153.0412334788
 30
0.0
 11
90.5307208208
 21
155.3573898811
 31
0.0
  0
LINE
  5
20B
330
1F
100
AcDbEntity
  8
0
  6
Continuous
 62
     7
370
    15
100
AcDbLine
 10
90.5307208208
 20
125.3573896203
 30
0.0
 11
90.5307208208
 21
153.0412334788
 31
0.0
  0
LINE
  5
20C
330
1F
100
AcDbEntity
  8
0
  6
Continuous
 62
     7
370
    15
100
AcDbLine
 10
83.0307205228
 20
144.5853376601
 30
0.0
 11
83.0307205228
 21
145.3573901046
 31
0.0
  0
LINE
  5
20D
330
1F
100
AcDbEntity
  8
0
  6
Continuous
 62
     7
370
    15
100
AcDbLine
 10
83.0307205228
 20
135.357389746
 30
0.0
 11
83.0307205228
 21
144.5853376601
 31
0.0
  0
LINE
  5
20E
330
1F
100
AcDbEntity
  8
0
  6
Continuous
 62
     7
370
    15
100
AcDbLine
 10
44.5307207314
 20
340.3573680509
 30
0.0
 11
44.5307207314
 21
325.3573674548
 31
0.0
  0
LINE
  5
20F
330
1F
100
AcDbEntity
  8
0
  6
Continuous
 62
     7
370
    15
100
AcDbLine
 10
42.5307206364
 20
340.3573680509
 30
0.0
 11
42.5307206364
 21
310.3573668588
 31
0.0
  0
LINE
  5
210
330
1F
100
AcDbEntity
  8
0
  6
Continuous
 62
     7
370
    15
100
AcDbLine
 10
40.5307205414
 20
312.3573709119
 30
0.0
 11
40.5307205414
 21
338.3573788989
 31
0.0
  0
LINE
  5
211
330
1F
100
AcDbEntity
  8
0
  6
Continuous
 62
     7
370
    15
100
AcDbLine
 10
61.2807211487
 20
145.3573901046
 30
0.0
 11
61.2807211487
 21
135.357389746
 31
0.0
  0
LINE
  5
212
330
1F
100
AcDbEntity
  8
0
  6
Continuous
 62
     7
370
    15
100
AcDbLine
 10
81.2807207016
 20
145.3573901046
 30
0.0
 11
81.2807207016
 21
135.357389746
 31
0.0
  0
LINE
  5
213
330
1F
100
AcDbEntity
  8
0
  6
Continuous
 62
     7
370
    15
100
AcDbLine
 10
61.2807211487
 20
190.6880710114
 30
0.0
 11
61.2807211487
 21
190.3573881674
 31
0.0
  0
LINE
  5
214
330
1F
100
AcDbEntity
  8
0
  6
Continuous
 62
     7
370
    15
100
AcDbLine
 10
61.2807211487
 20
200.3573898066
 30
0.0
 11
61.2807211487
 21
190.6880710114
 31
0.0
  0
LINE
  5
215
330
1F
100
AcDbEntity
  8
0
  6
Continuous
 62
     7
370
    15
100
AcDbLine
 10
81.2807207016
 20
190.6880710114
 30
0.0
 11
81.2807207016
 21
190.3573881674
 31
0.0
  0
LINE
  5
216
330
1F
100
AcDbEntity
  8
0
  6
Continuous
 62
     7
370
    15
100
AcDbLine
 10
81.2807207016
 20
200.3573898066
 30
0.0
 11
81.2807207016
 21
190.6880710114
 31
0.0
  0
LINE
  5
217
330
1F
100
AcDbEntity
  8
0
  6
Continuous
 62
     7
370
    15
100
AcDbLine
 10
54.3307208477
 20
310.3573668588
 30
0.0
 11
54.3307208477
 21
340.3573680509
 31
0.0
  0
LINE
  5
218
330
1F
100
AcDbEntity
  8
0
  6
Continuous
 62
     7
370
    15
100
AcDbLine
 10
54.5307205079
 20
340.1573646653
 30
0.0
 11
54.5307205079
 21
310.5573702443
 31
0.0
  0
LINE
  5
219
330
1F
100
AcDbEntity
  8
0
  6
Continuous
 62
     7
370
    15
100
AcDbLine
 10
50.7307209095
 20
340.3573680509
 30
0.0
 11
50.7307209095
 21
310.3573668588
 31
0.0
  0
LINE
  5
21A
330
1F
100
AcDbEntity
  8
0
  6
Continuous
 62
     7
370
    15
100
AcDbLine
 10
61.900721213
 20
354.3073732245
 30
0.0
 11
61.900721213
 21
296.4073765863
 31
0.0
  0
LINE
  5
21B
330
1F
100
AcDbEntity
  8
0
  6
Continuous
 62
     7
370
    15
100
AcDbLine
 10
62.4007203637
 20
354.3073732245
 30
0.0
 11
62.4007203637
 21
296.4073765863
 31
0.0
  0
LINE
  5
21C
330
1F
100
AcDbEntity
  8
0
  6
Continuous
 62
     7
370
    15
100
AcDbLine
 10
80.6607206373
 20
296.4073765863
 30
0.0
 11
80.6607206373
 21
354.3073732245
 31
0.0
  0
LINE
  5
21D
330
1F
100
AcDbEntity
  8
0
  6
Continuous
 62
     7
370
    15
100
AcDbLine
 10
81.1607216505
 20
296.4073765863
 30
0.0
 11
81.1607216505
 21
354.3073732245
 31
0.0
  0
LINE
  5
21E
330
1F
100
AcDbEntity
  8
0
  6
Continuous
 62
     7
370
    15
100
AcDbLine
 10
79.5102913884
 20
343.8810456384
 30
0.0
 11
79.5102913884
 21
296.3573682893
 31
0.0
  0
LINE
  5
21F
330
1F
100
AcDbEntity
  8
0
  6
Continuous
 62
     7
370
    15
100
AcDbLine
 10
79.5102913884
 20
354.3573666204
 30
0.0
 11
79.5102913884
 21
343.8810456384
 31
0.0
  0
LINE
  5
220
330
1F
100
AcDbEntity
  8
0
  6
Continuous
 62
     7
370
    15
100
AcDbLine
 10
80.5307191817
 20
354.3573666204
 30
0.0
 11
80.5307191817
 21
296.3573682893
 31
0.0
  0
LINE
  5
221
330
1F
100
AcDbEntity
  8
0
  6
Continuous
 62
     7
370
    15
100
AcDbLine
 10
63.4990458397
 20
296.3573682893
 30
0.0
 11
63.4990458397
 21
354.3573666204
 31
0.0
  0
LINE
  5
222
330
1F
100
AcDbEntity
  8
0
  6
Continuous
 62
     7
370
    15
100
AcDbLine
 10
62.5307199566
 20
354.3573666204
 30
0.0
 11
62.5307199566
 21
296.3573682893
 31
0.0
  0
LINE
  5
223
330
1F
100
AcDbEntity
  8
0
  6
Continuous
 62
     7
370
    15
100
AcDbLine
 10
44.5307207314
 20
196.5811151851
 30
0.0
 11
44.5307207314
 21
194.1336665142
 31
0.0
  0
LINE
  5
224
330
1F
100
AcDbEntity
  8
0
  6
Continuous
 62
     7
370
    15
100
AcDbLine
 10
42.5307206364
 20
210.3573877204
 30
0.0
 11
42.5307206364
 21
180.3573902536
 31
0.0
  0
LINE
  5
225
330
1F
100
AcDbEntity
  8
0
  6
Continuous
 62
     7
370
    15
100
AcDbLine
 10
40.5307205414
 20
182.3573905814
 30
0.0
 11
40.5307205414
 21
208.3573911179
 31
0.0
  0
LINE
  5
226
330
1F
100
AcDbEntity
  8
0
  6
Continuous
 62
     7
370
    15
100
AcDbLine
 10
59.5307203962
 20
200.3573898066
 30
0.0
 11
59.5307203962
 21
190.3573881674
 31
0.0
  0
LINE
  5
227
330
1F
100
AcDbEntity
  8
0
  6
Continuous
 62
     7
370
    15
100
AcDbLine
 10
42.5307206364
 20
155.3573898811
 30
0.0
 11
42.5307206364
 21
125.3573896203
 31
0.0
  0
LINE
  5
228
330
1F
100
AcDbEntity
  8
0
  6
Continuous
 62
     7
370
    15
100
AcDbLine
 10
44.5307207314
 20
141.5811136205
 30
0.0
 11
44.5307207314
 21
139.1336658809
 31
0.0
  0
LINE
  5
229
330
1F
100
AcDbEntity
  8
0
  6
Continuous
 62
     7
370
    15
100
AcDbLine
 10
40.5307205414
 20
127.3573899481
 30
0.0
 11
40.5307205414
 21
153.3573895532
 31
0.0
  0
LINE
  5
22A
330
1F
100
AcDbEntity
  8
0
  6
Continuous
 62
     7
370
    15
100
AcDbLine
 10
59.5307203962
 20
145.3573901046
 30
0.0
 11
59.5307203962
 21
135.357389746
 31
0.0
  0
LINE
  5
22B
330
1F
100
AcDbEntity
  8
0
  6
Continuous
 62
     7
370
    15
100
AcDbLine
 10
84.5307198374
 20
338.3573788989
 30
0.0
 11
84.5307198374
 21
312.3573709119
 31
0.0
  0
LINE
  5
22C
330
1F
100
AcDbEntity
  8
0
  6
Continuous
 62
     7
370
    15
100
AcDbLine
 10
82.5307195095
 20
310.3573668588
 30
0.0
 11
82.5307195095
 21
340.3573680509
 31
0.0
  0
LINE
  5
22D
330
1F
100
AcDbEntity
  8
0
  6
Continuous
 62
     7
370
    15
100
AcDbLine
 10
81.5307212083
 20
328.1485784638
 30
0.0
 11
81.5307212083
 21
310.3573668588
 31
0.0
  0
LINE
  5
22E
330
1F
100
AcDbEntity
  8
0
  6
Continuous
 62
     7
370
    15
100
AcDbLine
 10
81.5307212083
 20
340.3573680509
 30
0.0
 11
81.5307212083
 21
328.1485784638
 31
0.0
  0
LINE
  5
22F
330
1F
100
AcDbEntity
  8
0
  6
Continuous
 62
     7
370
    15
100
AcDbLine
 10
61.5307216553
 20
340.0573778737
 30
0.0
 11
61.5307216553
 21
310.6573719371
 31
0.0
  0
LINE
  5
230
330
1F
100
AcDbEntity
  8
0
  6
Continuous
 62
     7
370
    15
100
AcDbLine
 10
61.2307203023
 20
310.3573668588
 30
0.0
 11
61.2307203023
 21
340.3573680509
 31
0.0
  0
LINE
  5
231
330
1F
100
AcDbEntity
  8
0
  6
Continuous
 62
     7
370
    15
100
AcDbLine
 10
54.8307209296
 20
340.3573680509
 30
0.0
 11
54.8307209296
 21
310.3573668588
 31
0.0
  0
LINE
  5
232
330
1F
100
AcDbEntity
  8
0
  6
Continuous
 62
     7
370
    15
100
AcDbLine
 10
50.5307207836
 20
136.3573718656
 30
0.0
 11
44.5307207314
 21
136.3573718656
 31
0.0
  0
LINE
  5
233
330
1F
100
AcDbEntity
  8
0
  6
Continuous
 62
     7
370
    15
100
AcDbLine
 10
44.5307207314
 20
136.3573718656
 30
0.0
 11
44.5307207314
 21
121.3573722008
 31
0.0
  0
SPLINE
  5
234
330
1F
100
AcDbEntity
  8
0
  6
Continuous
 62
     7
370
    15
100
AcDbSpline
210
0.0
220
0.0
230
1.0
 70
     8
 71
     3
 72
    17
 73
    13
 74
     0
 42
0.000000001
 43
0.00000001
 40
0.0
 40
0.0
 40
0.0
 40
0.0
 40
0.1069305708351746
 40
0.213845813007193
 40
0.3211631825881771
 40
0.4287534790639909
 40
0.5359032935168919
 40
0.6425861194411536
 40
0.7495038946286583
 40
0.8569906834179547
 40
0.9644959471181556
 40
1.0
 40
1.0
 40
1.0
 40
1.0
 10
45.88072076644615
 20
121.3573722008399
 30
0.0
 10
45.89885143141453
 20
121.3594226338871
 30
0.0
 10
45.93511016229237
 20
121.3635232060488
 30
0.0
 10
46.21762176978724
 20
121.392069356328
 30
0.0
 10
46.63456350823079
 20
121.423997258783
 30
0.0
 10
47.1568285125707
 20
121.4471499395918
 30
0.0
 10
47.71991353169458
 20
121.4507035221888
 30
0.0
 10
48.2595373941982
 20
121.4334957207224
 30
0.0
 10
48.7210726205312
 20
121.4026346537241
 30
0.0
 10
49.03746895427823
 20
121.3731289002519
 30
0.0
 10
49.18890744338297
 20
121.3564833811976
 30
0.0
 10
49.16582709377501
 20
121.3589957513591
 30
0.0
 10
49.16009707581118
 20
121.3596194822125
 30
0.0
  0
LINE
  5
235
330
1F
100
AcDbEntity
  8
0
  6
Continuous
 62
     7
370
    15
100
AcDbLine
 10
50.5307207836
 20
136.3573718656
 30
0.0
 11
50.5307207836
 21
121.3573722008
 31
0.0
  0
LINE
  5
236
330
1F
100
AcDbEntity
  8
0
  6
Continuous
 62
     7
370
    15
100
AcDbLine
 10
50.5307207836
 20
325.3573674548
 30
0.0
 11
44.5307207314
 21
325.3573674548
 31
0.0
  0
LINE
  5
237
330
1F
100
AcDbEntity
  8
0
  6
Continuous
 62
     7
370
    15
100
AcDbLine
 10
44.5307207314
 20
325.3573674548
 30
0.0
 11
44.5307207314
 21
196.5811151851
 31
0.0
  0
LINE
  5
238
330
1F
100
AcDbEntity
  8
0
  6
Continuous
 62
     7
370
    15
100
AcDbLine
 10
44.5307207314
 20
194.1336665142
 30
0.0
 11
44.5307207314
 21
141.5811136205
 31
0.0
  0
LINE
  5
239
330
1F
100
AcDbEntity
  8
0
  6
Continuous
 62
     7
370
    15
100
AcDbLine
 10
44.5307207314
 20
139.1336658809
 30
0.0
 11
44.5307207314
 21
136.3573718656
 31
0.0
  0
LINE
  5
23A
330
1F
100
AcDbEntity
  8
0
  6
Continuous
 62
     7
370
    15
100
AcDbLine
 10
50.5307207836
 20
325.3573674548
 30
0.0
 11
50.5307207836
 21
136.3573718656
 31
0.0
  0
LINE
  5
23B
330
1F
100
AcDbEntity
  8
0
  6
Continuous
 62
     7
370
    15
100
AcDbLine
 10
50.5307207836
 20
340.3573680509
 30
0.0
 11
50.5307207836
 21
325.3573674548
 31
0.0
  0
LINE
  5
23C
330
1F
100
AcDbEntity
  8
0
  6
Continuous
 62
     8
370
    15
100
AcDbLine
 10
78.5307225792
 20
257.3573712099
 30
0.0
 11
78.5307225792
 21
273.3573663819
 31
0.0
  0
LINE
  5
23D
330
1F
100
AcDbEntity
  8
0
  6
Continuous
 62
     8
370
    15
100
AcDbLine
 10
68.53072094
 20
273.3573663819
 30
0.0
 11
68.53072094
 21
257.3573712099
 31
0.0
  0
LINE
  5
23E
330
1F
100
AcDbEntity
  8
0
  6
Continuous
 62
     8
370
    15
100
AcDbLine
 10
55.5307206718
 20
257.3573712099
 30
0.0
 11
55.5307206718
 21
273.3573663819
 31
0.0
  0
LINE
  5
23F
330
1F
100
AcDbEntity
  8
0
  6
Continuous
 62
     7
370
    15
100
AcDbLine
 10
202.8249863634
 20
88.688233368
 30
0.0
 11
200.8249864175
 21
90.6882336958
 31
0.0
  0
LINE
  5
240
330
1F
100
AcDbEntity
  8
0
  6
Continuous
 62
     7
370
    15
100
AcDbLine
 10
174.8249863467
 20
90.6882336958
 30
0.0
 11
172.8249860189
 21
88.688233368
 31
0.0
  0
LINE
  5
241
330
1F
100
AcDbEntity
  8
0
  6
Continuous
 62
     7
370
    15
100
AcDbLine
 10
172.8249860189
 20
88.688233368
 30
0.0
 11
172.8249860189
 21
86.6882330402
 31
0.0
  0
LINE
  5
242
330
1F
100
AcDbEntity
  8
0
  6
Continuous
 62
     7
370
    15
100
AcDbLine
 10
202.8249863634
 20
86.6882330402
 30
0.0
 11
202.8249863634
 21
88.688233368
 31
0.0
  0
LINE
  5
243
330
1F
100
AcDbEntity
  8
0
  6
Continuous
 62
     7
370
    15
100
AcDbLine
 10
182.8249857954
 20
86.6882330402
 30
0.0
 11
182.8249857954
 21
80.6882320567
 31
0.0
  0
LINE
  5
244
330
1F
100
AcDbEntity
  8
0
  6
Continuous
 62
     7
370
    15
100
AcDbLine
 10
192.8249865032
 20
80.6882320567
 30
0.0
 11
192.8249865032
 21
86.6882330402
 31
0.0
  0
LINE
  5
245
330
1F
100
AcDbEntity
  8
0
  6
Continuous
 62
     7
370
    15
100
AcDbLine
 10
202.7749863646
 20
38.6882328558
 30
0.0
 11
202.7749863646
 21
40.6882329508
 31
0.0
  0
LINE
  5
246
330
1F
100
AcDbEntity
  8
0
  6
Continuous
 62
     7
370
    15
100
AcDbLine
 10
172.7749870352
 20
40.6882329508
 30
0.0
 11
172.7749870352
 21
38.6882328558
 31
0.0
  0
LINE
  5
247
330
1F
100
AcDbEntity
  8
0
  6
Continuous
 62
     7
370
    15
100
AcDbLine
 10
172.7749870352
 20
38.6882328558
 30
0.0
 11
174.7749855004
 21
36.6882327608
 31
0.0
  0
LINE
  5
248
330
1F
100
AcDbEntity
  8
0
  6
Continuous
 62
     7
370
    15
100
AcDbLine
 10
200.7749862696
 20
36.6882327608
 30
0.0
 11
202.7749863646
 21
38.6882328558
 31
0.0
  0
LINE
  5
249
330
1F
100
AcDbEntity
  8
0
  6
Continuous
 62
     7
370
    15
100
AcDbLine
 10
172.7749870352
 20
50.488233067
 30
0.0
 11
172.7749870352
 21
46.8882331289
 31
0.0
  0
LINE
  5
24A
330
1F
100
AcDbEntity
  8
0
  6
Continuous
 62
     7
370
    15
100
AcDbLine
 10
202.7749863646
 20
46.8882331289
 30
0.0
 11
202.7749863646
 21
50.488233067
 31
0.0
  0
LINE
  5
24B
330
1F
100
AcDbEntity
  8
0
  6
Continuous
 62
     7
370
    15
100
AcDbLine
 10
172.7749870352
 20
46.8882331289
 30
0.0
 11
172.9749866954
 21
46.6882330029
 31
0.0
  0
LINE
  5
24C
330
1F
100
AcDbEntity
  8
0
  6
Continuous
 62
     7
370
    15
100
AcDbLine
 10
202.5749863697
 20
46.6882330029
 30
0.0
 11
202.7749863646
 21
46.8882331289
 31
0.0
  0
LINE
  5
24D
330
1F
100
AcDbEntity
  8
0
  6
Continuous
 62
     7
370
    15
100
AcDbLine
 10
202.7749863646
 20
50.488233067
 30
0.0
 11
202.5749863697
 21
50.6882327273
 31
0.0
  0
LINE
  5
24E
330
1F
100
AcDbEntity
  8
0
  6
Continuous
 62
     7
370
    15
100
AcDbLine
 10
172.9749866954
 20
50.6882327273
 30
0.0
 11
172.7749870352
 21
50.488233067
 31
0.0
  0
LINE
  5
24F
330
1F
100
AcDbEntity
  8
0
  6
Continuous
 62
     7
370
    15
100
AcDbLine
 10
216.7249859504
 20
58.0582334324
 30
0.0
 11
216.7249859504
 21
58.558232583
 31
0.0
  0
LINE
  5
250
330
1F
100
AcDbEntity
  8
0
  6
Continuous
 62
     7
370
    15
100
AcDbLine
 10
158.8249874494
 20
58.558232583
 30
0.0
 11
158.8249874494
 21
58.0582334324
 31
0.0
  0
LINE
  5
251
330
1F
100
AcDbEntity
  8
0
  6
Continuous
 62
     7
370
    15
100
AcDbLine
 10
158.8249874494
 20
77.3182338699
 30
0.0
 11
158.8249874494
 21
76.8182328566
 31
0.0
  0
LINE
  5
252
330
1F
100
AcDbEntity
  8
0
  6
Continuous
 62
     7
370
    15
100
AcDbLine
 10
216.7249859504
 20
76.8182328566
 30
0.0
 11
216.7249859504
 21
77.3182338699
 31
0.0
  0
LINE
  5
253
330
1F
100
AcDbEntity
  8
0
  6
Continuous
 62
     7
370
    15
100
AcDbLine
 10
216.7749867968
 20
75.6678036078
 30
0.0
 11
216.7749867968
 21
76.6882314011
 31
0.0
  0
LINE
  5
254
330
1F
100
AcDbEntity
  8
0
  6
Continuous
 62
     7
370
    15
100
AcDbLine
 10
158.774986603
 20
76.6882314011
 30
0.0
 11
158.774986603
 21
75.6678036078
 31
0.0
  0
ARC
  5
255
330
1F
100
AcDbEntity
  8
0
  6
Continuous
 62
     7
370
    15
100
AcDbCircle
 10
226.3749863646
 20
67.6621815275
 30
0.0
 40
12.5
100
AcDbArc
 50
140.1746287392
 51
219.8253712608
  0
ARC
  5
256
330
1F
100
AcDbEntity
  8
0
  6
Continuous
 62
     7
370
    15
100
AcDbCircle
 10
149.1749863646
 20
67.6621815275
 30
0.0
 40
12.50000000000001
100
AcDbArc
 50
320.1746287392
 51
39.8253712608
  0
LINE
  5
257
330
1F
100
AcDbEntity
  8
0
  6
Continuous
 62
     7
370
    15
100
AcDbLine
 10
216.7749867968
 20
58.6882321759
 30
0.0
 11
216.7749867968
 21
59.6565580591
 31
0.0
  0
LINE
  5
258
330
1F
100
AcDbEntity
  8
0
  6
Continuous
 62
     7
370
    15
100
AcDbLine
 10
158.774986603
 20
59.6565580591
 30
0.0
 11
158.774986603
 21
58.6882321759
 31
0.0
  0
LINE
  5
259
330
1F
100
AcDbEntity
  8
0
  6
Continuous
 62
     7
370
    15
100
AcDbLine
 10
202.8249863634
 20
38.6882328558
 30
0.0
 11
202.8249863634
 21
40.6882329508
 31
0.0
  0
LINE
  5
25A
330
1F
100
AcDbEntity
  8
0
  6
Continuous
 62
     7
370
    15
100
AcDbLine
 10
200.8249864175
 20
36.6882327608
 30
0.0
 11
202.8249863634
 21
38.6882328558
 31
0.0
  0
LINE
  5
25B
330
1F
100
AcDbEntity
  8
0
  6
Continuous
 62
     7
370
    15
100
AcDbLine
 10
172.7749870352
 20
78.6882317289
 30
0.0
 11
172.7749870352
 21
77.6882334276
 31
0.0
  0
LINE
  5
25C
330
1F
100
AcDbEntity
  8
0
  6
Continuous
 62
     7
370
    15
100
AcDbLine
 10
202.7749863646
 20
77.6882334276
 30
0.0
 11
202.7749863646
 21
78.6882317289
 31
0.0
  0
LINE
  5
25D
330
1F
100
AcDbEntity
  8
0
  6
Continuous
 62
     7
370
    15
100
AcDbLine
 10
202.7749863646
 20
78.6882317289
 30
0.0
 11
200.7749862696
 21
80.6882320567
 31
0.0
  0
LINE
  5
25E
330
1F
100
AcDbEntity
  8
0
  6
Continuous
 62
     7
370
    15
100
AcDbLine
 10
174.7749855004
 20
80.6882320567
 30
0.0
 11
172.7749870352
 21
78.6882317289
 31
0.0
  0
LINE
  5
25F
330
1F
100
AcDbEntity
  8
0
  6
Continuous
 62
     7
370
    15
100
AcDbLine
 10
178.1949863962
 20
76.8182328566
 30
0.0
 11
178.3249859891
 21
76.6882314011
 31
0.0
  0
LINE
  5
260
330
1F
100
AcDbEntity
  8
0
  6
Continuous
 62
     7
370
    15
100
AcDbLine
 10
197.2249864794
 20
76.6882314011
 30
0.0
 11
197.3549865379
 21
76.8182328566
 31
0.0
  0
LINE
  5
261
330
1F
100
AcDbEntity
  8
0
  6
Continuous
 62
     7
370
    15
100
AcDbLine
 10
178.0249864987
 20
77.6882334276
 30
0.0
 11
178.0249864987
 21
77.3182338699
 31
0.0
  0
LINE
  5
262
330
1F
100
AcDbEntity
  8
0
  6
Continuous
 62
     7
370
    15
100
AcDbLine
 10
197.5249864354
 20
77.3182338699
 30
0.0
 11
197.5249864354
 21
77.6882334276
 31
0.0
  0
LINE
  5
263
330
1F
100
AcDbEntity
  8
0
  6
Continuous
 62
     7
370
    15
100
AcDbLine
 10
202.7749863646
 20
57.3882325216
 30
0.0
 11
202.4749863504
 21
57.6882338747
 31
0.0
  0
LINE
  5
264
330
1F
100
AcDbEntity
  8
0
  6
Continuous
 62
     7
370
    15
100
AcDbLine
 10
173.0749865256
 20
57.6882338747
 30
0.0
 11
172.7749870352
 21
57.3882325216
 31
0.0
  0
LINE
  5
265
330
1F
100
AcDbEntity
  8
0
  6
Continuous
 62
     7
370
    15
100
AcDbLine
 10
202.7749863646
 20
50.988233149
 30
0.0
 11
202.7749863646
 21
57.3882325216
 31
0.0
  0
LINE
  5
266
330
1F
100
AcDbEntity
  8
0
  6
Continuous
 62
     7
370
    15
100
AcDbLine
 10
172.7749870352
 20
57.3882325216
 30
0.0
 11
172.7749870352
 21
50.988233149
 31
0.0
  0
LINE
  5
267
330
1F
100
AcDbEntity
  8
0
  6
Continuous
 62
     7
370
    15
100
AcDbLine
 10
172.7749870352
 20
50.988233149
 30
0.0
 11
173.0749865256
 21
50.6882327273
 31
0.0
  0
LINE
  5
268
330
1F
100
AcDbEntity
  8
0
  6
Continuous
 62
     7
370
    15
100
AcDbLine
 10
202.4749863504
 20
50.6882327273
 30
0.0
 11
202.7749863646
 21
50.988233149
 31
0.0
  0
LINE
  5
269
330
1F
100
AcDbEntity
  8
0
  6
Continuous
 62
     7
370
    15
100
AcDbLine
 10
197.5249864354
 20
57.6882338747
 30
0.0
 11
197.5249864354
 21
58.0582334324
 31
0.0
  0
LINE
  5
26A
330
1F
100
AcDbEntity
  8
0
  6
Continuous
 62
     7
370
    15
100
AcDbLine
 10
178.0249864987
 20
58.0582334324
 30
0.0
 11
178.0249864987
 21
57.6882338747
 31
0.0
  0
LINE
  5
26B
330
1F
100
AcDbEntity
  8
0
  6
Continuous
 62
     7
370
    15
100
AcDbLine
 10
197.3549865379
 20
58.558232583
 30
0.0
 11
197.2249864794
 21
58.6882321759
 31
0.0
  0
LINE
  5
26C
330
1F
100
AcDbEntity
  8
0
  6
Continuous
 62
     7
370
    15
100
AcDbLine
 10
178.3249859891
 20
58.6882321759
 30
0.0
 11
178.1949863962
 21
58.558232583
 31
0.0
  0
LINE
  5
26D
330
1F
100
AcDbEntity
  8
0
  6
Continuous
 62
     7
370
    15
100
AcDbLine
 10
180.8330861113
 20
88.688233368
 30
0.0
 11
172.8249860189
 21
88.688233368
 31
0.0
  0
LINE
  5
26E
330
1F
100
AcDbEntity
  8
0
  6
Continuous
 62
     7
370
    15
100
AcDbLine
 10
202.8249863634
 20
88.688233368
 30
0.0
 11
180.8330861113
 21
88.688233368
 31
0.0
  0
LINE
  5
26F
330
1F
100
AcDbEntity
  8
0
  6
Continuous
 62
     7
370
    15
100
AcDbLine
 10
181.7653400085
 20
90.6882336958
 30
0.0
 11
200.8249864175
 21
90.6882336958
 31
0.0
  0
LINE
  5
270
330
1F
100
AcDbEntity
  8
0
  6
Continuous
 62
     7
370
    15
100
AcDbLine
 10
174.8249863467
 20
90.6882336958
 30
0.0
 11
181.7653400085
 21
90.6882336958
 31
0.0
  0
LINE
  5
271
330
1F
100
AcDbEntity
  8
0
  6
Continuous
 62
     7
370
    15
100
AcDbLine
 10
180.8330861113
 20
86.6882330402
 30
0.0
 11
172.8249860189
 21
86.6882330402
 31
0.0
  0
LINE
  5
272
330
1F
100
AcDbEntity
  8
0
  6
Continuous
 62
     7
370
    15
100
AcDbLine
 10
202.8249863634
 20
86.6882330402
 30
0.0
 11
180.8330861113
 21
86.6882330402
 31
0.0
  0
LINE
  5
273
330
1F
100
AcDbEntity
  8
0
  6
Continuous
 62
     7
370
    15
100
AcDbLine
 10
172.7749870352
 20
38.6882328558
 30
0.0
 11
202.7749863646
 21
38.6882328558
 31
0.0
  0
LINE
  5
274
330
1F
100
AcDbEntity
  8
0
  6
Continuous
 62
     7
370
    15
100
AcDbLine
 10
172.7749870352
 20
40.6882329508
 30
0.0
 11
202.7749863646
 21
40.6882329508
 31
0.0
  0
LINE
  5
275
330
1F
100
AcDbEntity
  8
0
  6
Continuous
 62
     7
370
    15
100
AcDbLine
 10
200.7749862696
 20
36.6882327608
 30
0.0
 11
174.7749855004
 21
36.6882327608
 31
0.0
  0
LINE
  5
276
330
1F
100
AcDbEntity
  8
0
  6
Continuous
 62
     7
370
    15
100
AcDbLine
 10
172.7749870352
 20
46.8882331289
 30
0.0
 11
202.7749863646
 21
46.8882331289
 31
0.0
  0
LINE
  5
277
330
1F
100
AcDbEntity
  8
0
  6
Continuous
 62
     7
370
    15
100
AcDbLine
 10
202.7749863646
 20
50.488233067
 30
0.0
 11
172.7749870352
 21
50.488233067
 31
0.0
  0
LINE
  5
278
330
1F
100
AcDbEntity
  8
0
  6
Continuous
 62
     7
370
    15
100
AcDbLine
 10
172.9749866954
 20
50.6882327273
 30
0.0
 11
202.5749863697
 21
50.6882327273
 31
0.0
  0
LINE
  5
279
330
1F
100
AcDbEntity
  8
0
  6
Continuous
 62
     7
370
    15
100
AcDbLine
 10
158.8249874494
 20
58.0582334324
 30
0.0
 11
216.7249859504
 21
58.0582334324
 31
0.0
  0
LINE
  5
27A
330
1F
100
AcDbEntity
  8
0
  6
Continuous
 62
     7
370
    15
100
AcDbLine
 10
158.8249874494
 20
58.558232583
 30
0.0
 11
216.7249859504
 21
58.558232583
 31
0.0
  0
LINE
  5
27B
330
1F
100
AcDbEntity
  8
0
  6
Continuous
 62
     7
370
    15
100
AcDbLine
 10
216.7249859504
 20
76.8182328566
 30
0.0
 11
158.8249874494
 21
76.8182328566
 31
0.0
  0
LINE
  5
27C
330
1F
100
AcDbEntity
  8
0
  6
Continuous
 62
     7
370
    15
100
AcDbLine
 10
216.7249859504
 20
77.3182338699
 30
0.0
 11
158.8249874494
 21
77.3182338699
 31
0.0
  0
LINE
  5
27D
330
1F
100
AcDbEntity
  8
0
  6
Continuous
 62
     7
370
    15
100
AcDbLine
 10
210.0880669623
 20
75.6678036078
 30
0.0
 11
216.7749867968
 21
75.6678036078
 31
0.0
  0
LINE
  5
27E
330
1F
100
AcDbEntity
  8
0
  6
Continuous
 62
     7
370
    15
100
AcDbLine
 10
158.774986603
 20
75.6678036078
 30
0.0
 11
210.0880669623
 21
75.6678036078
 31
0.0
  0
LINE
  5
27F
330
1F
100
AcDbEntity
  8
0
  6
Continuous
 62
     7
370
    15
100
AcDbLine
 10
158.774986603
 20
76.6882314011
 30
0.0
 11
216.7749867968
 21
76.6882314011
 31
0.0
  0
LINE
  5
280
330
1F
100
AcDbEntity
  8
0
  6
Continuous
 62
     7
370
    15
100
AcDbLine
 10
216.7749867968
 20
59.6565580591
 30
0.0
 11
158.774986603
 21
59.6565580591
 31
0.0
  0
LINE
  5
281
330
1F
100
AcDbEntity
  8
0
  6
Continuous
 62
     7
370
    15
100
AcDbLine
 10
158.774986603
 20
58.6882321759
 30
0.0
 11
216.7749867968
 21
58.6882321759
 31
0.0
  0
LINE
  5
282
330
1F
100
AcDbEntity
  8
0
  6
Continuous
 62
     7
370
    15
100
AcDbLine
 10
202.7749863646
 20
38.6882328558
 30
0.0
 11
202.8249863634
 21
38.6882328558
 31
0.0
  0
LINE
  5
283
330
1F
100
AcDbEntity
  8
0
  6
Continuous
 62
     7
370
    15
100
AcDbLine
 10
202.7749863646
 20
40.6882329508
 30
0.0
 11
202.8249863634
 21
40.6882329508
 31
0.0
  0
LINE
  5
284
330
1F
100
AcDbEntity
  8
0
  6
Continuous
 62
     7
370
    15
100
AcDbLine
 10
200.8249864175
 20
36.6882327608
 30
0.0
 11
200.7749862696
 21
36.6882327608
 31
0.0
  0
LINE
  5
285
330
1F
100
AcDbEntity
  8
0
  6
Continuous
 62
     7
370
    15
100
AcDbLine
 10
202.5130052371
 20
77.6882334276
 30
0.0
 11
202.7749863646
 21
77.6882334276
 31
0.0
  0
LINE
  5
286
330
1F
100
AcDbEntity
  8
0
  6
Continuous
 62
     7
370
    15
100
AcDbLine
 10
172.7749870352
 20
77.6882334276
 30
0.0
 11
202.5130052371
 21
77.6882334276
 31
0.0
  0
LINE
  5
287
330
1F
100
AcDbEntity
  8
0
  6
Continuous
 62
     7
370
    15
100
AcDbLine
 10
202.7749863646
 20
78.6882317289
 30
0.0
 11
172.7749870352
 21
78.6882317289
 31
0.0
  0
LINE
  5
288
330
1F
100
AcDbEntity
  8
0
  6
Continuous
 62
     7
370
    15
100
AcDbLine
 10
174.7749855004
 20
80.6882320567
 30
0.0
 11
200.7749862696
 21
80.6882320567
 31
0.0
  0
LINE
  5
289
330
1F
100
AcDbEntity
  8
0
  6
Continuous
 62
     7
370
    15
100
AcDbLine
 10
186.9537045441
 20
57.6882338747
 30
0.0
 11
202.4749863504
 21
57.6882338747
 31
0.0
  0
LINE
  5
28A
330
1F
100
AcDbEntity
  8
0
  6
Continuous
 62
     7
370
    15
100
AcDbLine
 10
173.0749865256
 20
57.6882338747
 30
0.0
 11
186.9537045441
 21
57.6882338747
 31
0.0
  0
LINE
  5
28B
330
1F
100
AcDbEntity
  8
0
  6
Continuous
 62
     7
370
    15
100
AcDbLine
 10
186.936944463
 20
57.3882325216
 30
0.0
 11
172.7749870352
 21
57.3882325216
 31
0.0
  0
LINE
  5
28C
330
1F
100
AcDbEntity
  8
0
  6
Continuous
 62
     7
370
    15
100
AcDbLine
 10
202.7749863646
 20
57.3882325216
 30
0.0
 11
186.936944463
 21
57.3882325216
 31
0.0
  0
LINE
  5
28D
330
1F
100
AcDbEntity
  8
0
  6
Continuous
 62
     7
370
    15
100
AcDbLine
 10
186.936944463
 20
50.988233149
 30
0.0
 11
202.7749863646
 21
50.988233149
 31
0.0
  0
LINE
  5
28E
330
1F
100
AcDbEntity
  8
0
  6
Continuous
 62
     7
370
    15
100
AcDbLine
 10
172.7749870352
 20
50.988233149
 30
0.0
 11
186.936944463
 21
50.988233149
 31
0.0
  0
LINE
  5
28F
330
1F
100
AcDbEntity
  8
0
  6
Continuous
 62
     7
370
    15
100
AcDbLine
 10
172.7749870352
 20
46.6882330029
 30
0.0
 11
172.7749870352
 21
40.6882329508
 31
0.0
  0
LINE
  5
290
330
1F
100
AcDbEntity
  8
0
  6
Continuous
 62
     7
370
    15
100
AcDbLine
 10
172.7749870352
 20
46.6882330029
 30
0.0
 11
202.7749863646
 21
46.6882330029
 31
0.0
  0
LINE
  5
291
330
1F
100
AcDbEntity
  8
0
  6
Continuous
 62
     7
370
    15
100
AcDbLine
 10
202.7749863646
 20
46.6882330029
 30
0.0
 11
202.7749863646
 21
40.6882329508
 31
0.0
  0
LINE
  5
292
330
1F
100
AcDbEntity
  8
0
  6
Continuous
 62
     7
370
    15
100
AcDbLine
 10
179.7749863199
 20
411.4246304983
 30
0.0
 11
179.7749863199
 21
401.4246288592
 31
0.0
  0
LINE
  5
293
330
1F
100
AcDbEntity
  8
0
  6
Continuous
 62
     7
370
    15
100
AcDbLine
 10
195.7749861486
 20
401.4246288592
 30
0.0
 11
195.7749861486
 21
411.4246304983
 31
0.0
  0
ARC
  5
294
330
1F
100
AcDbEntity
  8
0
  6
Continuous
 62
     7
370
    15
100
AcDbCircle
 10
194.7749863646
 20
401.424630707
 30
0.0
 40
1.0
100
AcDbArc
 50
270.0
 51
0.0
  0
ARC
  5
295
330
1F
100
AcDbEntity
  8
0
  6
Continuous
 62
     7
370
    15
100
AcDbCircle
 10
180.7749863646
 20
401.424630707
 30
0.0
 40
1.0
100
AcDbArc
 50
180.0
 51
270.0
  0
ARC
  5
296
330
1F
100
AcDbEntity
  8
0
  6
Continuous
 62
     7
370
    15
100
AcDbCircle
 10
194.7749863646
 20
411.424630707
 30
0.0
 40
1.0
100
AcDbArc
 50
0.0
 51
90.0
  0
ARC
  5
297
330
1F
100
AcDbEntity
  8
0
  6
Continuous
 62
     7
370
    15
100
AcDbCircle
 10
180.7749863646
 20
411.424630707
 30
0.0
 40
1.0
100
AcDbArc
 50
90.0
 51
180.0
  0
LINE
  5
298
330
1F
100
AcDbEntity
  8
0
  6
Continuous
 62
     7
370
    15
100
AcDbLine
 10
182.6749869815
 20
422.9246305207
 30
0.0
 11
182.6749869815
 21
412.9246298129
 31
0.0
  0
LINE
  5
299
330
1F
100
AcDbEntity
  8
0
  6
Continuous
 62
     7
370
    15
100
AcDbLine
 10
192.8749864183
 20
412.9246298129
 30
0.0
 11
192.8749864183
 21
422.9246305207
 31
0.0
  0
ARC
  5
29A
330
1F
100
AcDbEntity
  8
0
  6
Continuous
 62
     7
370
    15
100
AcDbCircle
 10
194.7749863646
 20
424.424630707
 30
0.0
 40
1.0
100
AcDbArc
 50
270.0
 51
0.0
  0
ARC
  5
29B
330
1F
100
AcDbEntity
  8
0
  6
Continuous
 62
     7
370
    15
100
AcDbCircle
 10
180.7749863646
 20
424.424630707
 30
0.0
 40
1.0
100
AcDbArc
 50
180.0
 51
270.0
  0
LINE
  5
29C
330
1F
100
AcDbEntity
  8
0
  6
Continuous
 62
     7
370
    15
100
AcDbLine
 10
179.7749863199
 20
429.4246306548
 30
0.0
 11
179.7749863199
 21
424.4246307666
 31
0.0
  0
LINE
  5
29D
330
1F
100
AcDbEntity
  8
0
  6
Continuous
 62
     7
370
    15
100
AcDbLine
 10
195.7749861486
 20
424.4246307666
 30
0.0
 11
195.7749861486
 21
429.4246306548
 31
0.0
  0
LINE
  5
29E
330
1F
100
AcDbEntity
  8
0
  6
Continuous
 62
     7
370
    15
100
AcDbLine
 10
172.7749870352
 20
437.424630802
 30
0.0
 11
172.7749870352
 21
435.424630707
 31
0.0
  0
LINE
  5
29F
330
1F
100
AcDbEntity
  8
0
  6
Continuous
 62
     7
370
    15
100
AcDbLine
 10
174.7749855004
 20
439.424630897
 30
0.0
 11
172.7749870352
 21
437.424630802
 31
0.0
  0
LINE
  5
2A0
330
1F
100
AcDbEntity
  8
0
  6
Continuous
 62
     7
370
    15
100
AcDbLine
 10
172.8249860189
 20
387.4246302897
 30
0.0
 11
174.8249863467
 21
385.4246299619
 31
0.0
  0
LINE
  5
2A1
330
1F
100
AcDbEntity
  8
0
  6
Continuous
 62
     7
370
    15
100
AcDbLine
 10
200.8249864175
 20
385.4246299619
 30
0.0
 11
202.8249863634
 21
387.4246302897
 31
0.0
  0
LINE
  5
2A2
330
1F
100
AcDbEntity
  8
0
  6
Continuous
 62
     7
370
    15
100
AcDbLine
 10
202.8249863634
 20
387.4246302897
 30
0.0
 11
202.8249863634
 21
389.4246306176
 31
0.0
  0
LINE
  5
2A3
330
1F
100
AcDbEntity
  8
0
  6
Continuous
 62
     7
370
    15
100
AcDbLine
 10
172.8249860189
 20
389.4246306176
 30
0.0
 11
172.8249860189
 21
387.4246302897
 31
0.0
  0
LINE
  5
2A4
330
1F
100
AcDbEntity
  8
0
  6
Continuous
 62
     7
370
    15
100
AcDbLine
 10
192.8249865032
 20
389.4246306176
 30
0.0
 11
192.8249865032
 21
396.9246309156
 31
0.0
  0
LINE
  5
2A5
330
1F
100
AcDbEntity
  8
0
  6
Continuous
 62
     7
370
    15
100
AcDbLine
 10
182.8249857954
 20
396.9246309156
 30
0.0
 11
182.8249857954
 21
389.4246306176
 31
0.0
  0
LINE
  5
2A6
330
1F
100
AcDbEntity
  8
0
  6
Continuous
 62
     7
370
    15
100
AcDbLine
 10
182.8249857954
 20
418.6746302897
 30
0.0
 11
182.8249857954
 21
398.6746307368
 31
0.0
  0
LINE
  5
2A7
330
1F
100
AcDbEntity
  8
0
  6
Continuous
 62
     7
370
    15
100
AcDbLine
 10
192.8249865032
 20
398.6746307368
 30
0.0
 11
192.8249865032
 21
418.6746302897
 31
0.0
  0
LINE
  5
2A8
330
1F
100
AcDbEntity
  8
0
  6
Continuous
 62
     7
370
    15
100
AcDbLine
 10
183.8249859593
 20
420.4246310422
 30
0.0
 11
183.8249859593
 21
418.6746302897
 31
0.0
  0
LINE
  5
2A9
330
1F
100
AcDbEntity
  8
0
  6
Continuous
 62
     7
370
    15
100
AcDbLine
 10
183.8249859593
 20
398.6746307368
 30
0.0
 11
183.8249859593
 21
396.9246309156
 31
0.0
  0
LINE
  5
2AA
330
1F
100
AcDbEntity
  8
0
  6
Continuous
 62
     7
370
    15
100
AcDbLine
 10
191.8249863393
 20
396.9246309156
 30
0.0
 11
191.8249863393
 21
398.6746307368
 31
0.0
  0
LINE
  5
2AB
330
1F
100
AcDbEntity
  8
0
  6
Continuous
 62
     7
370
    15
100
AcDbLine
 10
191.8249863393
 20
418.6746302897
 30
0.0
 11
191.8249863393
 21
420.4246310422
 31
0.0
  0
LINE
  5
2AC
330
1F
100
AcDbEntity
  8
0
  6
Continuous
 62
     7
370
    15
100
AcDbLine
 10
172.7749870352
 20
425.6246305907
 30
0.0
 11
172.9749866954
 21
425.4246309305
 31
0.0
  0
LINE
  5
2AD
330
1F
100
AcDbEntity
  8
0
  6
Continuous
 62
     7
370
    15
100
AcDbLine
 10
202.5749863697
 20
425.4246309305
 30
0.0
 11
202.7749863646
 21
425.6246305907
 31
0.0
  0
LINE
  5
2AE
330
1F
100
AcDbEntity
  8
0
  6
Continuous
 62
     7
370
    15
100
AcDbLine
 10
202.7749863646
 20
425.6246305907
 30
0.0
 11
202.7749863646
 21
429.2246305289
 31
0.0
  0
LINE
  5
2AF
330
1F
100
AcDbEntity
  8
0
  6
Continuous
 62
     7
370
    15
100
AcDbLine
 10
172.7749870352
 20
429.2246305289
 30
0.0
 11
172.7749870352
 21
425.6246305907
 31
0.0
  0
LINE
  5
2B0
330
1F
100
AcDbEntity
  8
0
  6
Continuous
 62
     7
370
    15
100
AcDbLine
 10
202.7749863646
 20
429.2246305289
 30
0.0
 11
202.5749863697
 21
429.4246306548
 31
0.0
  0
LINE
  5
2B1
330
1F
100
AcDbEntity
  8
0
  6
Continuous
 62
     7
370
    15
100
AcDbLine
 10
172.9749866954
 20
429.4246306548
 30
0.0
 11
172.7749870352
 21
429.2246305289
 31
0.0
  0
LINE
  5
2B2
330
1F
100
AcDbEntity
  8
0
  6
Continuous
 62
     7
370
    15
100
AcDbLine
 10
158.8249874494
 20
418.0546302254
 30
0.0
 11
158.8249874494
 21
417.5546310747
 31
0.0
  0
LINE
  5
2B3
330
1F
100
AcDbEntity
  8
0
  6
Continuous
 62
     7
370
    15
100
AcDbLine
 10
216.7249859504
 20
417.5546310747
 30
0.0
 11
216.7249859504
 21
418.0546302254
 31
0.0
  0
LINE
  5
2B4
330
1F
100
AcDbEntity
  8
0
  6
Continuous
 62
     7
370
    15
100
AcDbLine
 10
216.7249859504
 20
398.7946297879
 30
0.0
 11
216.7249859504
 21
399.2946308011
 31
0.0
  0
LINE
  5
2B5
330
1F
100
AcDbEntity
  8
0
  6
Continuous
 62
     7
370
    15
100
AcDbLine
 10
158.8249874494
 20
399.2946308011
 30
0.0
 11
158.8249874494
 21
398.7946297879
 31
0.0
  0
LINE
  5
2B6
330
1F
100
AcDbEntity
  8
0
  6
Continuous
 62
     7
370
    15
100
AcDbLine
 10
158.774986603
 20
400.4450600499
 30
0.0
 11
158.774986603
 21
399.4246322567
 31
0.0
  0
LINE
  5
2B7
330
1F
100
AcDbEntity
  8
0
  6
Continuous
 62
     7
370
    15
100
AcDbLine
 10
216.7749867968
 20
399.4246322567
 30
0.0
 11
216.7749867968
 21
400.4450600499
 31
0.0
  0
ARC
  5
2B8
330
1F
100
AcDbEntity
  8
0
  6
Continuous
 62
     7
370
    15
100
AcDbCircle
 10
149.1749863646
 20
408.4506821302
 30
0.0
 40
12.50000000000002
100
AcDbArc
 50
320.1746287392
 51
39.8253712608
  0
ARC
  5
2B9
330
1F
100
AcDbEntity
  8
0
  6
Continuous
 62
     7
370
    15
100
AcDbCircle
 10
226.3749863646
 20
408.4506821302
 30
0.0
 40
12.50000000000005
100
AcDbArc
 50
140.1746287392
 51
219.8253712608
  0
LINE
  5
2BA
330
1F
100
AcDbEntity
  8
0
  6
Continuous
 62
     7
370
    15
100
AcDbLine
 10
158.774986603
 20
417.4246314818
 30
0.0
 11
158.774986603
 21
416.4563055987
 31
0.0
  0
LINE
  5
2BB
330
1F
100
AcDbEntity
  8
0
  6
Continuous
 62
     7
370
    15
100
AcDbLine
 10
216.7749867968
 20
416.4563055987
 30
0.0
 11
216.7749867968
 21
417.4246314818
 31
0.0
  0
LINE
  5
2BC
330
1F
100
AcDbEntity
  8
0
  6
Continuous
 62
     7
370
    15
100
AcDbLine
 10
172.8249860189
 20
437.424630802
 30
0.0
 11
172.8249860189
 21
435.424630707
 31
0.0
  0
LINE
  5
2BD
330
1F
100
AcDbEntity
  8
0
  6
Continuous
 62
     7
370
    15
100
AcDbLine
 10
202.8249863634
 20
435.424630707
 30
0.0
 11
202.8249863634
 21
437.424630802
 31
0.0
  0
LINE
  5
2BE
330
1F
100
AcDbEntity
  8
0
  6
Continuous
 62
     7
370
    15
100
AcDbLine
 10
202.8249863634
 20
437.424630802
 30
0.0
 11
200.8249864175
 21
439.424630897
 31
0.0
  0
LINE
  5
2BF
330
1F
100
AcDbEntity
  8
0
  6
Continuous
 62
     7
370
    15
100
AcDbLine
 10
174.8249863467
 20
439.424630897
 30
0.0
 11
172.8249860189
 21
437.424630802
 31
0.0
  0
LINE
  5
2C0
330
1F
100
AcDbEntity
  8
0
  6
Continuous
 62
     7
370
    15
100
AcDbLine
 10
182.8249857954
 20
429.4246306548
 30
0.0
 11
182.8249857954
 21
420.4246310422
 31
0.0
  0
LINE
  5
2C1
330
1F
100
AcDbEntity
  8
0
  6
Continuous
 62
     7
370
    15
100
AcDbLine
 10
192.8249865032
 20
420.4246310422
 30
0.0
 11
192.8249865032
 21
429.4246306548
 31
0.0
  0
LINE
  5
2C2
330
1F
100
AcDbEntity
  8
0
  6
Continuous
 62
     7
370
    15
100
AcDbLine
 10
202.7749863646
 20
397.4246319289
 30
0.0
 11
202.7749863646
 21
398.4246302301
 31
0.0
  0
LINE
  5
2C3
330
1F
100
AcDbEntity
  8
0
  6
Continuous
 62
     7
370
    15
100
AcDbLine
 10
172.7749870352
 20
398.4246302301
 30
0.0
 11
172.7749870352
 21
397.4246319289
 31
0.0
  0
LINE
  5
2C4
330
1F
100
AcDbEntity
  8
0
  6
Continuous
 62
     7
370
    15
100
AcDbLine
 10
172.7749870352
 20
397.4246319289
 30
0.0
 11
174.7749855004
 21
395.424631601
 31
0.0
  0
LINE
  5
2C5
330
1F
100
AcDbEntity
  8
0
  6
Continuous
 62
     7
370
    15
100
AcDbLine
 10
200.7749862696
 20
395.424631601
 30
0.0
 11
202.7749863646
 21
397.4246319289
 31
0.0
  0
LINE
  5
2C6
330
1F
100
AcDbEntity
  8
0
  6
Continuous
 62
     7
370
    15
100
AcDbLine
 10
197.5249864354
 20
398.4246302301
 30
0.0
 11
197.5249864354
 21
398.7946297879
 31
0.0
  0
LINE
  5
2C7
330
1F
100
AcDbEntity
  8
0
  6
Continuous
 62
     7
370
    15
100
AcDbLine
 10
178.0249864987
 20
398.7946297879
 30
0.0
 11
178.0249864987
 21
398.4246302301
 31
0.0
  0
LINE
  5
2C8
330
1F
100
AcDbEntity
  8
0
  6
Continuous
 62
     7
370
    15
100
AcDbLine
 10
197.3549865379
 20
399.2946308011
 30
0.0
 11
197.2249864794
 21
399.4246322567
 31
0.0
  0
LINE
  5
2C9
330
1F
100
AcDbEntity
  8
0
  6
Continuous
 62
     7
370
    15
100
AcDbLine
 10
178.3249859891
 20
399.4246322567
 30
0.0
 11
178.1949863962
 21
399.2946308011
 31
0.0
  0
LINE
  5
2CA
330
1F
100
AcDbEntity
  8
0
  6
Continuous
 62
     7
370
    15
100
AcDbLine
 10
172.7749870352
 20
425.1246305088
 30
0.0
 11
172.7749870352
 21
418.7246311361
 31
0.0
  0
LINE
  5
2CB
330
1F
100
AcDbEntity
  8
0
  6
Continuous
 62
     7
370
    15
100
AcDbLine
 10
202.7749863646
 20
418.7246311361
 30
0.0
 11
202.7749863646
 21
425.1246305088
 31
0.0
  0
LINE
  5
2CC
330
1F
100
AcDbEntity
  8
0
  6
Continuous
 62
     7
370
    15
100
AcDbLine
 10
172.7749870352
 20
418.7246311361
 30
0.0
 11
173.0749865256
 21
418.4246297831
 31
0.0
  0
LINE
  5
2CD
330
1F
100
AcDbEntity
  8
0
  6
Continuous
 62
     7
370
    15
100
AcDbLine
 10
202.4749863504
 20
418.4246297831
 30
0.0
 11
202.7749863646
 21
418.7246311361
 31
0.0
  0
LINE
  5
2CE
330
1F
100
AcDbEntity
  8
0
  6
Continuous
 62
     7
370
    15
100
AcDbLine
 10
202.7749863646
 20
425.1246305088
 30
0.0
 11
202.4749863504
 21
425.4246309305
 31
0.0
  0
LINE
  5
2CF
330
1F
100
AcDbEntity
  8
0
  6
Continuous
 62
     7
370
    15
100
AcDbLine
 10
173.0749865256
 20
425.4246309305
 30
0.0
 11
172.7749870352
 21
425.1246305088
 31
0.0
  0
LINE
  5
2D0
330
1F
100
AcDbEntity
  8
0
  6
Continuous
 62
     7
370
    15
100
AcDbLine
 10
178.0249864987
 20
418.4246297831
 30
0.0
 11
178.0249864987
 21
418.0546302254
 31
0.0
  0
LINE
  5
2D1
330
1F
100
AcDbEntity
  8
0
  6
Continuous
 62
     7
370
    15
100
AcDbLine
 10
197.5249864354
 20
418.0546302254
 30
0.0
 11
197.5249864354
 21
418.4246297831
 31
0.0
  0
LINE
  5
2D2
330
1F
100
AcDbEntity
  8
0
  6
Continuous
 62
     7
370
    15
100
AcDbLine
 10
178.1949863962
 20
417.5546310747
 30
0.0
 11
178.3249859891
 21
417.4246314818
 31
0.0
  0
LINE
  5
2D3
330
1F
100
AcDbEntity
  8
0
  6
Continuous
 62
     7
370
    15
100
AcDbLine
 10
197.2249864794
 20
417.4246314818
 30
0.0
 11
197.3549865379
 21
417.5546310747
 31
0.0
  0
LINE
  5
2D4
330
1F
100
AcDbEntity
  8
0
  6
Continuous
 62
     7
370
    15
100
AcDbLine
 10
182.8249857954
 20
400.4246305579
 30
0.0
 11
180.7749864838
 21
400.4246305579
 31
0.0
  0
LINE
  5
2D5
330
1F
100
AcDbEntity
  8
0
  6
Continuous
 62
     7
370
    15
100
AcDbLine
 10
194.7749859846
 20
400.4246305579
 30
0.0
 11
192.8249865032
 21
400.4246305579
 31
0.0
  0
LINE
  5
2D6
330
1F
100
AcDbEntity
  8
0
  6
Continuous
 62
     7
370
    15
100
AcDbLine
 10
192.8249865032
 20
412.4246306623
 30
0.0
 11
194.7749859846
 21
412.4246306623
 31
0.0
  0
LINE
  5
2D7
330
1F
100
AcDbEntity
  8
0
  6
Continuous
 62
     7
370
    15
100
AcDbLine
 10
180.7749864838
 20
412.4246306623
 30
0.0
 11
182.8249857954
 21
412.4246306623
 31
0.0
  0
LINE
  5
2D8
330
1F
100
AcDbEntity
  8
0
  6
Continuous
 62
     7
370
    15
100
AcDbLine
 10
182.8249857954
 20
422.9246305207
 30
0.0
 11
182.6749869815
 21
422.9246305207
 31
0.0
  0
LINE
  5
2D9
330
1F
100
AcDbEntity
  8
0
  6
Continuous
 62
     7
370
    15
100
AcDbLine
 10
192.8749864183
 20
422.9246305207
 30
0.0
 11
192.8249865032
 21
422.9246305207
 31
0.0
  0
LINE
  5
2DA
330
1F
100
AcDbEntity
  8
0
  6
Continuous
 62
     7
370
    15
100
AcDbLine
 10
182.8249857954
 20
412.9246298129
 30
0.0
 11
182.6749869815
 21
412.9246298129
 31
0.0
  0
LINE
  5
2DB
330
1F
100
AcDbEntity
  8
0
  6
Continuous
 62
     7
370
    15
100
AcDbLine
 10
192.8749864183
 20
412.9246298129
 30
0.0
 11
192.8249865032
 21
412.9246298129
 31
0.0
  0
LINE
  5
2DC
330
1F
100
AcDbEntity
  8
0
  6
Continuous
 62
     7
370
    15
100
AcDbLine
 10
182.8249857954
 20
423.4246306027
 30
0.0
 11
180.7749864838
 21
423.4246306027
 31
0.0
  0
LINE
  5
2DD
330
1F
100
AcDbEntity
  8
0
  6
Continuous
 62
     7
370
    15
100
AcDbLine
 10
194.7749859846
 20
423.4246306027
 30
0.0
 11
192.8249865032
 21
423.4246306027
 31
0.0
  0
LINE
  5
2DE
330
1F
100
AcDbEntity
  8
0
  6
Continuous
 62
     7
370
    15
100
AcDbLine
 10
172.8249860189
 20
437.424630802
 30
0.0
 11
172.7749870352
 21
437.424630802
 31
0.0
  0
LINE
  5
2DF
330
1F
100
AcDbEntity
  8
0
  6
Continuous
 62
     7
370
    15
100
AcDbLine
 10
174.7749855004
 20
439.424630897
 30
0.0
 11
174.8249863467
 21
439.424630897
 31
0.0
  0
LINE
  5
2E0
330
1F
100
AcDbEntity
  8
0
  6
Continuous
 62
     7
370
    15
100
AcDbLine
 10
172.8249860189
 20
387.4246302897
 30
0.0
 11
202.8249863634
 21
387.4246302897
 31
0.0
  0
LINE
  5
2E1
330
1F
100
AcDbEntity
  8
0
  6
Continuous
 62
     7
370
    15
100
AcDbLine
 10
200.8249864175
 20
385.4246299619
 30
0.0
 11
174.8249863467
 21
385.4246299619
 31
0.0
  0
LINE
  5
2E2
330
1F
100
AcDbEntity
  8
0
  6
Continuous
 62
     7
370
    15
100
AcDbLine
 10
172.8249860189
 20
389.4246306176
 30
0.0
 11
202.8249863634
 21
389.4246306176
 31
0.0
  0
LINE
  5
2E3
330
1F
100
AcDbEntity
  8
0
  6
Continuous
 62
     7
370
    15
100
AcDbLine
 10
182.8249857954
 20
396.9246309156
 30
0.0
 11
192.8249865032
 21
396.9246309156
 31
0.0
  0
LINE
  5
2E4
330
1F
100
AcDbEntity
  8
0
  6
Continuous
 62
     7
370
    15
100
AcDbLine
 10
192.8249865032
 20
418.6746302897
 30
0.0
 11
182.8249857954
 21
418.6746302897
 31
0.0
  0
LINE
  5
2E5
330
1F
100
AcDbEntity
  8
0
  6
Continuous
 62
     7
370
    15
100
AcDbLine
 10
192.8249865032
 20
398.6746307368
 30
0.0
 11
182.8249857954
 21
398.6746307368
 31
0.0
  0
LINE
  5
2E6
330
1F
100
AcDbEntity
  8
0
  6
Continuous
 62
     7
370
    15
100
AcDbLine
 10
172.7749870352
 20
425.6246305907
 30
0.0
 11
179.7749863199
 21
425.6246305907
 31
0.0
  0
LINE
  5
2E7
330
1F
100
AcDbEntity
  8
0
  6
Continuous
 62
     7
370
    15
100
AcDbLine
 10
195.7749861486
 20
425.6246305907
 30
0.0
 11
202.7749863646
 21
425.6246305907
 31
0.0
  0
LINE
  5
2E8
330
1F
100
AcDbEntity
  8
0
  6
Continuous
 62
     7
370
    15
100
AcDbLine
 10
202.5749863697
 20
425.4246309305
 30
0.0
 11
195.7749861486
 21
425.4246309305
 31
0.0
  0
LINE
  5
2E9
330
1F
100
AcDbEntity
  8
0
  6
Continuous
 62
     7
370
    15
100
AcDbLine
 10
179.7749863199
 20
425.4246309305
 30
0.0
 11
172.9749866954
 21
425.4246309305
 31
0.0
  0
LINE
  5
2EA
330
1F
100
AcDbEntity
  8
0
  6
Continuous
 62
     7
370
    15
100
AcDbLine
 10
202.7749863646
 20
429.2246305289
 30
0.0
 11
195.7749861486
 21
429.2246305289
 31
0.0
  0
LINE
  5
2EB
330
1F
100
AcDbEntity
  8
0
  6
Continuous
 62
     7
370
    15
100
AcDbLine
 10
179.7749863199
 20
429.2246305289
 30
0.0
 11
172.7749870352
 21
429.2246305289
 31
0.0
  0
LINE
  5
2EC
330
1F
100
AcDbEntity
  8
0
  6
Continuous
 62
     7
370
    15
100
AcDbLine
 10
166.836246588
 20
418.0546302254
 30
0.0
 11
158.8249874494
 21
418.0546302254
 31
0.0
  0
LINE
  5
2ED
330
1F
100
AcDbEntity
  8
0
  6
Continuous
 62
     7
370
    15
100
AcDbLine
 10
216.7249859504
 20
418.0546302254
 30
0.0
 11
192.8249865032
 21
418.0546302254
 31
0.0
  0
LINE
  5
2EE
330
1F
100
AcDbEntity
  8
0
  6
Continuous
 62
     7
370
    15
100
AcDbLine
 10
182.6749869815
 20
418.0546302254
 30
0.0
 11
166.836246588
 21
418.0546302254
 31
0.0
  0
LINE
  5
2EF
330
1F
100
AcDbEntity
  8
0
  6
Continuous
 62
     7
370
    15
100
AcDbLine
 10
166.836246588
 20
417.5546310747
 30
0.0
 11
158.8249874494
 21
417.5546310747
 31
0.0
  0
LINE
  5
2F0
330
1F
100
AcDbEntity
  8
0
  6
Continuous
 62
     7
370
    15
100
AcDbLine
 10
216.7249859504
 20
417.5546310747
 30
0.0
 11
192.8249865032
 21
417.5546310747
 31
0.0
  0
LINE
  5
2F1
330
1F
100
AcDbEntity
  8
0
  6
Continuous
 62
     7
370
    15
100
AcDbLine
 10
182.6749869815
 20
417.5546310747
 30
0.0
 11
166.836246588
 21
417.5546310747
 31
0.0
  0
LINE
  5
2F2
330
1F
100
AcDbEntity
  8
0
  6
Continuous
 62
     7
370
    15
100
AcDbLine
 10
167.2984806082
 20
398.7946297879
 30
0.0
 11
182.8249857954
 21
398.7946297879
 31
0.0
  0
LINE
  5
2F3
330
1F
100
AcDbEntity
  8
0
  6
Continuous
 62
     7
370
    15
100
AcDbLine
 10
192.8249865032
 20
398.7946297879
 30
0.0
 11
216.7249859504
 21
398.7946297879
 31
0.0
  0
LINE
  5
2F4
330
1F
100
AcDbEntity
  8
0
  6
Continuous
 62
     7
370
    15
100
AcDbLine
 10
158.8249874494
 20
398.7946297879
 30
0.0
 11
167.2984806082
 21
398.7946297879
 31
0.0
  0
LINE
  5
2F5
330
1F
100
AcDbEntity
  8
0
  6
Continuous
 62
     7
370
    15
100
AcDbLine
 10
167.2984806082
 20
399.2946308011
 30
0.0
 11
182.8249857954
 21
399.2946308011
 31
0.0
  0
LINE
  5
2F6
330
1F
100
AcDbEntity
  8
0
  6
Continuous
 62
     7
370
    15
100
AcDbLine
 10
192.8249865032
 20
399.2946308011
 30
0.0
 11
216.7249859504
 21
399.2946308011
 31
0.0
  0
LINE
  5
2F7
330
1F
100
AcDbEntity
  8
0
  6
Continuous
 62
     7
370
    15
100
AcDbLine
 10
158.8249874494
 20
399.2946308011
 30
0.0
 11
167.2984806082
 21
399.2946308011
 31
0.0
  0
LINE
  5
2F8
330
1F
100
AcDbEntity
  8
0
  6
Continuous
 62
     7
370
    15
100
AcDbLine
 10
165.4619050405
 20
399.4246322567
 30
0.0
 11
158.774986603
 21
399.4246322567
 31
0.0
  0
LINE
  5
2F9
330
1F
100
AcDbEntity
  8
0
  6
Continuous
 62
     7
370
    15
100
AcDbLine
 10
216.7749867968
 20
399.4246322567
 30
0.0
 11
192.8249865032
 21
399.4246322567
 31
0.0
  0
LINE
  5
2FA
330
1F
100
AcDbEntity
  8
0
  6
Continuous
 62
     7
370
    15
100
AcDbLine
 10
182.8249857954
 20
399.4246322567
 30
0.0
 11
165.4619050405
 21
399.4246322567
 31
0.0
  0
LINE
  5
2FB
330
1F
100
AcDbEntity
  8
0
  6
Continuous
 62
     7
370
    15
100
AcDbLine
 10
216.7749867968
 20
400.4450600499
 30
0.0
 11
194.9760822772
 21
400.4450600499
 31
0.0
  0
LINE
  5
2FC
330
1F
100
AcDbEntity
  8
0
  6
Continuous
 62
     7
370
    15
100
AcDbLine
 10
180.5738915882
 20
400.4450600499
 30
0.0
 11
158.774986603
 21
400.4450600499
 31
0.0
  0
LINE
  5
2FD
330
1F
100
AcDbEntity
  8
0
  6
Continuous
 62
     7
370
    15
100
AcDbLine
 10
165.4619050405
 20
416.4563055987
 30
0.0
 11
182.6749869815
 21
416.4563055987
 31
0.0
  0
LINE
  5
2FE
330
1F
100
AcDbEntity
  8
0
  6
Continuous
 62
     7
370
    15
100
AcDbLine
 10
192.8249865032
 20
416.4563055987
 30
0.0
 11
216.7749867968
 21
416.4563055987
 31
0.0
  0
LINE
  5
2FF
330
1F
100
AcDbEntity
  8
0
  6
Continuous
 62
     7
370
    15
100
AcDbLine
 10
158.774986603
 20
416.4563055987
 30
0.0
 11
165.4619050405
 21
416.4563055987
 31
0.0
  0
LINE
  5
300
330
1F
100
AcDbEntity
  8
0
  6
Continuous
 62
     7
370
    15
100
AcDbLine
 10
165.4619050405
 20
417.4246314818
 30
0.0
 11
158.774986603
 21
417.4246314818
 31
0.0
  0
LINE
  5
301
330
1F
100
AcDbEntity
  8
0
  6
Continuous
 62
     7
370
    15
100
AcDbLine
 10
216.7749867968
 20
417.4246314818
 30
0.0
 11
192.8249865032
 21
417.4246314818
 31
0.0
  0
LINE
  5
302
330
1F
100
AcDbEntity
  8
0
  6
Continuous
 62
     7
370
    15
100
AcDbLine
 10
182.6749869815
 20
417.4246314818
 30
0.0
 11
165.4619050405
 21
417.4246314818
 31
0.0
  0
LINE
  5
303
330
1F
100
AcDbEntity
  8
0
  6
Continuous
 62
     7
370
    15
100
AcDbLine
 10
173.2265369228
 20
437.424630802
 30
0.0
 11
172.8249860189
 21
437.424630802
 31
0.0
  0
LINE
  5
304
330
1F
100
AcDbEntity
  8
0
  6
Continuous
 62
     7
370
    15
100
AcDbLine
 10
202.8249863634
 20
437.424630802
 30
0.0
 11
173.2265369228
 21
437.424630802
 31
0.0
  0
LINE
  5
305
330
1F
100
AcDbEntity
  8
0
  6
Continuous
 62
     7
370
    15
100
AcDbLine
 10
202.8249863634
 20
435.424630707
 30
0.0
 11
202.7749863646
 21
435.424630707
 31
0.0
  0
LINE
  5
306
330
1F
100
AcDbEntity
  8
0
  6
Continuous
 62
     7
370
    15
100
AcDbLine
 10
175.1729955158
 20
439.424630897
 30
0.0
 11
200.8249864175
 21
439.424630897
 31
0.0
  0
LINE
  5
307
330
1F
100
AcDbEntity
  8
0
  6
Continuous
 62
     7
370
    15
100
AcDbLine
 10
174.8249863467
 20
439.424630897
 30
0.0
 11
175.1729955158
 21
439.424630897
 31
0.0
  0
LINE
  5
308
330
1F
100
AcDbEntity
  8
0
  6
Continuous
 62
     7
370
    15
100
AcDbLine
 10
182.9588354758
 20
420.4246310422
 30
0.0
 11
182.8249857954
 21
420.4246310422
 31
0.0
  0
LINE
  5
309
330
1F
100
AcDbEntity
  8
0
  6
Continuous
 62
     7
370
    15
100
AcDbLine
 10
192.8249865032
 20
420.4246310422
 30
0.0
 11
182.9588354758
 21
420.4246310422
 31
0.0
  0
LINE
  5
30A
330
1F
100
AcDbEntity
  8
0
  6
Continuous
 62
     7
370
    15
100
AcDbLine
 10
202.7749863646
 20
398.4246302301
 30
0.0
 11
191.8249863393
 21
398.4246302301
 31
0.0
  0
LINE
  5
30B
330
1F
100
AcDbEntity
  8
0
  6
Continuous
 62
     7
370
    15
100
AcDbLine
 10
183.8249859593
 20
398.4246302301
 30
0.0
 11
172.7749870352
 21
398.4246302301
 31
0.0
  0
LINE
  5
30C
330
1F
100
AcDbEntity
  8
0
  6
Continuous
 62
     7
370
    15
100
AcDbLine
 10
173.0369680754
 20
397.4246319289
 30
0.0
 11
183.8249859593
 21
397.4246319289
 31
0.0
  0
LINE
  5
30D
330
1F
100
AcDbEntity
  8
0
  6
Continuous
 62
     7
370
    15
100
AcDbLine
 10
191.8249863393
 20
397.4246319289
 30
0.0
 11
202.7749863646
 21
397.4246319289
 31
0.0
  0
LINE
  5
30E
330
1F
100
AcDbEntity
  8
0
  6
Continuous
 62
     7
370
    15
100
AcDbLine
 10
172.7749870352
 20
397.4246319289
 30
0.0
 11
173.0369680754
 21
397.4246319289
 31
0.0
  0
LINE
  5
30F
330
1F
100
AcDbEntity
  8
0
  6
Continuous
 62
     7
370
    15
100
AcDbLine
 10
175.0020363561
 20
395.424631601
 30
0.0
 11
174.7749855004
 21
395.424631601
 31
0.0
  0
LINE
  5
310
330
1F
100
AcDbEntity
  8
0
  6
Continuous
 62
     7
370
    15
100
AcDbLine
 10
200.7749862696
 20
395.424631601
 30
0.0
 11
192.8249865032
 21
395.424631601
 31
0.0
  0
LINE
  5
311
330
1F
100
AcDbEntity
  8
0
  6
Continuous
 62
     7
370
    15
100
AcDbLine
 10
182.8249857954
 20
395.424631601
 30
0.0
 11
175.0020363561
 21
395.424631601
 31
0.0
  0
LINE
  5
312
330
1F
100
AcDbEntity
  8
0
  6
Continuous
 62
     7
370
    15
100
AcDbLine
 10
172.7749870352
 20
418.7246311361
 30
0.0
 11
182.6749869815
 21
418.7246311361
 31
0.0
  0
LINE
  5
313
330
1F
100
AcDbEntity
  8
0
  6
Continuous
 62
     7
370
    15
100
AcDbLine
 10
192.8749864183
 20
418.7246311361
 30
0.0
 11
202.7749863646
 21
418.7246311361
 31
0.0
  0
LINE
  5
314
330
1F
100
AcDbEntity
  8
0
  6
Continuous
 62
     7
370
    15
100
AcDbLine
 10
202.7749863646
 20
425.1246305088
 30
0.0
 11
195.7749861486
 21
425.1246305088
 31
0.0
  0
LINE
  5
315
330
1F
100
AcDbEntity
  8
0
  6
Continuous
 62
     7
370
    15
100
AcDbLine
 10
179.7749863199
 20
425.1246305088
 30
0.0
 11
172.7749870352
 21
425.1246305088
 31
0.0
  0
LINE
  5
316
330
1F
100
AcDbEntity
  8
0
  6
Continuous
 62
     7
370
    15
100
AcDbLine
 10
202.4749863504
 20
418.4246297831
 30
0.0
 11
192.8249865032
 21
418.4246297831
 31
0.0
  0
LINE
  5
317
330
1F
100
AcDbEntity
  8
0
  6
Continuous
 62
     7
370
    15
100
AcDbLine
 10
182.6749869815
 20
418.4246297831
 30
0.0
 11
173.0749865256
 21
418.4246297831
 31
0.0
  0
LINE
  5
318
330
1F
100
AcDbEntity
  8
0
  6
Continuous
 62
     7
370
    15
100
AcDbLine
 10
202.7749863646
 20
429.4246306548
 30
0.0
 11
202.7749863646
 21
435.424630707
 31
0.0
  0
LINE
  5
319
330
1F
100
AcDbEntity
  8
0
  6
Continuous
 62
     7
370
    15
100
AcDbLine
 10
202.7749863646
 20
429.4246306548
 30
0.0
 11
172.7749870352
 21
429.4246306548
 31
0.0
  0
LINE
  5
31A
330
1F
100
AcDbEntity
  8
0
  6
Continuous
 62
     7
370
    15
100
AcDbLine
 10
172.7749870352
 20
429.4246306548
 30
0.0
 11
172.7749870352
 21
435.424630707
 31
0.0
  0
LINE
  5
31B
330
1F
100
AcDbEntity
  8
0
  6
Continuous
 62
     7
370
    15
100
AcDbLine
 10
202.7749863646
 20
435.424630707
 30
0.0
 11
172.7749870352
 21
435.424630707
 31
0.0
  0
SPLINE
  5
31C
330
1F
100
AcDbEntity
  8
0
  6
Continuous
 62
     7
370
    15
100
AcDbSpline
210
0.0
220
0.0
230
1.0
 70
    11
 71
     3
 72
    58
 73
    54
 74
     0
 42
0.000000001
 43
0.00000001
 40
0.0
 40
0.0
 40
0.0
 40
0.0
 40
0.0312499999999997
 40
0.0312499999999997
 40
0.0624999999999994
 40
0.0624999999999994
 40
0.0937499999999991
 40
0.0937499999999991
 40
0.1249999999999988
 40
0.1249999999999988
 40
0.1874999999999983
 40
0.1874999999999983
 40
0.2499999999999977
 40
0.2499999999999977
 40
0.2812499999999974
 40
0.2812499999999974
 40
0.3124999999999972
 40
0.3124999999999972
 40
0.3437499999999969
 40
0.3437499999999969
 40
0.3749999999999968
 40
0.3749999999999968
 40
0.4062499999999967
 40
0.4062499999999967
 40
0.4374999999999966
 40
0.4374999999999966
 40
0.4687499999999964
 40
0.4687499999999964
 40
0.4999999999999963
 40
0.4999999999999963
 40
0.5624999999999961
 40
0.5624999999999961
 40
0.6249999999999962
 40
0.6249999999999962
 40
0.6562499999999968
 40
0.6562499999999968
 40
0.6874999999999972
 40
0.6874999999999972
 40
0.7187499999999978
 40
0.7187499999999978
 40
0.7499999999999982
 40
0.7499999999999982
 40
0.7812499999999987
 40
0.7812499999999987
 40
0.8124999999999992
 40
0.8124999999999992
 40
0.8437499999999997
 40
0.8437499999999997
 40
0.8750000000000001
 40
0.8750000000000001
 40
0.9375000000000003
 40
0.9375000000000003
 40
1.0
 40
1.0
 40
1.0
 40
1.0
 10
187.774986364628
 20
434.074630706961
 30
0.0
 10
187.884081634583
 20
434.074630706961
 30
0.0
 10
187.9913374354339
 20
434.0639175610415
 30
0.0
 10
188.2023255649618
 20
434.0219567174103
 30
0.0
 10
188.307157438834
 20
433.9901937497131
 30
0.0
 10
188.5069349220771
 20
433.9073461221035
 30
0.0
 10
188.6016736944737
 20
433.8566603683035
 30
0.0
 10
188.7809699686254
 20
433.7369255978984
 30
0.0
 10
188.8657979390065
 20
433.6672875213154
 30
0.0
 10
189.0939105295022
 20
433.439126859516
 30
0.0
 10
189.2168164512373
 20
433.2551757376927
 30
0.0
 10
189.3814487675926
 20
432.8581714715797
 30
0.0
 10
189.4248676443762
 20
432.640929516509
 30
0.0
 10
189.4250453503756
 20
432.3178426148232
 30
0.0
 10
189.4143175199547
 20
432.2084392284247
 30
0.0
 10
189.3721944978282
 20
431.9967620688769
 30
0.0
 10
189.3410285316419
 20
431.8938697759642
 30
0.0
 10
189.2583545649699
 20
431.694004936164
 30
0.0
 10
189.2067278057715
 20
431.597489067508
 30
0.0
 10
189.0873541093382
 20
431.4187789541421
 30
0.0
 10
189.0191744758249
 20
431.3354308772792
 30
0.0
 10
188.8652236265036
 20
431.1813515597697
 30
0.0
 10
188.7819720163662
 20
431.1131339545879
 30
0.0
 10
188.6033894995003
 20
430.9936198473148
 30
0.0
 10
188.5069200513814
 20
430.9419077698969
 30
0.0
 10
188.3071370233512
 20
430.8590605532085
 30
0.0
 10
188.2042923477064
 20
430.8278109089433
 30
0.0
 10
187.9927295980733
 20
430.7855074721989
 30
0.0
 10
187.8833150983531
 20
430.7746707176791
 30
0.0
 10
187.5601623284305
 20
430.7745510250673
 30
0.0
 10
187.3429192095976
 20
430.8177639753755
 30
0.0
 10
186.9456675319579
 20
430.9820867758064
 30
0.0
 10
186.7616316576904
 20
431.1048254220308
 30
0.0
 10
186.5332511152346
 20
431.3327689902292
 30
0.0
 10
186.4635363069847
 20
431.4175483797345
 30
0.0
 10
186.3436737624211
 20
431.5967054070285
 30
0.0
 10
186.2929144960199
 20
431.6913824894345
 30
0.0
 10
186.2099028184741
 20
431.8910545963792
 30
0.0
 10
186.1780406147825
 20
431.9958746527446
 30
0.0
 10
186.135894681196
 20
432.2068098280698
 30
0.0
 10
186.1250890705321
 20
432.3140330169336
 30
0.0
 10
186.124885101712
 20
432.5321423445993
 30
0.0
 10
186.135505688644
 20
432.6395075827829
 30
0.0
 10
186.1772762675791
 20
432.8505314048661
 30
0.0
 10
186.2089329478571
 20
432.9553614709134
 30
0.0
 10
186.2916161726142
 20
433.1552546330886
 30
0.0
 10
186.3422221953189
 20
433.2500432749831
 30
0.0
 10
186.4617871102282
 20
433.4294325732753
 30
0.0
 10
186.5313526121888
 20
433.5143290624291
 30
0.0
 10
186.759325299857
 20
433.7426603978144
 30
0.0
 10
186.9431613611218
 20
433.8657229970055
 30
0.0
 10
187.3400228174461
 20
434.030708705536
 30
0.0
 10
187.5567958247179
 20
434.074630706961
 30
0.0
 10
187.774986364628
 20
434.074630706961
 30
0.0
  0
LINE
  5
31D
330
1F
100
AcDbEntity
  8
0
  6
Continuous
 62
     8
370
    15
100
AcDbLine
 10
192.8249865032
 20
401.4246288592
 30
0.0
 11
195.7749861486
 21
401.4246288592
 31
0.0
  0
LINE
  5
31E
330
1F
100
AcDbEntity
  8
0
  6
Continuous
 62
     8
370
    15
100
AcDbLine
 10
179.7749863199
 20
401.4246288592
 30
0.0
 11
182.8249857954
 21
401.4246288592
 31
0.0
  0
LINE
  5
31F
330
1F
100
AcDbEntity
  8
0
  6
Continuous
 62
     8
370
    15
100
AcDbLine
 10
182.8249857954
 20
411.4246304983
 30
0.0
 11
179.7749863199
 21
411.4246304983
 31
0.0
  0
LINE
  5
320
330
1F
100
AcDbEntity
  8
0
  6
Continuous
 62
     8
370
    15
100
AcDbLine
 10
195.7749861486
 20
411.4246304983
 30
0.0
 11
192.8249865032
 21
411.4246304983
 31
0.0
  0
LINE
  5
321
330
1F
100
AcDbEntity
  8
0
  6
Continuous
 62
     8
370
    15
100
AcDbLine
 10
192.8249865032
 20
424.4246307666
 30
0.0
 11
195.7749861486
 21
424.4246307666
 31
0.0
  0
LINE
  5
322
330
1F
100
AcDbEntity
  8
0
  6
Continuous
 62
     8
370
    15
100
AcDbLine
 10
179.7749863199
 20
424.4246307666
 30
0.0
 11
182.8249857954
 21
424.4246307666
 31
0.0
  0
LINE
  5
323
330
1F
100
AcDbEntity
  8
0
  6
Continuous
 62
     7
370
    15
100
AcDbLine
 10
314.6962413456
 20
211.6327500244
 30
0.0
 11
315.0200009236
 21
211.4152519534
 31
0.0
  0
SPLINE
  5
324
330
1F
100
AcDbEntity
  8
0
  6
Continuous
 62
     7
370
    15
100
AcDbSpline
210
0.0
220
0.0
230
1.0
 70
     8
 71
     3
 72
    13
 73
     9
 74
     0
 42
0.000000001
 43
0.00000001
 40
0.0
 40
0.0
 40
0.0
 40
0.0
 40
0.1154044700018764
 40
0.3329474787092861
 40
0.5497326171137368
 40
0.7384816192850964
 40
0.9400614763093722
 40
1.0
 40
1.0
 40
1.0
 40
1.0
 10
315.0200009235646
 20
211.4152519534484
 30
0.0
 10
315.2036784825572
 20
211.3153320279032
 30
0.0
 10
315.7335971257523
 20
211.0270582090246
 30
0.0
 10
316.6226578473093
 20
210.7132149225467
 30
0.0
 10
317.6274507108057
 20
210.5676407537472
 30
0.0
 10
318.5671482253715
 20
210.6684934649597
 30
0.0
 10
319.2429565480199
 20
210.8719960918236
 30
0.0
 10
319.5621554008214
 20
211.113322329688
 30
0.0
 10
319.6353139602633
 20
211.1686329292178
 30
0.0
  0
LINE
  5
325
330
1F
100
AcDbEntity
  8
0
  6
Continuous
 62
     7
370
    15
100
AcDbLine
 10
319.5196346905
 20
211.0686940541
 30
0.0
 11
326.5907036614
 21
215.1507352824
 31
0.0
  0
LINE
  5
326
330
1F
100
AcDbEntity
  8
0
  6
Continuous
 62
     7
370
    15
100
AcDbLine
 10
318.5913543034
 20
229.0075128693
 30
0.0
 11
313.3986399788
 21
226.0098226973
 31
0.0
  0
SPLINE
  5
327
330
1F
100
AcDbEntity
  8
0
  6
Continuous
 62
     7
370
    15
100
AcDbSpline
210
0.0
220
0.0
230
1.0
 70
     8
 71
     3
 72
    26
 73
    22
 74
     0
 42
0.000000001
 43
0.00000001
 40
0.0
 40
0.0
 40
0.0
 40
0.0
 40
0.0475332977603049
 40
0.0979041525975757
 40
0.1490535654627039
 40
0.2020590122723658
 40
0.2568905744633732
 40
0.3127398418113135
 40
0.368761928963681
 40
0.4246299379995447
 40
0.4803492389127134
 40
0.5360170893682473
 40
0.5917546014541104
 40
0.6476641575457346
 40
0.7038879183870024
 40
0.7605439141488938
 40
0.8176281732245957
 40
0.8745645799742129
 40
0.9244046827481891
 40
0.9777179924498942
 40
1.0
 40
1.0
 40
1.0
 40
1.0
 10
326.5317448301843
 20
215.1259806653125
 30
0.0
 10
326.7664475341551
 20
215.2751860323337
 30
0.0
 10
327.2498638008005
 20
215.5825037592643
 30
0.0
 10
327.8074332426945
 20
216.2791045977828
 30
0.0
 10
328.227970599964
 20
217.1226996510794
 30
0.0
 10
328.4838447342478
 20
218.1092712131898
 30
0.0
 10
328.5703943203862
 20
219.218634009648
 30
0.0
 10
328.4800589693724
 20
220.4224973862107
 30
0.0
 10
328.2155761965378
 20
221.6793130690367
 30
0.0
 10
327.7877456786895
 20
222.9474834558584
 30
0.0
 10
327.2116076442801
 20
224.1896070573813
 30
0.0
 10
326.5044851832582
 20
225.3713391402811
 30
0.0
 10
325.6857544073792
 20
226.4599128188423
 30
0.0
 10
324.776224315843
 20
227.4247812154208
 30
0.0
 10
323.7972861713121
 20
228.2375914605618
 30
0.0
 10
322.7699097358616
 20
228.8723382208235
 30
0.0
 10
321.7186527189589
 20
229.3010528869934
 30
0.0
 10
320.7066790862432
 20
229.4954710868841
 30
0.0
 10
319.7490514670486
 20
229.4494042570431
 30
0.0
 10
319.019816624981
 20
229.2682494065862
 30
0.0
 10
318.654527985245
 20
229.0199752774387
 30
0.0
 10
318.5468577680349
 20
228.9467955326969
 30
0.0
  0
LINE
  5
328
330
1F
100
AcDbEntity
  8
0
  6
Continuous
 62
     7
370
    15
100
AcDbLine
 10
313.3986399788
 20
210.8836623801
 30
0.0
 11
317.0090931216
 21
212.9679326146
 31
0.0
  0
LINE
  5
329
330
1F
100
AcDbEntity
  8
0
  6
Continuous
 62
     7
370
    15
100
AcDbLine
 10
286.5285820052
 20
213.5068349299
 30
0.0
 11
286.5285808528
 21
211.874019294
 31
0.0
  0
LINE
  5
32A
330
1F
100
AcDbEntity
  8
0
  6
Continuous
 62
     7
370
    15
100
AcDbLine
 10
295.7194756189
 20
195.9532009508
 30
0.0
 11
297.1334594164
 21
195.136662931
 31
0.0
  0
LINE
  5
32B
330
1F
100
AcDbEntity
  8
0
  6
Continuous
 62
     7
370
    15
100
AcDbLine
 10
304.6345737561
 20
194.393045478
 30
0.0
 11
306.0487873857
 21
195.2094536286
 31
0.0
  0
LINE
  5
32C
330
1F
100
AcDbEntity
  8
0
  6
Continuous
 62
     7
370
    15
100
AcDbLine
 10
291.0500061868
 20
221.1909175927
 30
0.0
 11
289.6357925572
 21
220.3745094421
 31
0.0
  0
LINE
  5
32D
330
1F
100
AcDbEntity
  8
0
  6
Continuous
 62
     7
370
    15
100
AcDbLine
 10
325.0264879163
 20
183.6064630742
 30
0.0
 11
323.6122741221
 21
182.7900548286
 31
0.0
  0
LINE
  5
32E
330
1F
100
AcDbEntity
  8
0
  6
Continuous
 62
     7
370
    15
100
AcDbLine
 10
338.6110546625
 20
156.8085882028
 30
0.0
 11
340.0252684566
 21
157.6249964485
 31
0.0
  0
LINE
  5
32F
330
1F
100
AcDbEntity
  8
0
  6
Continuous
 62
     7
370
    15
100
AcDbLine
 10
343.1324797264
 20
164.4926705463
 30
0.0
 11
343.1324799965
 21
166.1254868817
 31
0.0
  0
LINE
  5
330
330
1F
100
AcDbEntity
  8
0
  6
Continuous
 62
     7
370
    15
100
AcDbLine
 10
333.9415855596
 20
182.0463080767
 30
0.0
 11
332.5276015975
 21
182.8628460014
 31
0.0
  0
LINE
  5
331
330
1F
100
AcDbEntity
  8
0
  6
Continuous
 62
     7
370
    15
100
AcDbLine
 10
328.6118676356
 20
174.1295649394
 30
0.0
 11
323.3085665659
 21
171.0680343984
 31
0.0
  0
LINE
  5
332
330
1F
100
AcDbEntity
  8
0
  6
Continuous
 62
     7
370
    15
100
AcDbLine
 10
328.3081600794
 20
162.4075475511
 30
0.0
 11
333.611461149
 21
165.469078092
 31
0.0
  0
LINE
  5
333
330
1F
100
AcDbEntity
  8
0
  6
Continuous
 62
     7
370
    15
100
AcDbLine
 10
325.0264879163
 20
138.6967186638
 30
0.0
 11
323.6122741221
 21
137.8803104182
 31
0.0
  0
LINE
  5
334
330
1F
100
AcDbEntity
  8
0
  6
Continuous
 62
     7
370
    15
100
AcDbLine
 10
338.6110546625
 20
111.8988445529
 30
0.0
 11
340.0252684566
 21
112.7152527986
 31
0.0
  0
LINE
  5
335
330
1F
100
AcDbEntity
  8
0
  6
Continuous
 62
     7
370
    15
100
AcDbLine
 10
343.1324797264
 20
119.5829249953
 30
0.0
 11
343.1324799965
 21
121.2157413306
 31
0.0
  0
LINE
  5
336
330
1F
100
AcDbEntity
  8
0
  6
Continuous
 62
     7
370
    15
100
AcDbLine
 10
333.9415855596
 20
137.1365621454
 30
0.0
 11
332.5276015975
 21
137.953103112
 31
0.0
  0
LINE
  5
337
330
1F
100
AcDbEntity
  8
0
  6
Continuous
 62
     7
370
    15
100
AcDbLine
 10
328.6118676356
 20
129.2198216697
 30
0.0
 11
323.3085665659
 21
126.1582911287
 31
0.0
  0
LINE
  5
338
330
1F
100
AcDbEntity
  8
0
  6
Continuous
 62
     7
370
    15
100
AcDbLine
 10
328.3081600794
 20
117.4978026416
 30
0.0
 11
333.611461149
 21
120.5593331826
 31
0.0
  0
LINE
  5
339
330
1F
100
AcDbEntity
  8
0
  6
Continuous
 62
     7
370
    15
100
AcDbLine
 10
286.5285820052
 20
262.4992855899
 30
0.0
 11
286.5285808528
 21
260.866469954
 31
0.0
  0
LINE
  5
33A
330
1F
100
AcDbEntity
  8
0
  6
Continuous
 62
     7
370
    15
100
AcDbLine
 10
295.7194756189
 20
244.9456516107
 30
0.0
 11
297.1334594164
 21
244.1291075072
 31
0.0
  0
LINE
  5
33B
330
1F
100
AcDbEntity
  8
0
  6
Continuous
 62
     7
370
    15
100
AcDbLine
 10
304.6345737561
 20
243.3854900543
 30
0.0
 11
306.0487873857
 21
244.2018982049
 31
0.0
  0
LINE
  5
33C
330
1F
100
AcDbEntity
  8
0
  6
Continuous
 62
     7
370
    15
100
AcDbLine
 10
291.0500061868
 20
270.1833682526
 30
0.0
 11
289.6357925572
 21
269.366960102
 31
0.0
  0
LINE
  5
33D
330
1F
100
AcDbEntity
  8
0
  6
Continuous
 62
     7
370
    15
100
AcDbLine
 10
313.3986399788
 20
108.8907198944
 30
0.0
 11
327.0707233388
 21
116.7834456168
 31
0.0
  0
LINE
  5
33E
330
1F
100
AcDbEntity
  8
0
  6
Continuous
 62
     7
370
    15
100
AcDbLine
 10
322.0711298253
 20
125.4439341039
 30
0.0
 11
313.3986399788
 21
120.4374122823
 31
0.0
  0
LINE
  5
33F
330
1F
100
AcDbEntity
  8
0
  6
Continuous
 62
     7
370
    15
100
AcDbLine
 10
313.3986399788
 20
153.8004648039
 30
0.0
 11
327.0707233388
 21
161.6931905262
 31
0.0
  0
LINE
  5
340
330
1F
100
AcDbEntity
  8
0
  6
Continuous
 62
     7
370
    15
100
AcDbLine
 10
322.0711298253
 20
170.3536773735
 30
0.0
 11
313.3986399788
 21
165.3471555519
 31
0.0
  0
LINE
  5
341
330
1F
100
AcDbEntity
  8
0
  6
Continuous
 62
     7
370
    15
100
AcDbLine
 10
297.9796527246
 20
274.183768048
 30
0.0
 11
295.4340683561
 21
272.714233472
 31
0.0
  0
LINE
  5
342
330
1F
100
AcDbEntity
  8
0
  6
Continuous
 62
     7
370
    15
100
AcDbLine
 10
316.085645134
 20
255.0699721322
 30
0.0
 11
316.0856448974
 21
255.2332536138
 31
0.0
  0
LINE
  5
343
330
1F
100
AcDbEntity
  8
0
  6
Continuous
 62
     7
370
    15
100
AcDbLine
 10
305.6221651312
 20
273.3584936467
 30
0.0
 11
305.4807670643
 21
273.440150595
 31
0.0
  0
LINE
  5
344
330
1F
100
AcDbEntity
  8
0
  6
Continuous
 62
     7
370
    15
100
AcDbLine
 10
325.3056656774
 20
239.2110211607
 30
0.0
 11
325.6592184674
 21
239.4151228419
 31
0.0
  0
LINE
  5
345
330
1F
100
AcDbEntity
  8
0
  6
Continuous
 62
     7
370
    15
100
AcDbLine
 10
296.7115712738
 20
289.5593560835
 30
0.0
 11
296.3580184838
 21
289.3552544023
 31
0.0
  0
LINE
  5
346
330
1F
100
AcDbEntity
  8
0
  6
Continuous
 62
     7
370
    15
100
AcDbLine
 10
325.7761400813
 20
239.4248970654
 30
0.0
 11
326.4608498797
 21
239.8201716184
 31
0.0
  0
LINE
  5
347
330
1F
100
AcDbEntity
  8
0
  6
Continuous
 62
     7
370
    15
100
AcDbLine
 10
297.4632063164
 20
290.0510014926
 30
0.0
 11
296.778496518
 21
289.6557269397
 31
0.0
  0
LINE
  5
348
330
1F
100
AcDbEntity
  8
0
  6
Continuous
 62
     7
370
    15
100
AcDbLine
 10
337.7825101825
 20
246.3560269916
 30
0.0
 11
338.5040615948
 21
246.7725697555
 31
0.0
  0
LINE
  5
349
330
1F
100
AcDbEntity
  8
0
  6
Continuous
 62
     7
370
    15
100
AcDbLine
 10
309.5064180315
 20
297.0033996298
 30
0.0
 11
308.7848666191
 21
296.5868568658
 31
0.0
  0
LINE
  5
34A
330
1F
100
AcDbEntity
  8
0
  6
Continuous
 62
     7
370
    15
100
AcDbLine
 10
286.5639366257
 20
156.3285893596
 30
0.0
 11
286.5639367903
 21
154.6957729634
 31
0.0
  0
LINE
  5
34B
330
1F
100
AcDbEntity
  8
0
  6
Continuous
 62
     7
370
    15
100
AcDbLine
 10
295.7548308979
 20
138.7749519584
 30
0.0
 11
297.1688146954
 21
137.9584108968
 31
0.0
  0
LINE
  5
34C
330
1F
100
AcDbEntity
  8
0
  6
Continuous
 62
     7
370
    15
100
AcDbLine
 10
304.6699290351
 20
137.2147934438
 30
0.0
 11
306.0841426647
 21
138.0312015944
 31
0.0
  0
LINE
  5
34D
330
1F
100
AcDbEntity
  8
0
  6
Continuous
 62
     7
370
    15
100
AcDbLine
 10
291.0853621243
 20
164.0126682202
 30
0.0
 11
289.6711484948
 21
163.1962600696
 31
0.0
  0
LINE
  5
34E
330
1F
100
AcDbEntity
  8
0
  6
Continuous
 62
     7
370
    15
100
AcDbLine
 10
286.5639366257
 20
111.4188438085
 30
0.0
 11
286.5639367903
 21
109.7860274123
 31
0.0
  0
LINE
  5
34F
330
1F
100
AcDbEntity
  8
0
  6
Continuous
 62
     7
370
    15
100
AcDbLine
 10
295.7548308979
 20
93.8652067876
 30
0.0
 11
297.1688146954
 21
93.048665726
 31
0.0
  0
LINE
  5
350
330
1F
100
AcDbEntity
  8
0
  6
Continuous
 62
     7
370
    15
100
AcDbLine
 10
304.6699290351
 20
92.3050497939
 30
0.0
 11
306.0841426647
 21
93.1214579445
 31
0.0
  0
LINE
  5
351
330
1F
100
AcDbEntity
  8
0
  6
Continuous
 62
     7
370
    15
100
AcDbLine
 10
291.0853621243
 20
119.1029238098
 30
0.0
 11
289.6711484948
 21
118.2865156592
 31
0.0
  0
LINE
  5
352
330
1F
100
AcDbEntity
  8
0
  6
Continuous
 62
     7
370
    15
100
AcDbLine
 10
313.3986393202
 20
248.4448774123
 30
0.0
 11
317.857470328
 21
251.0189057634
 31
0.0
  0
LINE
  5
353
330
1F
100
AcDbEntity
  8
0
  6
Continuous
 62
     7
370
    15
100
AcDbLine
 10
302.8586891292
 20
277.0003758112
 30
0.0
 11
298.3332061732
 21
274.3878701094
 31
0.0
  0
LINE
  5
354
330
1F
100
AcDbEntity
  8
0
  6
Continuous
 62
     7
370
    15
100
AcDbLine
 10
320.9646815386
 20
257.8865798954
 30
0.0
 11
320.9646824852
 21
258.1315028871
 31
0.0
  0
LINE
  5
355
330
1F
100
AcDbEntity
  8
0
  6
Continuous
 62
     7
370
    15
100
AcDbLine
 10
310.5719022156
 20
276.1342856733
 30
0.0
 11
310.3598034688
 21
276.2567583582
 31
0.0
  0
LINE
  5
356
330
1F
100
AcDbEntity
  8
0
  6
Continuous
 62
     7
370
    15
100
AcDbLine
 10
295.2926469108
 20
272.6325926094
 30
0.0
 11
291.0500061868
 21
270.1833682526
 31
0.0
  0
LINE
  5
357
330
1F
100
AcDbEntity
  8
0
  6
Continuous
 62
     7
370
    15
100
AcDbLine
 10
306.0487873857
 20
89.8756906414
 30
0.0
 11
310.2914281097
 21
92.3249149982
 31
0.0
  0
LINE
  5
358
330
1F
100
AcDbEntity
  8
0
  6
Continuous
 62
     7
370
    15
100
AcDbLine
 10
319.6227904194
 20
211.1313955339
 30
0.0
 11
319.5196346905
 21
211.0686940541
 31
0.0
  0
LWPOLYLINE
  5
359
330
1F
100
AcDbEntity
  8
0
  6
Continuous
 62
     7
370
    15
100
AcDbPolyline
 90
       13
 70
   128
 43
0.0
 10
313.3986399788
 20
221.9772456192
 10
314.0406405316
 20
221.7626614068
 10
314.8779594586
 20
221.2792874791
 10
315.6927080897
 20
220.5859632189
 10
316.4409641404
 20
219.7200658185
 10
317.0823871497
 20
218.7282569178
 10
317.5823995798
 20
217.6640310763
 10
317.9140445696
 20
216.5847451989
 10
318.0594432944
 20
215.5485992553
 10
318.0107577575
 20
214.6114279768
 10
317.7706122587
 20
213.8237807186
 10
317.3519524659
 20
213.2281069738
 10
317.0090931216
 20
212.9679326146
  0
LWPOLYLINE
  5
35A
330
1F
100
AcDbEntity
  8
0
  6
Continuous
 62
     7
370
    15
100
AcDbPolyline
 90
       38
 70
   128
 43
0.0
 10
286.5285820052
 20
213.5068349299
 10
286.5345049545
 20
213.9126907284
 10
286.6763290998
 20
215.45876768
 10
287.004791344
 20
216.8607445404
 10
287.5140306412
 20
218.0936060935
 10
288.1949603941
 20
219.1353550975
 10
289.0354291395
 20
219.9673940526
 10
290.0204365506
 20
220.5748750343
 10
291.1324073915
 20
220.9469674019
 10
292.3514983993
 20
221.0770091593
 10
293.6559538974
 20
220.9627031883
 10
295.0224969717
 20
220.6060861056
 10
296.4267404021
 20
220.0135100509
 10
297.8436259113
 20
219.195559457
 10
299.2478693416
 20
218.1668305575
 10
300.614412416
 20
216.9456705905
 10
301.9188679141
 20
215.5538843014
 10
303.1379585926
 20
214.0163102167
 10
304.2499297628
 20
212.3603634537
 10
305.2349379971
 20
210.6156166473
 10
306.0754059193
 20
208.8131936092
 10
306.7563352606
 20
206.9852600845
 10
307.2655750517
 20
205.1644430688
 10
307.5940376972
 20
203.3832315417
 10
307.7358618553
 20
201.6734079101
 10
307.6885166494
 20
200.0654889841
 10
307.4528469586
 20
198.5881644655
 10
307.0330582971
 20
197.2677885623
 10
306.4366418658
 20
196.1279426424
 10
305.6742406907
 20
195.18895281
 10
304.7594598073
 20
194.4675857918
 10
303.7086236287
 20
193.9767023095
 10
302.5404838803
 20
193.72507283
 10
301.2758867885
 20
193.717180337
 10
299.9373983687
 20
193.9531689644
 10
298.5489046888
 20
194.4288253274
 10
297.135183486
 20
195.1356676469
 10
297.135183486
 20
195.1356676469
  0
LWPOLYLINE
  5
35B
330
1F
100
AcDbEntity
  8
0
  6
Continuous
 62
     7
370
    15
100
AcDbPolyline
 90
       45
 70
   128
 43
0.0
 10
295.7209698564
 20
195.9523383459
 10
297.0291830095
 20
195.3051695354
 10
298.3107646227
 20
194.8872656203
 10
299.5396257967
 20
194.7071352532
 10
300.6907497429
 20
194.7684460807
 10
301.7407038012
 20
195.0699481745
 10
302.668112934
 20
195.6055048748
 10
303.4540986459
 20
196.3642105129
 10
304.0826599517
 20
197.3306267612
 10
304.5410014963
 20
198.4850799094
 10
304.8197925271
 20
199.8040588964
 10
304.9133577076
 20
201.2607135263
 10
304.8197925271
 20
202.8254083816
 10
304.5410014963
 20
204.4662726413
 10
304.0826599517
 20
206.1499156727
 10
303.4540986459
 20
207.8420533573
 10
302.668112934
 20
209.5082387821
 10
301.7407038012
 20
211.1145592753
 10
300.6907497429
 20
212.6283125213
 10
299.5396257967
 20
214.0186766835
 10
298.3107646227
 20
215.2573653114
 10
297.0291830095
 20
216.319144031
 10
295.7209698564
 20
217.1824059766
 10
294.4127560448
 20
217.8295751673
 10
293.1311744316
 20
218.2474790824
 10
291.9023132575
 20
218.4276033657
 10
290.7511893114
 20
218.366298622
 10
289.7012349238
 20
218.0647967182
 10
288.7738264496
 20
217.5292396378
 10
287.9878404084
 20
216.7705341897
 10
287.3592794319
 20
215.8041177513
 10
286.9009377227
 20
214.6496646982
 10
286.6221468565
 20
213.3306856162
 10
286.5285808528
 20
211.874019294
 10
286.6221468565
 20
210.3093361309
 10
286.9009377227
 20
208.6684719663
 10
287.3592794319
 20
206.9848288398
 10
287.9878404084
 20
205.2926913454
 10
288.7738264496
 20
203.6265057304
 10
289.7012349238
 20
202.0201856174
 10
290.7511893114
 20
200.5064321813
 10
291.9023132575
 20
199.1160619354
 10
293.1311744316
 20
197.8773793912
 10
294.4127560448
 20
196.8156006717
 10
295.7209698564
 20
195.9523383459
  0
LWPOLYLINE
  5
35C
330
1F
100
AcDbEntity
  8
0
  6
Continuous
 62
     7
370
    15
100
AcDbPolyline
 90
       26
 70
   128
 43
0.0
 10
291.0500061868
 20
221.1909175927
 10
291.4346501801
 20
221.3912831849
 10
292.5466210211
 20
221.7633755525
 10
293.7657120288
 20
221.8934173099
 10
295.0701675269
 20
221.7791113389
 10
296.4367106013
 20
221.4224942562
 10
297.8409540316
 20
220.8299182015
 10
299.2578395409
 20
220.0119676076
 10
300.6620829712
 20
218.9832387081
 10
302.0286260455
 20
217.7620787411
 10
303.3330815436
 20
216.370292452
 10
304.5521722221
 20
214.8327183673
 10
305.6641433924
 20
213.1767716043
 10
306.6491516266
 20
211.4320247979
 10
307.4896195489
 20
209.6296017598
 10
308.1705488902
 20
207.8016682351
 10
308.6797886812
 20
205.9808512194
 10
309.0082513268
 20
204.1996396923
 10
309.1500754849
 20
202.4898160607
 10
309.1027302789
 20
200.8818971347
 10
308.8670605881
 20
199.4045726161
 10
308.4472719266
 20
198.0841967129
 10
307.8508554953
 20
196.944350793
 10
307.0884543202
 20
196.0053609606
 10
306.1736734369
 20
195.2839939424
 10
306.0487873857
 20
195.2094536286
  0
LWPOLYLINE
  5
35D
330
1F
100
AcDbEntity
  8
0
  6
Continuous
 62
     7
370
    15
100
AcDbPolyline
 90
       17
 70
   128
 43
0.0
 10
290.9479992889
 20
210.3434305452
 10
290.6097510732
 20
210.4609960273
 10
290.3229984039
 20
210.4052827043
 10
290.1313975135
 20
210.1847555826
 10
290.0641153382
 20
209.8329986799
 10
290.1313975135
 20
209.4035715986
 10
290.3229984039
 20
208.9618267976
 10
290.6097510732
 20
208.5750358897
 10
290.9479992889
 20
208.3020682949
 10
291.2862461874
 20
208.184503573
 10
291.5729988567
 20
208.2402168961
 10
291.7646010642
 20
208.4607432574
 10
291.8318819224
 20
208.812488753
 10
291.7646010642
 20
209.2419272415
 10
291.5729988567
 20
209.6836728028
 10
291.2862461874
 20
210.0704637106
 10
290.9479992889
 20
210.3434305452
  0
LWPOLYLINE
  5
35E
330
1F
100
AcDbEntity
  8
0
  6
Continuous
 62
     7
370
    15
100
AcDbPolyline
 90
       17
 70
   128
 43
0.0
 10
295.7209698564
 20
202.0763946783
 10
295.3827222993
 20
202.1939719477
 10
295.09596963
 20
202.138252541
 10
294.9043674225
 20
201.9177322634
 10
294.8370865643
 20
201.5659746003
 10
294.9043674225
 20
201.1365421956
 10
295.09596963
 20
200.6947966342
 10
295.3827222993
 20
200.3080057264
 10
295.7209698564
 20
200.0350445954
 10
296.0592174135
 20
199.9174734097
 10
296.3459694242
 20
199.9731871129
 10
296.5375716318
 20
200.1937134743
 10
296.6048531485
 20
200.5454646734
 10
296.5375716318
 20
200.974903542
 10
296.3459694242
 20
201.4166430197
 10
296.0592174135
 20
201.803439631
 10
295.7209698564
 20
202.0763946783
  0
LWPOLYLINE
  5
35F
330
1F
100
AcDbEntity
  8
0
  6
Continuous
 62
     7
370
    15
100
AcDbPolyline
 90
       17
 70
   128
 43
0.0
 10
300.493940424
 20
204.8326760276
 10
300.1556928669
 20
204.9502411296
 10
299.8689401976
 20
204.8945278066
 10
299.6773386486
 20
204.6740010651
 10
299.6100571319
 20
204.3222437822
 10
299.6773386486
 20
203.892817081
 10
299.8689401976
 20
203.4510718998
 10
300.1556928669
 20
203.064280992
 10
300.493940424
 20
202.7913137773
 10
300.832187981
 20
202.6737486753
 10
301.1189403211
 20
202.7294621884
 10
301.3105421993
 20
202.9499887398
 10
301.377823716
 20
203.3017338553
 10
301.3105421993
 20
203.7311727239
 10
301.1189403211
 20
204.1729180952
 10
300.832187981
 20
204.5597088129
 10
300.493940424
 20
204.8326760276
  0
LWPOLYLINE
  5
360
330
1F
100
AcDbEntity
  8
0
  6
Continuous
 62
     7
370
    15
100
AcDbPolyline
 90
       17
 70
   128
 43
0.0
 10
295.7209698564
 20
213.0996936433
 10
295.3827222993
 20
213.2172709127
 10
295.09596963
 20
213.1615575897
 10
294.9043674225
 20
212.9410312284
 10
294.8370865643
 20
212.5892735653
 10
294.9043674225
 20
212.1598350769
 10
295.09596963
 20
211.7181016829
 10
295.3827222993
 20
211.3313107751
 10
295.7209698564
 20
211.0583435604
 10
296.0592174135
 20
210.9407784584
 10
296.3459694242
 20
210.9964921616
 10
296.5375716318
 20
211.2170063556
 10
296.6048531485
 20
211.5687636384
 10
296.5375716318
 20
211.998202507
 10
296.3459694242
 20
212.4399480684
 10
296.0592174135
 20
212.826738596
 10
295.7209698564
 20
213.0996936433
  0
LWPOLYLINE
  5
361
330
1F
100
AcDbEntity
  8
0
  6
Continuous
 62
     7
370
    15
100
AcDbPolyline
 90
       13
 70
   128
 43
0.0
 10
326.1676441328
 20
183.4895698934
 10
324.9610127872
 20
183.3284993773
 10
323.8641397376
 20
182.9260028386
 10
322.8965982439
 20
182.2892570814
 10
322.0756553432
 20
181.4296296044
 10
321.4159596994
 20
180.3624572765
 10
320.9292847713
 20
179.1067869958
 10
320.6243141267
 20
177.6850281371
 10
320.5064912946
 20
176.1225464508
 10
320.577917032
 20
174.4472245059
 10
320.8373177136
 20
172.6889628235
 10
321.2800650889
 20
170.8791331054
 10
321.5402244139
 20
170.0471943837
  0
LWPOLYLINE
  5
362
330
1F
100
AcDbEntity
  8
0
  6
Continuous
 62
     7
370
    15
100
AcDbPolyline
 90
       33
 70
   128
 43
0.0
 10
326.5398192444
 20
161.3867067761
 10
327.1376617538
 20
160.737540494
 10
328.4838623883
 20
159.4500609308
 10
329.876955343
 20
158.3472634204
 10
331.2920825384
 20
157.4488275505
 10
332.7039901097
 20
156.7707891138
 10
334.0874821441
 20
156.3252447108
 10
335.4178711249
 20
156.1201434249
 10
336.671415535
 20
156.1591497903
 10
337.8257459343
 20
156.441565124
 10
338.8602633801
 20
156.9623499969
 10
339.756506894
 20
157.7122102004
 10
340.498482982
 20
158.6777624159
 10
341.0729511126
 20
159.8417831027
 10
341.4696598265
 20
161.1834950131
 10
341.6815298786
 20
162.678957288
 10
341.7047804198
 20
164.3014823519
 10
341.5389965475
 20
166.0221170735
 10
341.1871366799
 20
167.8101556233
 10
340.6554797457
 20
169.6336870754
 10
339.9535132824
 20
171.460180163
 10
339.0937636709
 20
173.2570345183
 10
338.0915733519
 20
174.9921838115
 10
336.9648264185
 20
176.6346678541
 10
335.7336300456
 20
178.1551693616
 10
334.4199542658
 20
179.5265686765
 10
333.047241288
 20
180.7243822341
 10
331.6399889678
 20
181.7272342002
 10
330.2233076074
 20
182.5172339997
 10
328.8224807059
 20
183.0802846428
 10
327.4625033204
 20
183.4063370566
 10
326.1676441328
 20
183.4895698934
 10
326.1676441328
 20
183.4895698934
  0
ARC
  5
363
330
1F
100
AcDbEntity
  8
0
  6
Continuous
 62
     7
370
    15
100
AcDbCircle
 10
327.6681921214
 20
178.9733775885
 30
0.0
 40
5.333299375181862
100
AcDbArc
 50
90.9275310987
 51
119.6910312787
  0
LWPOLYLINE
  5
364
330
1F
100
AcDbEntity
  8
0
  6
Continuous
 62
     7
370
    15
100
AcDbPolyline
 90
       23
 70
   128
 43
0.0
 10
340.0252684566
 20
157.6249964485
 10
340.2744771743
 20
157.7787582426
 10
341.1707206882
 20
158.5286184461
 10
341.9126967761
 20
159.4941706615
 10
342.4871649068
 20
160.6581913483
 10
342.8838736207
 20
161.9999032587
 10
343.0957436728
 20
163.4953655336
 10
343.118994214
 20
165.1178905975
 10
342.9532103417
 20
166.8385253191
 10
342.6013504741
 20
168.626563869
 10
342.0696935399
 20
170.450095321
 10
341.3677270766
 20
172.2765884086
 10
340.5079774651
 20
174.073442764
 10
339.5057871461
 20
175.8085920571
 10
338.3790402127
 20
177.4510760998
 10
337.1478438398
 20
178.9715776073
 10
335.83416806
 20
180.3429769222
 10
334.4614550822
 20
181.5407904797
 10
333.054202762
 20
182.5436424458
 10
331.6375214015
 20
183.3336422454
 10
330.2366945001
 20
183.8966928885
 10
328.8767171145
 20
184.2227453022
 10
327.581857927
 20
184.3059781391
  0
LWPOLYLINE
  5
365
330
1F
100
AcDbEntity
  8
0
  6
Continuous
 62
     7
370
    15
100
AcDbPolyline
 90
        3
 70
   128
 43
0.0
 10
329.4636580782
 20
174.36274043
 10
328.7867243733
 20
174.217284011
 10
328.6118676356
 20
174.1295649394
  0
LWPOLYLINE
  5
366
330
1F
100
AcDbEntity
  8
0
  6
Continuous
 62
     7
370
    15
100
AcDbPolyline
 90
       14
 70
   128
 43
0.0
 10
333.611461149
 20
165.469078092
 10
333.7301058447
 20
165.5444016673
 10
334.2073905866
 20
166.0401264311
 10
334.5177836867
 20
166.7385114432
 10
334.6445521874
 20
167.6019034748
 10
334.5808617138
 20
168.5837592745
 10
334.3301459171
 20
169.6311486658
 10
333.9059207647
 20
170.6876024635
 10
333.3310568488
 20
171.6961698467
 10
332.6365446154
 20
172.6024764439
 10
331.8598256126
 20
173.3576618451
 10
331.0427733928
 20
173.9210235415
 10
330.2294347055
 20
174.2621756681
 10
329.4636580782
 20
174.36274043
  0
ARC
  5
367
330
1F
100
AcDbEntity
  8
0
  6
Continuous
 62
     7
370
    15
100
AcDbCircle
 10
323.2366529704
 20
165.2531762311
 30
0.0
 40
19.91494059550377
100
AcDbArc
 50
2.5104626409
 51
57.4841607977
  0
ARC
  5
368
330
1F
100
AcDbEntity
  8
0
  6
Continuous
 62
     7
370
    15
100
AcDbCircle
 10
324.1815917533
 20
169.5602000586
 30
0.0
 40
1.741139323561671
100
AcDbArc
 50
90.6987903855
 51
144.3022536017
  0
LWPOLYLINE
  5
369
330
1F
100
AcDbEntity
  8
0
  6
Continuous
 62
     7
370
    15
100
AcDbPolyline
 90
       15
 70
   128
 43
0.0
 10
327.6116886761
 20
162.1850559288
 10
327.8083590421
 20
162.216531691
 10
328.426804775
 20
162.4828711263
 10
328.904089517
 20
162.9785958901
 10
329.214482617
 20
163.6769809022
 10
329.3412511177
 20
164.5403729338
 10
329.2775606442
 20
165.5222287335
 10
329.0268448475
 20
166.5696181248
 10
328.6026196951
 20
167.6260719225
 10
328.0277557792
 20
168.6346393057
 10
327.3332435458
 20
169.5409459029
 10
326.5565245429
 20
170.2961313041
 10
325.7394723231
 20
170.8594930006
 10
324.9261336358
 20
171.2006451271
 10
324.1603570085
 20
171.301209889
  0
LINE
  5
36A
330
1F
100
AcDbEntity
  8
0
  6
Continuous
 62
     7
370
    15
100
AcDbLine
 10
324.4899585348
 20
170.3885256499
 30
0.0
 11
324.1203069657
 21
170.3329786942
 31
0.0
  0
LWPOLYLINE
  5
36B
330
1F
100
AcDbEntity
  8
0
  6
Continuous
 62
     7
370
    15
100
AcDbPolyline
 90
       12
 70
   128
 43
0.0
 10
328.0775522807
 20
163.4780850381
 10
328.2013158428
 20
163.6150959423
 10
328.5100527034
 20
164.2113913174
 10
328.6346736904
 20
164.9798579869
 10
328.566686214
 20
165.8681235956
 10
328.3107237932
 20
166.8156542112
 10
327.8842292964
 20
167.7578824674
 10
327.316268244
 20
168.6305884795
 10
326.645545931
 20
169.3743084417
 10
325.9177706145
 20
169.9383481029
 10
325.1825405742
 20
170.2842832655
 10
324.4899585348
 20
170.3885256499
  0
LWPOLYLINE
  5
36C
330
1F
100
AcDbEntity
  8
0
  6
Continuous
 62
     7
370
    15
100
AcDbPolyline
 90
        7
 70
   128
 43
0.0
 10
332.9990509765
 20
127.2523044211
 10
332.2587244603
 20
128.0892521235
 10
331.4565599562
 20
128.7537054502
 10
330.6358021065
 20
129.2098419115
 10
329.8406971995
 20
129.4330722894
 10
329.1141118729
 20
129.4113605772
 10
328.6118676356
 20
129.2198216697
  0
LWPOLYLINE
  5
36D
330
1F
100
AcDbEntity
  8
0
  6
Continuous
 62
     7
370
    15
100
AcDbPolyline
 90
        9
 70
   128
 43
0.0
 10
333.611461149
 20
120.5593331826
 10
333.986475246
 20
120.8534542242
 10
334.3835973406
 20
121.4538414834
 10
334.6043282888
 20
122.2394504002
 10
334.6367695084
 20
123.1679278735
 10
334.4791712465
 20
124.1892204519
 10
334.140029386
 20
125.248269328
 10
333.6376277565
 20
126.2879810439
 10
332.9990509765
 20
127.2523044211
  0
LWPOLYLINE
  5
36E
330
1F
100
AcDbEntity
  8
0
  6
Continuous
 62
     7
370
    15
100
AcDbPolyline
 90
       21
 70
   128
 43
0.0
 10
336.7738248036
 20
131.9777579119
 10
335.5278757166
 20
133.4761095534
 10
334.2031199255
 20
134.8212342159
 10
332.8231965439
 20
135.9891293461
 10
331.4127305265
 20
136.9589525864
 10
329.996892103
 20
137.713397783
 10
328.6009476505
 20
138.2389998891
 10
327.2498052981
 20
138.5263835939
 10
325.9675796284
 20
138.5704172751
 10
324.7771497947
 20
138.3703144794
 10
323.6997591258
 20
137.9296498549
 10
322.7546344872
 20
137.2562838293
 10
321.9586398866
 20
136.362234059
 10
321.3259827633
 20
135.2634541073
 10
320.86795057
 20
133.979552048
 10
320.5927184783
 20
132.5334391138
 10
320.5051965961
 20
130.9509216933
 10
320.606948308
 20
129.2602386771
 10
320.8961560313
 20
127.4915616728
 10
321.367659411
 20
125.6764524449
 10
321.5402244139
 20
125.1374499734
  0
LWPOLYLINE
  5
36F
330
1F
100
AcDbEntity
  8
0
  6
Continuous
 62
     7
370
    15
100
AcDbPolyline
 90
       24
 70
   128
 43
0.0
 10
326.5398192444
 20
116.4769608448
 10
327.3494285942
 20
115.6097600645
 10
328.7047961682
 20
114.3504375
 10
330.1031126979
 20
113.2791867618
 10
331.5194279077
 20
112.4151231656
 10
332.9284662005
 20
111.7736661469
 10
334.3050830302
 20
111.3662636359
 10
335.624714028
 20
111.2001852543
 10
336.863809313
 20
111.2783932667
 10
338.0002575948
 20
111.5994939511
 10
339.0137785013
 20
112.1577563625
 10
339.8862860956
 20
112.9432184509
 10
340.6022103274
 20
113.9418636619
 10
341.148775598
 20
115.1358709648
 10
341.5162283178
 20
116.5039333953
 10
341.698011372
 20
118.0216378557
 10
341.6908808045
 20
119.6619008016
 10
341.4949638642
 20
121.3954518467
 10
341.1137567118
 20
123.1913557186
 10
340.5540619982
 20
125.0175641734
 10
339.8258674358
 20
126.8414887605
 10
338.942167713
 20
128.6305819607
 10
337.9187324189
 20
130.3529164112
 10
336.7738248036
 20
131.9777579119
  0
LWPOLYLINE
  5
370
330
1F
100
AcDbEntity
  8
0
  6
Continuous
 62
     7
370
    15
100
AcDbPolyline
 90
       12
 70
   128
 43
0.0
 10
338.1880385978
 20
132.7941661575
 10
336.9420895108
 20
134.292517799
 10
335.6173337197
 20
135.6376424616
 10
334.237410338
 20
136.8055375917
 10
332.8269443207
 20
137.775360832
 10
331.4111058972
 20
138.5298060286
 10
330.0151614447
 20
139.0554081348
 10
328.6640190923
 20
139.3427918395
 10
327.3817934225
 20
139.3868255207
 10
326.1913635889
 20
139.186722725
 10
325.11397292
 20
138.7460581006
 10
325.0264879163
 20
138.6967186638
  0
LWPOLYLINE
  5
371
330
1F
100
AcDbEntity
  8
0
  6
Continuous
 62
     7
370
    15
100
AcDbPolyline
 90
       15
 70
   128
 43
0.0
 10
340.0252684566
 20
112.7152527986
 10
340.4279922955
 20
112.9741646082
 10
341.3004998898
 20
113.7596266966
 10
342.0164241216
 20
114.7582719076
 10
342.5629893922
 20
115.9522792105
 10
342.930442112
 20
117.3203416409
 10
343.1122251662
 20
118.8380461014
 10
343.1050945987
 20
120.4783090473
 10
342.9091776584
 20
122.2118600923
 10
342.5279705059
 20
124.0077639643
 10
341.9682757924
 20
125.833972419
 10
341.24008123
 20
127.6578970061
 10
340.3563815072
 20
129.4469902063
 10
339.332946213
 20
131.1693246568
 10
338.1880385978
 20
132.7941661575
  0
ARC
  5
372
330
1F
100
AcDbEntity
  8
0
  6
Continuous
 62
     7
370
    15
100
AcDbCircle
 10
323.6186078443
 20
120.4392332145
 30
0.0
 40
19.5293156876422
100
AcDbArc
 50
2.2787469759
 51
38.7590008485
  0
ARC
  5
373
330
1F
100
AcDbEntity
  8
0
  6
Continuous
 62
     7
370
    15
100
AcDbCircle
 10
325.0202911071
 20
122.4211931289
 30
0.0
 40
17.20847407524148
100
AcDbArc
 50
36.5343737854
 51
58.773371162
  0
LWPOLYLINE
  5
374
330
1F
100
AcDbEntity
  8
0
  6
Continuous
 62
     7
370
    15
100
AcDbPolyline
 90
        8
 70
   128
 43
0.0
 10
327.6957499069
 20
124.1907738801
 10
326.9554233907
 20
125.0277215825
 10
326.1532588866
 20
125.6921749092
 10
325.3325010368
 20
126.1483113705
 10
324.5373961299
 20
126.3715417484
 10
323.8108108033
 20
126.3498300363
 10
323.1919133089
 20
126.0843491212
 10
322.7676012286
 20
125.6664258224
  0
LWPOLYLINE
  5
375
330
1F
100
AcDbEntity
  8
0
  6
Continuous
 62
     7
370
    15
100
AcDbPolyline
 90
       10
 70
   128
 43
0.0
 10
327.6116886761
 20
117.2753108768
 10
328.1310702172
 20
117.4091248088
 10
328.6831741764
 20
117.7919236832
 10
329.080296271
 20
118.3923109424
 10
329.3010272192
 20
119.1779198592
 10
329.3334684387
 20
120.1063973325
 10
329.1758701769
 20
121.1276899109
 10
328.8367283164
 20
122.1867387871
 10
328.3343266869
 20
123.2264505029
 10
327.6957499069
 20
124.1907738801
  0
ARC
  5
376
330
1F
100
AcDbEntity
  8
0
  6
Continuous
 62
     7
370
    15
100
AcDbCircle
 10
324.4285887134
 20
122.1498492652
 30
0.0
 40
3.287869692712431
100
AcDbArc
 50
28.4909417882
 51
95.3801485145
  0
LWPOLYLINE
  5
377
330
1F
100
AcDbEntity
  8
0
  6
Continuous
 62
     7
370
    15
100
AcDbPolyline
 90
        8
 70
   128
 43
0.0
 10
328.0775522807
 20
118.5683411031
 10
328.2000514373
 20
118.7037669888
 10
328.5093500364
 20
119.2994390272
 10
328.6345808357
 20
120.0674316053
 10
328.5672097569
 20
120.9554073454
 10
328.3118275138
 20
121.9028517028
 10
327.8858381206
 20
122.8451986387
 10
327.3182728535
 20
123.7182282649
  0
LWPOLYLINE
  5
378
330
1F
100
AcDbEntity
  8
0
  6
Continuous
 62
     7
370
    15
100
AcDbPolyline
 90
       38
 70
   128
 43
0.0
 10
286.5285820052
 20
262.4992855899
 10
286.5345049545
 20
262.9051413884
 10
286.6763290998
 20
264.4512183399
 10
287.004791344
 20
265.8531952004
 10
287.5140306412
 20
267.0860567535
 10
288.1949603941
 20
268.1278057575
 10
289.0354291395
 20
268.9598447126
 10
290.0204365506
 20
269.5673256943
 10
291.1324073915
 20
269.9394058944
 10
292.3514983993
 20
270.0694598193
 10
293.6559538974
 20
269.9551538482
 10
295.0224969717
 20
269.5985367655
 10
296.4267404021
 20
269.0059607108
 10
297.8436259113
 20
268.1880101169
 10
299.2478693416
 20
267.1592812174
 10
300.614412416
 20
265.9381212504
 10
301.9188679141
 20
264.5463349614
 10
303.1379585926
 20
263.0087487092
 10
304.2499297628
 20
261.3528141136
 10
305.2349379971
 20
259.6080673072
 10
306.0754059193
 20
257.8056442691
 10
306.7563352606
 20
255.9777107445
 10
307.2655750517
 20
254.1568937287
 10
307.5940376972
 20
252.3756822016
 10
307.7358618553
 20
250.66585857
 10
307.6885166494
 20
249.057939644
 10
307.4528469586
 20
247.580602958
 10
307.0330582971
 20
246.2602453059
 10
306.4366418658
 20
245.1203933023
 10
305.6742406907
 20
244.1814034699
 10
304.7594598073
 20
243.4600364517
 10
303.7086236287
 20
242.9691468857
 10
302.5404838803
 20
242.7175234899
 10
301.2758867885
 20
242.7096309969
 10
299.9373983687
 20
242.9456196243
 10
298.5489046888
 20
243.4212759874
 10
297.135183486
 20
244.1281122231
 10
297.135183486
 20
244.1281122231
  0
LWPOLYLINE
  5
379
330
1F
100
AcDbEntity
  8
0
  6
Continuous
 62
     7
370
    15
100
AcDbPolyline
 90
       45
 70
   128
 43
0.0
 10
295.7209698564
 20
244.9447890058
 10
297.0291830095
 20
244.2976201953
 10
298.3107646227
 20
243.8797162802
 10
299.5396257967
 20
243.6995798294
 10
300.6907497429
 20
243.7608967406
 10
301.7407038012
 20
244.0623988344
 10
302.668112934
 20
244.5979555347
 10
303.4540986459
 20
245.3566611729
 10
304.0826599517
 20
246.3230774211
 10
304.5410014963
 20
247.4775305693
 10
304.8197925271
 20
248.7965095563
 10
304.9133577076
 20
250.2531641863
 10
304.8197925271
 20
251.8178590416
 10
304.5410014963
 20
253.4587233012
 10
304.0826599517
 20
255.1423663326
 10
303.4540986459
 20
256.8345040172
 10
302.668112934
 20
258.5006894421
 10
301.7407038012
 20
260.1070099352
 10
300.6907497429
 20
261.6207631812
 10
299.5396257967
 20
263.0111273434
 10
298.3107646227
 20
264.2498159714
 10
297.0291830095
 20
265.3115946909
 10
295.7209698564
 20
266.1748566365
 10
294.4127560448
 20
266.8220258272
 10
293.1311744316
 20
267.2399297423
 10
291.9023132575
 20
267.4200540257
 10
290.7511893114
 20
267.3587492819
 10
289.7012349238
 20
267.0572473782
 10
288.7738264496
 20
266.5216902977
 10
287.9878404084
 20
265.7629848496
 10
287.3592794319
 20
264.7965684113
 10
286.9009377227
 20
263.6421153581
 10
286.6221468565
 20
262.3231362761
 10
286.5285808528
 20
260.866469954
 10
286.6221468565
 20
259.3017867908
 10
286.9009377227
 20
257.6609226262
 10
287.3592794319
 20
255.9772794998
 10
287.9878404084
 20
254.2851420053
 10
288.7738264496
 20
252.6189563903
 10
289.7012349238
 20
251.0126362774
 10
290.7511893114
 20
249.4988828413
 10
291.9023132575
 20
248.1085065117
 10
293.1311744316
 20
246.8698300511
 10
294.4127560448
 20
245.8080513316
 10
295.7209698564
 20
244.9447890058
  0
LWPOLYLINE
  5
37A
330
1F
100
AcDbEntity
  8
0
  6
Continuous
 62
     7
370
    15
100
AcDbPolyline
 90
       26
 70
   128
 43
0.0
 10
291.0500061868
 20
270.1833682526
 10
291.4346501801
 20
270.3837338449
 10
292.5466210211
 20
270.755814045
 10
293.7657120288
 20
270.8858679699
 10
295.0701675269
 20
270.7715619988
 10
296.4367106013
 20
270.4149449161
 10
297.8409540316
 20
269.8223688614
 10
299.2578395409
 20
269.0044182675
 10
300.6620829712
 20
267.975689368
 10
302.0286260455
 20
266.754529401
 10
303.3330815436
 20
265.362743112
 10
304.5521722221
 20
263.8251568598
 10
305.6641433924
 20
262.1692222642
 10
306.6491516266
 20
260.4244754578
 10
307.4896195489
 20
258.6220524197
 10
308.1705488902
 20
256.7941188951
 10
308.6797886812
 20
254.9733018793
 10
309.0082513268
 20
253.1920903522
 10
309.1500754849
 20
251.4822667206
 10
309.1027302789
 20
249.8743477946
 10
308.8670605881
 20
248.3970111086
 10
308.4472719266
 20
247.0766534565
 10
307.8508554953
 20
245.9368014529
 10
307.0884543202
 20
244.9978116205
 10
306.1736734369
 20
244.2764446023
 10
306.0487873857
 20
244.2018982049
  0
LWPOLYLINE
  5
37B
330
1F
100
AcDbEntity
  8
0
  6
Continuous
 62
     7
370
    15
100
AcDbPolyline
 90
       17
 70
   128
 43
0.0
 10
290.9479992889
 20
259.3358690377
 10
290.6097510732
 20
259.4534466873
 10
290.3229984039
 20
259.3977333642
 10
290.1313975135
 20
259.1772062426
 10
290.0641153382
 20
258.8254493399
 10
290.1313975135
 20
258.3960100911
 10
290.3229984039
 20
257.9542774575
 10
290.6097510732
 20
257.5674865497
 10
290.9479992889
 20
257.2945189548
 10
291.2862461874
 20
257.176954233
 10
291.5729988567
 20
257.232667556
 10
291.7646010642
 20
257.4531817499
 10
291.8318819224
 20
257.804939413
 10
291.7646010642
 20
258.2343779014
 10
291.5729988567
 20
258.6761234628
 10
291.2862461874
 20
259.0629143706
 10
290.9479992889
 20
259.3358690377
  0
LWPOLYLINE
  5
37C
330
1F
100
AcDbEntity
  8
0
  6
Continuous
 62
     7
370
    15
100
AcDbPolyline
 90
       17
 70
   128
 43
0.0
 10
295.7209698564
 20
251.068851422
 10
295.3827222993
 20
251.186416524
 10
295.09596963
 20
251.1307032009
 10
294.9043674225
 20
250.9101768396
 10
294.8370865643
 20
250.5584191765
 10
294.9043674225
 20
250.1289928555
 10
295.09596963
 20
249.6872472942
 10
295.3827222993
 20
249.3004563864
 10
295.7209698564
 20
249.0274891716
 10
296.0592174135
 20
248.9099240697
 10
296.3459694242
 20
248.9656377729
 10
296.5375716318
 20
249.1861641342
 10
296.6048531485
 20
249.5379092497
 10
296.5375716318
 20
249.9673481183
 10
296.3459694242
 20
250.4090936796
 10
296.0592174135
 20
250.7958842073
 10
295.7209698564
 20
251.068851422
  0
LWPOLYLINE
  5
37D
330
1F
100
AcDbEntity
  8
0
  6
Continuous
 62
     7
370
    15
100
AcDbPolyline
 90
       17
 70
   128
 43
0.0
 10
300.493940424
 20
253.8251145201
 10
300.1556928669
 20
253.9426917895
 10
299.8689401976
 20
253.8869784665
 10
299.6773386486
 20
253.666451725
 10
299.6100571319
 20
253.3146944421
 10
299.6773386486
 20
252.8852555735
 10
299.8689401976
 20
252.4435225597
 10
300.1556928669
 20
252.0567316519
 10
300.493940424
 20
251.7837644372
 10
300.832187981
 20
251.6661993352
 10
301.1189403211
 20
251.7219128483
 10
301.3105421993
 20
251.9424272324
 10
301.377823716
 20
252.2941845152
 10
301.3105421993
 20
252.7236233838
 10
301.1189403211
 20
253.1653687551
 10
300.832187981
 20
253.5521594728
 10
300.493940424
 20
253.8251145201
  0
LWPOLYLINE
  5
37E
330
1F
100
AcDbEntity
  8
0
  6
Continuous
 62
     7
370
    15
100
AcDbPolyline
 90
       17
 70
   128
 43
0.0
 10
295.7209698564
 20
262.0921443033
 10
295.3827222993
 20
262.2097215727
 10
295.09596963
 20
262.1540082496
 10
294.9043674225
 20
261.9334818883
 10
294.8370865643
 20
261.5817242253
 10
294.9043674225
 20
261.1522857368
 10
295.09596963
 20
260.7105523429
 10
295.3827222993
 20
260.3237492677
 10
295.7209698564
 20
260.0507942203
 10
296.0592174135
 20
259.933216951
 10
296.3459694242
 20
259.9889428216
 10
296.5375716318
 20
260.2094570155
 10
296.6048531485
 20
260.5612142984
 10
296.5375716318
 20
260.990653167
 10
296.3459694242
 20
261.4323987283
 10
296.0592174135
 20
261.819189256
 10
295.7209698564
 20
262.0921443033
  0
ARC
  5
37F
330
1F
100
AcDbEntity
  8
0
  6
Continuous
 62
     7
370
    15
100
AcDbCircle
 10
309.4817474987
 20
111.2351521528
 30
0.0
 40
4.49991554137076
100
AcDbArc
 50
330.5094314175
 51
29.4905685825
  0
LWPOLYLINE
  5
380
330
1F
100
AcDbEntity
  8
0
  6
Continuous
 62
     7
370
    15
100
AcDbPolyline
 90
       16
 70
   128
 43
0.0
 10
322.0711298253
 20
125.4439341039
 10
322.1961004995
 20
125.5092019114
 10
322.8641425364
 20
125.6744542463
 10
323.6241990461
 20
125.5938336078
 10
324.4352927552
 20
125.2716886604
 10
325.2536989425
 20
124.7253835131
 10
326.035296443
 20
123.9843720771
 10
326.7379496036
 20
123.0886009362
 10
327.323777627
 20
122.0863623936
 10
327.7611993528
 20
121.0316858952
 10
328.0266323022
 20
119.9814309398
 10
328.1057669616
 20
118.992216259
 10
327.9943379381
 20
118.1173706241
 10
327.6983511577
 20
117.4040577465
 10
327.2337651295
 20
116.8907315495
 10
327.0707233388
 20
116.7834456168
  0
ARC
  5
381
330
1F
100
AcDbEntity
  8
0
  6
Continuous
 62
     7
370
    15
100
AcDbCircle
 10
309.5292833872
 20
156.1448977514
 30
0.0
 40
4.458599755476417
100
AcDbArc
 50
330.2087176673
 51
29.7912823327
  0
LWPOLYLINE
  5
382
330
1F
100
AcDbEntity
  8
0
  6
Continuous
 62
     7
370
    15
100
AcDbPolyline
 90
       16
 70
   128
 43
0.0
 10
322.0711298253
 20
170.3536773735
 10
322.2535216293
 20
170.4446207544
 10
322.9317645206
 20
170.5871069282
 10
323.6983748653
 20
170.4835665532
 10
324.5120237271
 20
170.1395767885
 10
325.3288480904
 20
169.5736819687
 10
326.1048137184
 20
168.8164006611
 10
326.7980859124
 20
167.9085407021
 10
327.3712922718
 20
166.8990594673
 10
327.7935299369
 20
165.8423720209
 10
328.0420363168
 20
164.7954459245
 10
328.103413982
 20
163.8147214765
 10
327.974354405
 20
162.9530687888
 10
327.6618151084
 20
162.2569387281
 10
327.1826449535
 20
161.7638628598
 10
327.0707233388
 20
161.6931905262
  0
LWPOLYLINE
  5
383
330
1F
100
AcDbEntity
  8
0
  6
Continuous
 62
     7
370
    15
100
AcDbPolyline
 90
       21
 70
   128
 43
0.0
 10
295.3636910216
 20
272.6728409568
 10
295.5598292837
 20
272.7844420811
 10
296.6418376666
 20
273.2161618138
 10
297.8361199856
 20
273.407114321
 10
299.1213644234
 20
273.353882364
 10
300.4746351917
 20
273.0574052436
 10
301.8717834635
 20
272.5229970902
 10
303.2878787193
 20
271.7601708562
 10
304.6976479966
 20
270.7825550873
 10
306.0759362123
 20
269.6075916813
 10
307.3981467289
 20
268.2562450528
 10
308.640684226
 20
266.7526247944
 10
309.7813764979
 20
265.1235840023
 10
310.7998676045
 20
263.3981637948
 10
311.677982376
 20
261.6071760427
 10
312.400050828
 20
259.7825780613
 10
312.9531878377
 20
257.9569218002
 10
313.3275225432
 20
256.1627833871
 10
313.5163749363
 20
254.4321988216
 10
313.5163749363
 20
252.7960355345
 10
313.3986394128
 20
251.6886556956
  0
LWPOLYLINE
  5
384
330
1F
100
AcDbEntity
  8
0
  6
Continuous
 62
     7
370
    15
100
AcDbPolyline
 90
       25
 70
   128
 43
0.0
 10
313.3986393202
 20
248.4737306656
 10
314.2235667445
 20
249.2131435921
 10
314.9456351966
 20
250.2040712517
 10
315.4987722063
 20
251.3910891152
 10
315.8731069117
 20
252.7530177095
 10
316.0619593049
 20
254.2655701105
 10
316.0619593049
 20
255.9017333976
 10
315.8731069117
 20
257.6323179632
 10
315.4987722063
 20
259.4264563762
 10
314.9456351966
 20
261.2521126373
 10
314.2235667445
 20
263.0767106188
 10
313.345451973
 20
264.8676983709
 10
312.3269608664
 20
266.5931185783
 10
311.1862685945
 20
268.2221593704
 10
309.9437310974
 20
269.7257796288
 10
308.6215205808
 20
271.0771262574
 10
307.2432323652
 20
272.2520896633
 10
305.8334630879
 20
273.2297054322
 10
304.417367832
 20
273.9925316662
 10
303.0202195602
 20
274.5269398197
 10
301.6669487919
 20
274.82341694
 10
300.3817043542
 20
274.876648897
 10
299.1874220352
 20
274.6856963899
 10
298.1054136522
 20
274.2539766571
 10
297.9796527246
 20
274.183768048
  0
ARC
  5
385
330
1F
100
AcDbEntity
  8
0
  6
Continuous
 62
     7
370
    15
100
AcDbCircle
 10
293.5224151254
 20
254.2906161307
 30
0.0
 40
22.582911751341
100
AcDbArc
 50
2.3922887312
 51
57.6023414534
  0
LWPOLYLINE
  5
386
330
1F
100
AcDbEntity
  8
0
  6
Continuous
 62
     7
370
    15
100
AcDbPolyline
 90
       53
 70
   128
 43
0.0
 10
290.9512521695
 20
270.1248428505
 10
290.7336269172
 20
271.3963893886
 10
290.4550994688
 20
273.7836326964
 10
290.3611040941
 20
276.0848499851
 10
290.4524969009
 20
278.2791666287
 10
290.7284481232
 20
280.3467542399
 10
291.1864579259
 20
282.2688580484
 10
291.822380113
 20
284.0280752322
 10
292.6304537369
 20
285.6084826788
 10
293.6033636854
 20
286.9957601856
 10
294.7322959988
 20
288.177353204
 10
296.0070300661
 20
289.142565625
 10
297.4160176511
 20
289.8826358325
 10
298.9465040636
 20
290.390873598
 10
300.5846229905
 20
290.6626783409
 10
302.3155426924
 20
290.695588572
 10
304.1235884929
 20
290.4892963539
 10
305.9923837071
 20
290.0456876189
 10
307.9050076925
 20
289.3687630954
 10
309.8441367773
 20
288.4646542912
 10
311.7922102136
 20
287.3415641926
 10
313.7315862526
 20
286.0096406621
 10
315.6447028293
 20
284.4809688491
 10
317.5142326499
 20
282.7693843204
 10
319.3232456876
 20
280.8903792534
 10
321.055359413
 20
278.8609792076
 10
322.6948873782
 20
276.6995600098
 10
324.2269816271
 20
274.425692538
 10
325.6377676971
 20
272.0599796144
 10
326.914468837
 20
269.6238261199
 10
328.04552331
 20
267.1393104393
 10
329.0206881149
 20
264.6289420736
 10
329.8311318405
 20
262.1154255247
 10
330.4695150084
 20
259.6215530779
 10
330.9300562562
 20
257.1698867446
 10
331.2085850217
 20
254.7826426765
 10
331.3025784208
 20
252.4814386957
 10
331.2111862725
 20
250.2871095045
 10
330.9352357088
 20
248.2195336805
 10
330.4772252475
 20
246.2974302522
 10
329.841303719
 20
244.5382126882
 10
329.0332287779
 20
242.957806002
 10
328.0603201465
 20
241.5705155675
 10
326.9313871747
 20
240.3889229292
 10
325.6566540951
 20
239.4237221053
 10
324.2476655223
 20
238.6836524681
 10
322.7171812501
 20
238.175413467
 10
321.0790613354
 20
237.903597127
 10
319.3481411396
 20
237.8706993485
 10
317.5400959977
 20
238.076979019
 10
315.6712994663
 20
238.5206006817
 10
313.758676798
 20
239.1975244449
 10
313.3986393202
 20
239.3490710679
  0
LWPOLYLINE
  5
387
330
1F
100
AcDbEntity
  8
0
  6
Continuous
 62
     7
370
    15
100
AcDbPolyline
 90
       35
 70
   128
 43
0.0
 10
296.7115712738
 20
289.5593560835
 10
297.7695704411
 20
290.0867375137
 10
299.3000568536
 20
290.5949752793
 10
300.9381757805
 20
290.8667800221
 10
302.6690954824
 20
290.8996902532
 10
304.4771412829
 20
290.6933980351
 10
306.3459364971
 20
290.2497893001
 10
308.2585604825
 20
289.5728647767
 10
310.1976895673
 20
288.6687559724
 10
312.1457630036
 20
287.5456658738
 10
314.0851390426
 20
286.2137423433
 10
315.9982556193
 20
284.6850705304
 10
317.8677854399
 20
282.9734860017
 10
319.6767984776
 20
281.0944809346
 10
321.408912203
 20
279.0650808888
 10
323.0484401682
 20
276.9036616911
 10
324.5805344171
 20
274.6297942193
 10
325.9913204871
 20
272.2640812956
 10
327.268021627
 20
269.8279278011
 10
328.3990761
 20
267.3434121206
 10
329.3742409049
 20
264.8330437548
 10
330.1846846305
 20
262.3195272059
 10
330.8230677984
 20
259.8256547592
 10
331.2836090462
 20
257.3739884258
 10
331.5621378117
 20
254.9867443577
 10
331.6561312108
 20
252.6855403769
 10
331.5647390625
 20
250.4912111857
 10
331.2887884988
 20
248.4236353617
 10
330.8307780375
 20
246.5015319335
 10
330.194856509
 20
244.7423143695
 10
329.3867815679
 20
243.1619076832
 10
328.4138729365
 20
241.7746172487
 10
327.2849399647
 20
240.5930246104
 10
326.0102068851
 20
239.6278237866
 10
325.6592184674
 20
239.4151228419
  0
LWPOLYLINE
  5
388
330
1F
100
AcDbEntity
  8
0
  6
Continuous
 62
     7
370
    15
100
AcDbPolyline
 90
       35
 70
   128
 43
0.0
 10
339.5029251116
 20
247.4347489507
 10
339.5941931243
 20
247.4971647118
 10
340.8349357583
 20
248.5151804864
 10
341.9273004122
 20
249.7471826796
 10
342.8613944303
 20
251.1820425095
 10
343.6287588084
 20
252.8067328334
 10
344.2224439264
 20
254.6065642782
 10
344.6370727682
 20
256.5652217486
 10
344.8688909717
 20
258.6649788827
 10
344.915799097
 20
260.8868010973
 10
344.7773723829
 20
263.2106018659
 10
344.4548640396
 20
265.615301655
 10
343.9511953704
 20
268.0791378118
 10
343.2709274548
 20
270.5798025852
 10
342.4202209764
 20
273.0946366604
 10
341.4067795891
 20
275.600868699
 10
340.2397814276
 20
278.0758130528
 10
338.9297951434
 20
280.4970520776
 10
337.488683922
 20
282.8426497184
 10
335.9294991276
 20
285.091358916
 10
334.2663606132
 20
287.2228367119
 10
332.5143301146
 20
289.2177660052
 10
330.6892742742
 20
291.0580928045
 10
328.8077214064
 20
292.7271210819
 10
326.8867108567
 20
294.2097700807
 10
324.9436390659
 20
295.4926023429
 10
322.996103002
 20
296.563987099
 10
321.0617417794
 20
297.4142282013
 10
319.1580700481
 20
298.0356359714
 10
317.3023298201
 20
298.4225762367
 10
315.5113271515
 20
298.5715402776
 10
313.8012806764
 20
298.4811835964
 10
312.1876767273
 20
298.1523243836
 10
310.685128407
 20
297.5879397016
 10
310.5793661591
 20
297.5372494887
  0
LWPOLYLINE
  5
389
330
1F
100
AcDbEntity
  8
0
  6
Continuous
 62
     7
370
    15
100
AcDbPolyline
 90
       33
 70
   128
 43
0.0
 10
340.0530076684
 20
247.9209226674
 10
340.4813816512
 20
248.3110780448
 10
341.5737463051
 20
249.543080238
 10
342.5078403232
 20
250.977940068
 10
343.2752047013
 20
252.6026303919
 10
343.8688898193
 20
254.4024618366
 10
344.2835186611
 20
256.3611193071
 10
344.5153368646
 20
258.4608764412
 10
344.5622449899
 20
260.6826986557
 10
344.4238182758
 20
263.0064994243
 10
344.1013099325
 20
265.4111992135
 10
343.5976412633
 20
267.8750353702
 10
342.9173733477
 20
270.3757001436
 10
342.0666668693
 20
272.8905342188
 10
341.053225482
 20
275.3967662574
 10
339.8862273205
 20
277.8717106113
 10
338.5762410363
 20
280.292949636
 10
337.1351298149
 20
282.6385472768
 10
335.5759450205
 20
284.8872564744
 10
333.9128065061
 20
287.0187342703
 10
332.1607760075
 20
289.0136635636
 10
330.3357201671
 20
290.8539903629
 10
328.4541672993
 20
292.5230186403
 10
326.5331567496
 20
294.0056676391
 10
324.5900849589
 20
295.2884999013
 10
322.6425488949
 20
296.3598846575
 10
320.7081876723
 20
297.2101257597
 10
318.804515941
 20
297.8315335298
 10
316.948775713
 20
298.2184737951
 10
315.1577730444
 20
298.367437836
 10
313.4477265693
 20
298.2770811549
 10
311.8341226203
 20
297.948221942
 10
311.30213983
 20
297.7797903311
  0
LWPOLYLINE
  5
38A
330
1F
100
AcDbEntity
  8
0
  6
Continuous
 62
     7
370
    15
100
AcDbPolyline
 90
       37
 70
   128
 43
0.0
 10
295.7796346475
 20
288.9935453227
 10
296.0670208366
 20
289.2025550961
 10
297.4432050026
 20
290.0057908361
 10
298.9446733099
 20
290.5783914578
 10
300.5578294487
 20
290.9151868194
 10
302.2680629505
 20
291.0131375005
 10
304.0598848484
 20
290.8713416597
 10
305.917069923
 20
290.4910867592
 10
307.8227976303
 20
289.875816878
 10
309.759808836
 20
289.0311030687
 10
311.710564524
 20
287.9646004062
 10
313.6573959454
 20
286.685961309
 10
315.582673205
 20
285.2067747179
 10
317.4689606784
 20
283.5404155391
 10
319.2991752273
 20
281.7020019782
 10
321.0567428504
 20
279.7081590979
 10
322.7257464446
 20
277.5769578528
 10
324.2910713433
 20
275.3276972303
 10
325.7385417998
 20
272.9807402885
 10
327.0550489916
 20
270.5573550889
 10
328.2286704646
 20
268.0794753994
 10
329.2487782979
 20
265.5695409123
 10
330.1061334416
 20
263.0502846088
 10
330.7929716558
 20
260.5445249703
 10
331.3030736463
 20
258.0749429794
 10
331.6318190647
 20
255.6639171045
 10
331.7762312898
 20
253.3332784349
 10
331.7350017938
 20
251.1041384386
 10
331.5085046299
 20
248.9966737519
 10
331.0987905057
 20
247.0299714255
 10
330.5095703195
 20
245.2218437495
 10
329.746179599
 20
243.5886784396
 10
328.8155317443
 20
242.1452466151
 10
327.7260554666
 20
240.9046294088
 10
326.4876170798
 20
239.8780559812
 10
325.1114315968
 20
239.074833169
 10
324.7031952465
 20
238.8910438343
  0
LWPOLYLINE
  5
38B
330
1F
100
AcDbEntity
  8
0
  6
Continuous
 62
     7
370
    15
100
AcDbPolyline
 90
       35
 70
   128
 43
0.0
 10
326.4608498797
 20
239.8201716184
 10
327.1723268782
 20
240.2733305342
 10
328.410765265
 20
241.2999039618
 10
329.5002415427
 20
242.540521168
 10
330.4308893974
 20
243.9839529925
 10
331.1942801179
 20
245.6171183025
 10
331.7835003041
 20
247.4252459784
 10
332.1932144283
 20
249.3919483049
 10
332.4197115922
 20
251.4994129915
 10
332.4609410882
 20
253.7285529879
 10
332.316528863
 20
256.0591916574
 10
331.9877834446
 20
258.4702175323
 10
331.4776814542
 20
260.9397995233
 10
330.79084324
 20
263.4455591618
 10
329.9334880963
 20
265.9648154653
 10
328.9133802629
 20
268.4747499523
 10
327.73975879
 20
270.9526296418
 10
326.4232515981
 20
273.3760148415
 10
324.9757811417
 20
275.7229717833
 10
323.4104562429
 20
277.9722324058
 10
321.7414526488
 20
280.1034336508
 10
319.9838850257
 20
282.0972765311
 10
318.1536704768
 20
283.9356900921
 10
316.2673830034
 20
285.6020492708
 10
314.3421057438
 20
287.0812358619
 10
312.3952743224
 20
288.3598749592
 10
310.4445186343
 20
289.4263776217
 10
308.5075074287
 20
290.271091431
 10
306.6017797214
 20
290.8863613122
 10
304.7445946468
 20
291.2666162127
 10
302.9527727488
 20
291.4084120534
 10
301.242539247
 20
291.3104613723
 10
299.6293831083
 20
290.9736660108
 10
298.127914801
 20
290.401065389
 10
297.4632063164
 20
290.0510014926
  0
LWPOLYLINE
  5
38C
330
1F
100
AcDbEntity
  8
0
  6
Continuous
 62
     7
370
    15
100
AcDbPolyline
 90
       21
 70
   128
 43
0.0
 10
339.0614190928
 20
277.488485015
 10
340.2350405657
 20
275.0106053255
 10
341.2551483991
 20
272.5006708385
 10
342.1125035427
 20
269.981414535
 10
342.799341757
 20
267.4756548964
 10
343.3094437474
 20
265.0060729055
 10
343.6381891658
 20
262.5950470306
 10
343.7826013909
 20
260.2644083611
 10
343.7413718949
 20
258.0352683647
 10
343.514874731
 20
255.9278036781
 10
343.1051606068
 20
253.9611013516
 10
342.5159404207
 20
252.1529736757
 10
341.7525497001
 20
250.5198083657
 10
340.8219018454
 20
249.0763765412
 10
339.7324255677
 20
247.8357593349
 10
338.4939871809
 20
246.8091859073
 10
337.1178016979
 20
246.0059630952
 10
335.6163324028
 20
245.4333630436
 10
334.0031768196
 20
245.0965551939
 10
332.2929439147
 20
244.9986163357
 10
330.9713127526
 20
245.0807992179
  0
LWPOLYLINE
  5
38D
330
1F
100
AcDbEntity
  8
0
  6
Continuous
 62
     7
370
    15
100
AcDbPolyline
 90
       23
 70
   128
 43
0.0
 10
304.2744030877
 20
291.3262159982
 10
304.8148284186
 20
292.4230747313
 10
305.7454756147
 20
293.866506936
 10
306.8349505753
 20
295.1071249026
 10
308.0733909378
 20
296.1336850223
 10
309.4495751037
 20
296.9369207622
 10
310.951043411
 20
297.509521384
 10
312.5641995498
 20
297.8463167455
 10
314.2744330516
 20
297.9442674266
 10
316.0662549495
 20
297.8024715858
 10
317.9234400241
 20
297.4222166853
 10
319.8291677314
 20
296.8069468042
 10
321.7661789371
 20
295.9622329949
 10
323.7169346252
 20
294.8957303323
 10
325.6637660465
 20
293.6170912351
 10
327.5890433061
 20
292.137904644
 10
329.4753307796
 20
290.4715454652
 10
331.3055453284
 20
288.6331319043
 10
333.0631129515
 20
286.639289024
 10
334.7321165457
 20
284.5080877789
 10
336.2974414444
 20
282.2588271565
 10
337.7449119009
 20
279.9118702147
 10
339.0614190928
 20
277.488485015
  0
LWPOLYLINE
  5
38E
330
1F
100
AcDbEntity
  8
0
  6
Continuous
 62
     7
370
    15
100
AcDbPolyline
 90
       35
 70
   128
 43
0.0
 10
309.5064180315
 20
297.0033996298
 10
310.171126516
 20
297.3534635262
 10
311.6725948233
 20
297.9260641479
 10
313.2857509621
 20
298.2628595095
 10
314.9959844639
 20
298.3608101906
 10
316.7878063619
 20
298.2190143498
 10
318.6449914364
 20
297.8387594493
 10
320.5507191438
 20
297.2234895681
 10
322.4877303494
 20
296.3787757588
 10
324.4384860375
 20
295.3122730963
 10
326.3853174588
 20
294.0336339991
 10
328.3105947184
 20
292.554447408
 10
330.1968821919
 20
290.8880882292
 10
332.0270967408
 20
289.0496746683
 10
333.7846643638
 20
287.055831788
 10
335.453667958
 20
284.9246305429
 10
337.0189928567
 20
282.6753699204
 10
338.4664633132
 20
280.3284129786
 10
339.7829705051
 20
277.905027779
 10
340.956591978
 20
275.4271480895
 10
341.9766998114
 20
272.9172136024
 10
342.8340549551
 20
270.3979572989
 10
343.5208931693
 20
267.8921976604
 10
344.0309951597
 20
265.4226156695
 10
344.3597405781
 20
263.0115897946
 10
344.5041528033
 20
260.6809511251
 10
344.4629233072
 20
258.4518111287
 10
344.2364261433
 20
256.344346442
 10
343.8267120192
 20
254.3776441156
 10
343.237491833
 20
252.5695164396
 10
342.4741011124
 20
250.9363511297
 10
341.5434532577
 20
249.4929193052
 10
340.4539769801
 20
248.2523020989
 10
339.2155385932
 20
247.2257286713
 10
338.5040615948
 20
246.7725697555
  0
LWPOLYLINE
  5
38F
330
1F
100
AcDbEntity
  8
0
  6
Continuous
 62
     7
370
    15
100
AcDbPolyline
 90
       37
 70
   128
 43
0.0
 10
286.5639366257
 20
156.3285893596
 10
286.5741875295
 20
156.8610185287
 10
286.730871073
 20
158.3967013469
 10
287.0738515895
 20
159.7862087387
 10
287.5970072492
 20
161.0047520813
 10
288.2910038422
 20
162.0305804999
 10
289.1434554635
 20
162.8453900112
 10
290.1391497348
 20
163.4346437002
 10
291.2603191255
 20
163.7878226978
 10
292.4869583704
 20
163.8986201291
 10
293.7971748159
 20
163.7650673829
 10
295.1675888148
 20
163.3895463164
 10
296.5737459755
 20
162.7787581155
 10
297.9905531179
 20
161.9435993797
 10
299.3927267429
 20
160.8989701476
 10
300.7552454517
 20
159.6635188041
 10
302.0537951227
 20
158.2592877462
 10
303.2652028917
 20
156.7113411773
 10
304.3678510473
 20
155.0472949899
 10
305.3420632676
 20
153.2968443642
 10
306.1704543067
 20
151.4912333781
 10
306.8382416515
 20
149.662679651
 10
307.3335086098
 20
147.8438087745
 10
307.647417113
 20
146.0670873538
 10
307.7743654735
 20
144.3642148212
 10
307.712088288
 20
142.7655821091
 10
307.4616968913
 20
141.2997129301
 10
307.0276595492
 20
139.992770265
 10
306.4177216351
 20
138.8680731606
 10
305.6427675315
 20
137.9456927987
 10
304.7166264262
 20
137.2420900783
 10
303.6558248227
 20
136.7698204616
 10
302.4792935709
 20
136.5373107033
 10
301.2080270696
 20
136.5487118589
 10
299.8647115187
 20
136.8038188309
 10
298.4733189259
 20
137.2980796466
 10
297.1688146954
 20
137.9584108968
  0
LWPOLYLINE
  5
390
330
1F
100
AcDbEntity
  8
0
  6
Continuous
 62
     7
370
    15
100
AcDbPolyline
 90
       45
 70
   128
 43
0.0
 10
286.7923727093
 20
152.2121590978
 10
287.1734447572
 20
150.5429719646
 10
287.7292405168
 20
148.8502945578
 10
288.4484435594
 20
147.1685899939
 10
289.3164144406
 20
145.5320860943
 10
290.315483094
 20
143.9741016431
 10
291.4253123483
 20
142.5263498368
 10
292.6233075412
 20
141.2183063783
 10
293.8850827698
 20
140.0765965876
 10
295.1849495298
 20
139.124463884
 10
296.4964494785
 20
138.3812858012
 10
297.7928819289
 20
137.8621995094
 10
299.0478563683
 20
137.5777676431
 10
300.2358245626
 20
137.5337775894
 10
301.3326027818
 20
137.7311316496
 10
302.3158640621
 20
138.1658062109
 10
303.1655922726
 20
138.8289576831
 10
303.8644890953
 20
139.7070829948
 10
304.3983271701
 20
140.7823054653
 10
304.7562388662
 20
142.0327373825
 10
304.9309383764
 20
143.4329267006
 10
304.9188690666
 20
144.9543651383
 10
304.720276903
 20
146.5660815365
 10
304.3392045259
 20
148.2352658179
 10
303.7834094247
 20
149.9279398026
 10
303.0642060528
 20
151.6096506403
 10
302.1962351717
 20
153.246151498
 10
301.1971665183
 20
154.8041359493
 10
300.0873379226
 20
156.2518904173
 10
298.8893420711
 20
157.5599342559
 10
297.627567501
 20
158.7016436664
 10
296.3277000825
 20
159.6537767502
 10
295.0162001338
 20
160.3969517912
 10
293.7197683419
 20
160.9160407447
 10
292.464793244
 20
161.2004699492
 10
291.2768250497
 20
161.2444630448
 10
290.1800468305
 20
161.0471089846
 10
289.1967858794
 20
160.6124311914
 10
288.3470579983
 20
159.9492795291
 10
287.648160517
 20
159.0711576395
 10
287.1143232654
 20
157.9959316519
 10
286.7564109108
 20
156.7455001148
 10
286.5817122237
 20
155.3453133633
 10
286.5937807103
 20
153.8238754009
 10
286.7923727093
 20
152.2121590978
  0
LWPOLYLINE
  5
391
330
1F
100
AcDbEntity
  8
0
  6
Continuous
 62
     7
370
    15
100
AcDbPolyline
 90
       26
 70
   128
 43
0.0
 10
291.0853621243
 20
164.0126682202
 10
291.5533633644
 20
164.2510518508
 10
292.674532755
 20
164.6042308484
 10
293.9011719999
 20
164.7150282797
 10
295.2113884454
 20
164.5814755335
 10
296.5818024444
 20
164.205954467
 10
297.987959605
 20
163.5951662661
 10
299.4047667475
 20
162.7600075303
 10
300.8069403724
 20
161.7153782982
 10
302.1694590813
 20
160.4799269547
 10
303.4680087523
 20
159.0756958968
 10
304.6794165212
 20
157.5277493279
 10
305.7820646769
 20
155.8637031405
 10
306.7562768971
 20
154.1132525148
 10
307.5846679362
 20
152.3076415287
 10
308.252455281
 20
150.4790878016
 10
308.7477222393
 20
148.6602169251
 10
309.0616307426
 20
146.8834955044
 10
309.1885791031
 20
145.1806229718
 10
309.1263019175
 20
143.5819902597
 10
308.8759105208
 20
142.1161210807
 10
308.4418731787
 20
140.8091784156
 10
307.8319352646
 20
139.6844813112
 10
307.0569811611
 20
138.7621009493
 10
306.1308400557
 20
138.0584982289
 10
306.0841426647
 20
138.0312015944
  0
LWPOLYLINE
  5
392
330
1F
100
AcDbEntity
  8
0
  6
Continuous
 62
     7
370
    15
100
AcDbPolyline
 90
       17
 70
   128
 43
0.0
 10
295.5607999783
 20
155.1028066332
 10
295.4202527508
 20
155.54762051
 10
295.1698820314
 20
155.9660386809
 10
294.8478076689
 20
156.2943634082
 10
294.503059619
 20
156.482607983
 10
294.1881225618
 20
156.5021162441
 10
293.9509464402
 20
156.3499192809
 10
293.8276352982
 20
156.0491841808
 10
293.8369629226
 20
155.6457001761
 10
293.9775108086
 20
155.2008859192
 10
294.227881528
 20
154.7824677482
 10
294.5499572076
 20
154.4541422606
 10
294.8947052575
 20
154.2658916021
 10
295.2096409976
 20
154.2463841014
 10
295.4468177777
 20
154.3985806844
 10
295.5701289198
 20
154.6993157845
 10
295.5607999783
 20
155.1028066332
  0
LWPOLYLINE
  5
393
330
1F
100
AcDbEntity
  8
0
  6
Continuous
 62
     7
370
    15
100
AcDbPolyline
 90
       17
 70
   128
 43
0.0
 10
291.9638832178
 20
150.583481891
 10
291.8233353318
 20
151.0282961479
 10
291.5729659295
 20
151.4467135585
 10
291.2508902499
 20
151.7750390462
 10
290.9061421999
 20
151.9632866628
 10
290.5912064599
 20
151.9827941635
 10
290.3540290212
 20
151.8305949188
 10
290.2307178791
 20
151.5298628606
 10
290.2400468206
 20
151.1263750537
 10
290.3805947066
 20
150.6815607968
 10
290.6309641089
 20
150.2631433862
 10
290.9530397885
 20
149.9348178985
 10
291.2977878385
 20
149.7465702819
 10
291.6127235785
 20
149.7270597393
 10
291.8499010172
 20
149.8792589841
 10
291.9732121593
 20
150.1799940841
 10
291.9638832178
 20
150.583481891
  0
LWPOLYLINE
  5
394
330
1F
100
AcDbEntity
  8
0
  6
Continuous
 62
     7
370
    15
100
AcDbPolyline
 90
       17
 70
   128
 43
0.0
 10
297.6756866897
 20
143.1325404581
 10
297.5351388037
 20
143.577354715
 10
297.2847687429
 20
143.9957725058
 10
296.9626930632
 20
144.3240979934
 10
296.6179450133
 20
144.51234561
 10
296.3030092733
 20
144.5318561526
 10
296.0658318345
 20
144.3796569079
 10
295.9425213511
 20
144.0789214277
 10
295.951849634
 20
143.675434001
 10
296.09239752
 20
143.2306197441
 10
296.3427675808
 20
142.8122019533
 10
296.6648426019
 20
142.4838768458
 10
297.0095906518
 20
142.2956292292
 10
297.3245263919
 20
142.2761217285
 10
297.5617038306
 20
142.4283179313
 10
297.6850149727
 20
142.7290530314
 10
297.6756866897
 20
143.1325404581
  0
LWPOLYLINE
  5
395
330
1F
100
AcDbEntity
  8
0
  6
Continuous
 62
     7
370
    15
100
AcDbPolyline
 90
       17
 70
   128
 43
0.0
 10
301.2726031209
 20
147.6518653904
 10
301.1320552349
 20
148.0966766055
 10
300.8816855034
 20
148.515097248
 10
300.5596098237
 20
148.8434227357
 10
300.2148617738
 20
149.0316673104
 10
299.8999260338
 20
149.051177853
 10
299.662748595
 20
148.8989786083
 10
299.539437453
 20
148.5982435082
 10
299.5487663945
 20
148.1947557014
 10
299.6893142805
 20
147.7499444863
 10
299.9396836828
 20
147.3315240338
 10
300.2617593624
 20
147.0031985462
 10
300.6065074123
 20
146.8149539714
 10
300.9214431524
 20
146.7954434288
 10
301.1586205911
 20
146.9476426736
 10
301.2819317331
 20
147.2483777736
 10
301.2726031209
 20
147.6518653904
  0
LWPOLYLINE
  5
396
330
1F
100
AcDbEntity
  8
0
  6
Continuous
 62
     7
370
    15
100
AcDbPolyline
 90
       37
 70
   128
 43
0.0
 10
286.5639366257
 20
111.4188438085
 10
286.5706063645
 20
111.8492595866
 10
286.7153083492
 20
113.393337171
 10
287.0465852127
 20
114.7929135143
 10
287.5585232252
 20
116.0230133194
 10
288.2419883745
 20
117.0616857284
 10
289.0847844162
 20
117.8903948349
 10
290.0718701937
 20
118.494352787
 10
291.1856322758
 20
118.8627814124
 10
292.4061944719
 20
118.9891084467
 10
293.7117773982
 20
118.8710763133
 10
295.07908175
 20
118.51079235
 10
296.4837071362
 20
117.9146877833
 10
297.9005900112
 20
117.0933972361
 10
299.3044449003
 20
116.0615785394
 10
300.6702207703
 20
114.837644712
 10
301.9735442304
 20
113.4434351018
 10
303.1911577935
 20
111.9038300623
 10
304.3013334422
 20
110.2463053604
 10
305.2842598527
 20
108.5004379117
 10
306.122396692
 20
106.6973833756
 10
306.8007874265
 20
104.8693168644
 10
307.3073261561
 20
103.0488614092
 10
307.6329736885
 20
101.2685016216
 10
307.7719188135
 20
99.560009219
 10
307.7216820595
 20
97.9538717164
 10
307.4831599064
 20
96.4787507383
 10
307.0606087535
 20
95.1609699763
 10
306.4615690925
 20
94.0240450809
 10
305.6967308088
 20
93.0882648386
 10
304.7797423196
 20
92.3703277763
 10
303.7269673859
 20
91.8830460445
 10
302.5571931301
 20
91.6351141624
 10
301.2912934372
 20
91.6309584619
 10
299.9518593476
 20
91.8706504548
 10
298.5627920754
 20
92.3499155407
 10
297.1688146954
 20
93.048665726
  0
LWPOLYLINE
  5
397
330
1F
100
AcDbEntity
  8
0
  6
Continuous
 62
     7
370
    15
100
AcDbPolyline
 90
       45
 70
   128
 43
0.0
 10
286.8100164337
 20
107.2042810783
 10
287.2017490001
 20
105.5327356094
 10
287.7676270762
 20
103.8397473589
 10
288.4961314014
 20
102.1597803748
 10
289.3724328706
 20
100.5270331832
 10
290.378691513
 20
98.9747448934
 10
291.4944239602
 20
97.5345142388
 10
292.6969156951
 20
96.2356617765
 10
293.9616886182
 20
95.1046268847
 10
295.2629962736
 20
94.1644343441
 10
296.5743454156
 20
93.4342248011
 10
297.8690419427
 20
92.9288631806
 10
299.1207295865
 20
92.6586360726
 10
300.3039279429
 20
92.6290449362
 10
301.3945504173
 20
92.8406926496
 10
302.3703948401
 20
93.2892702481
 10
303.211595887
 20
93.9656461303
 10
303.9010287666
 20
94.8560514593
 10
304.4246592368
 20
95.9423595703
 10
304.7718272732
 20
97.2024568183
 10
304.9354657053
 20
98.6106911762
 10
304.9122434503
 20
100.1383950667
 10
304.7026330139
 20
101.7544683587
 10
304.3109014354
 20
103.4260132574
 10
303.7450235239
 20
105.1190014128
 10
303.0165185401
 20
106.7989685869
 10
302.1402170709
 20
108.4317157786
 10
301.1339580993
 20
109.9840046387
 10
300.0182256521
 20
111.4242349131
 10
298.8157339172
 20
112.7230877556
 10
297.5509609941
 20
113.8541234078
 10
296.2496539972
 20
114.7943148078
 10
294.9383048552
 20
115.5245235903
 10
293.6436076696
 20
116.0298871119
 10
292.3919200258
 20
116.30011422
 10
291.2087210108
 20
116.3297045959
 10
290.1180988657
 20
116.1180566923
 10
289.1422544429
 20
115.6694790939
 10
288.3010547131
 20
114.9931030217
 10
287.6116205164
 20
114.1026982629
 10
287.0879907047
 20
113.0163894865
 10
286.7408231623
 20
111.7562923336
 10
286.5771840716
 20
110.3480582609
 10
286.6004069852
 20
108.8203541803
 10
286.8100164337
 20
107.2042810783
  0
LWPOLYLINE
  5
398
330
1F
100
AcDbEntity
  8
0
  6
Continuous
 62
     7
370
    15
100
AcDbPolyline
 90
       26
 70
   128
 43
0.0
 10
291.0853621243
 20
119.1029238098
 10
291.4860838233
 20
119.3107609376
 10
292.5998459053
 20
119.679189563
 10
293.8204081015
 20
119.8055165973
 10
295.1259910278
 20
119.6874844639
 10
296.4932953796
 20
119.3272005006
 10
297.8979207657
 20
118.7310959339
 10
299.3148036408
 20
117.9098053867
 10
300.7186585299
 20
116.87798669
 10
302.0844343998
 20
115.6540528626
 10
303.38775786
 20
114.2598432524
 10
304.6053714231
 20
112.7202382129
 10
305.7155470717
 20
111.062713511
 10
306.6984734822
 20
109.3168460623
 10
307.5366103215
 20
107.5137915262
 10
308.215001056
 20
105.685725015
 10
308.7215397856
 20
103.8652695598
 10
309.047187318
 20
102.0849097722
 10
309.186132443
 20
100.3764173696
 10
309.1358956891
 20
98.770279867
 10
308.8973735359
 20
97.2951588889
 10
308.474822383
 20
95.9773781269
 10
307.875782722
 20
94.8404532315
 10
307.1109444383
 20
93.9046729892
 10
306.1939559492
 20
93.1867359269
 10
306.0841426647
 20
93.1214579445
  0
LWPOLYLINE
  5
399
330
1F
100
AcDbEntity
  8
0
  6
Continuous
 62
     7
370
    15
100
AcDbPolyline
 90
       17
 70
   128
 43
0.0
 10
295.519559287
 20
110.2147452338
 10
295.3763383689
 20
110.6597079104
 10
295.1239604058
 20
111.0768178969
 10
294.8008481771
 20
111.4025736832
 10
294.4561910063
 20
111.5873824951
 10
294.1424617198
 20
111.6031075666
 10
293.9074232337
 20
111.44735564
 10
293.7868555881
 20
111.1438397845
 10
293.7991150526
 20
110.7387659271
 10
293.9423366293
 20
110.2938036308
 10
294.1947145924
 20
109.8766936443
 10
294.517826821
 20
109.550937858
 10
294.8624826747
 20
109.3661298065
 10
295.1762119612
 20
109.3504039745
 10
295.4112517645
 20
109.5061551408
 10
295.5318194101
 20
109.8096717567
 10
295.519559287
 20
110.2147452338
  0
LWPOLYLINE
  5
39A
330
1F
100
AcDbEntity
  8
0
  6
Continuous
 62
     7
370
    15
100
AcDbPolyline
 90
       17
 70
   128
 43
0.0
 10
291.9713484783
 20
105.6322195689
 10
291.8281269016
 20
106.0771824355
 10
291.5757489386
 20
106.4942922318
 10
291.2526367099
 20
106.8200476379
 10
290.9079808562
 20
107.0048558796
 10
290.5942515697
 20
107.0205815215
 10
290.3592117664
 20
106.8648303552
 10
290.2386441208
 20
106.5613141195
 10
290.2509049025
 20
106.1562398819
 10
290.3941251621
 20
105.7112776806
 10
290.6465031251
 20
105.2941679793
 10
290.9696166709
 20
104.9684117179
 10
291.3142725246
 20
104.7836035712
 10
291.6280018111
 20
104.7678779293
 10
291.8630416144
 20
104.9236290006
 10
291.9836079429
 20
105.2271460916
 10
291.9713484783
 20
105.6322195689
  0
LWPOLYLINE
  5
39B
330
1F
100
AcDbEntity
  8
0
  6
Continuous
 62
     7
370
    15
100
AcDbPolyline
 90
       17
 70
   128
 43
0.0
 10
297.7135345597
 20
98.2199832248
 10
297.5703136415
 20
98.6649458063
 10
297.3179356785
 20
99.0820555076
 10
296.9948227912
 20
99.4078113889
 10
296.6501669376
 20
99.5926195355
 10
296.336437651
 20
99.6083451774
 10
296.1013978478
 20
99.4525941061
 10
295.9808308607
 20
99.1490773952
 10
295.9930909838
 20
98.7440035378
 10
296.136311902
 20
98.2990410514
 10
296.388689865
 20
97.881931255
 10
296.7118020937
 20
97.556175849
 10
297.0564586059
 20
97.3713672271
 10
297.3701878924
 20
97.3556415852
 10
297.6052270372
 20
97.5113931317
 10
297.7257946828
 20
97.8149093674
 10
297.7135345597
 20
98.2199832248
  0
LWPOLYLINE
  5
39C
330
1F
100
AcDbEntity
  8
0
  6
Continuous
 62
     7
370
    15
100
AcDbPolyline
 90
       17
 70
   128
 43
0.0
 10
301.2617453683
 20
102.80250927
 10
301.1185241209
 20
103.2474721366
 10
300.8661461579
 20
103.6645817429
 10
300.5430335999
 20
103.990337339
 10
300.1983777462
 20
104.1751453906
 10
299.8846484597
 20
104.1908712226
 10
299.6496086565
 20
104.0351200563
 10
299.5290416694
 20
103.7316034404
 10
299.541301134
 20
103.3265299632
 10
299.6845227106
 20
102.8815669065
 10
299.9369006737
 20
102.4644573002
 10
300.2600129024
 20
102.1387018942
 10
300.6046694146
 20
101.9538934624
 10
300.9183983719
 20
101.9381678205
 10
301.1534378458
 20
102.0939191769
 10
301.2740054915
 20
102.3974354126
 10
301.2617453683
 20
102.80250927
  0
LWPOLYLINE
  5
39D
330
1F
100
AcDbEntity
  8
0
  6
Continuous
 62
     7
370
    15
100
AcDbPolyline
 90
       19
 70
   128
 43
0.0
 10
305.2400117533
 20
273.9682126379
 10
306.6568129688
 20
273.1324002837
 10
308.0589055928
 20
272.0871851074
 10
309.4212695437
 20
270.8511964823
 10
310.7195939924
 20
269.4464992395
 10
311.9307096969
 20
267.8981615751
 10
313.0330042141
 20
266.2338206752
 10
314.0068074782
 20
264.4831559408
 10
314.8347418168
 20
262.6774314127
 10
315.502032619
 20
260.8488540647
 10
315.9967720831
 20
259.0300686909
 10
316.3101316175
 20
257.2535120906
 10
316.4365192991
 20
255.5509084777
 10
316.3736797322
 20
253.952627798
 10
316.122734299
 20
252.4871879642
 10
315.6881610869
 20
251.1807554125
 10
315.0777151057
 20
250.0566314593
 10
314.3022898135
 20
249.1348820473
 10
313.3986393202
 20
248.4455750977
  0
ARC
  5
39E
330
1F
100
AcDbEntity
  8
0
  6
Continuous
 62
     7
370
    15
100
AcDbCircle
 10
301.4276756108
 20
268.0002550965
 30
0.0
 40
7.081696412503434
100
AcDbArc
 50
57.4295265384
 51
117.4926973571
  0
ARC
  5
39F
330
1F
100
AcDbEntity
  8
0
  6
Continuous
 62
     7
370
    15
100
AcDbCircle
 10
305.9325650223
 20
270.5442184211
 30
0.0
 40
7.150572092574512
100
AcDbArc
 50
57.586128584
 51
115.459838051
  0
LWPOLYLINE
  5
3A0
330
1F
100
AcDbEntity
  8
0
  6
Continuous
 62
     7
370
    15
100
AcDbPolyline
 90
       20
 70
   128
 43
0.0
 10
317.857470328
 20
251.0189057634
 10
317.9012055859
 20
251.0444568576
 10
318.8277727695
 20
251.747387749
 10
319.6031980617
 20
252.6691371611
 10
320.2136440429
 20
253.7932611142
 10
320.648217255
 20
255.099693666
 10
320.8991626882
 20
256.5651334998
 10
320.9620022551
 20
258.1634141795
 10
320.8356145735
 20
259.8660177923
 10
320.5222550391
 20
261.6425743926
 10
320.027515575
 20
263.4613597665
 10
319.3602247728
 20
265.2899371145
 10
318.5322904342
 20
267.0956616426
 10
317.5584871701
 20
268.8463263769
 10
316.4561926529
 20
270.5106672769
 10
315.2450769484
 20
272.0590049412
 10
313.9467524997
 20
273.463702184
 10
312.5843885488
 20
274.6996908091
 10
311.1822959248
 20
275.7449059854
 10
309.7654947093
 20
276.5807183397
  0
ARC
  5
3A1
330
1F
100
AcDbEntity
  8
0
  6
Continuous
 62
     7
370
    15
100
AcDbCircle
 10
298.5627625749
 20
257.2003581549
 30
0.0
 40
22.42126326019534
100
AcDbArc
 50
2.3801518334
 51
57.6144476857
  0
LINE
  5
3A2
330
1F
100
AcDbEntity
  8
0
  6
Continuous
 62
     7
370
    15
100
AcDbLine
 10
309.1559985962
 20
251.0695723369
 30
0.0
 11
309.1559985962
 21
145.9185067569
 31
0.0
  0
LINE
  5
3A3
330
1F
100
AcDbEntity
  8
0
  6
Continuous
 62
     7
370
    15
100
AcDbLine
 10
309.1559985962
 20
143.9200650322
 30
0.0
 11
309.1559985962
 21
101.0087608256
 31
0.0
  0
LINE
  5
3A4
330
1F
100
AcDbEntity
  8
0
  6
Continuous
 62
     7
370
    15
100
AcDbLine
 10
309.1559985962
 20
99.0103198613
 30
0.0
 11
309.1559985962
 21
96.743362492
 31
0.0
  0
LWPOLYLINE
  5
3A5
330
1F
100
AcDbEntity
  8
0
  6
Continuous
 62
     7
370
    15
100
AcDbPolyline
 90
       18
 70
   128
 43
0.0
 10
309.1559985962
 20
96.743362492
 10
309.0572081326
 20
95.1326085379
 10
308.7626770442
 20
93.6659211922
 10
308.2778918096
 20
92.3706216565
 10
307.6118832758
 20
91.2708386142
 10
306.7770575983
 20
90.3870598144
 10
305.7889662233
 20
89.7357481239
 10
304.6660154697
 20
89.3290357936
 10
303.4291236747
 20
89.1744995672
 10
302.1013313348
 20
89.2750180574
 10
300.7073737112
 20
89.6287180936
 10
299.2732172137
 20
90.229011941
 10
297.8255770173
 20
91.0647168379
 10
296.3914198613
 20
92.1202652171
 10
294.9974615791
 20
93.3759947756
 10
293.6696698978
 20
94.8085123093
 10
292.432778432
 20
96.3911332146
 10
292.1390293858
 20
96.8089807703
  0
LINE
  5
3A6
330
1F
100
AcDbEntity
  8
0
  6
Continuous
 62
     7
370
    15
100
AcDbLine
 10
287.9427956348
 20
116.6617985678
 30
0.0
 11
287.9427956348
 21
148.3079583588
 31
0.0
  0
LINE
  5
3A7
330
1F
100
AcDbEntity
  8
0
  6
Continuous
 62
     7
370
    15
100
AcDbLine
 10
287.9427956348
 20
161.571544499
 30
0.0
 11
287.9427956348
 21
205.4004582114
 31
0.0
  0
LINE
  5
3A8
330
1F
100
AcDbEntity
  8
0
  6
Continuous
 62
     7
370
    15
100
AcDbLine
 10
287.9427956348
 20
218.8008607514
 30
0.0
 11
287.9427956348
 21
254.3929088713
 31
0.0
  0
LWPOLYLINE
  5
3A9
330
1F
100
AcDbEntity
  8
0
  6
Continuous
 62
     7
370
    15
100
AcDbPolyline
 90
       19
 70
   128
 43
0.0
 10
291.0500061868
 20
270.1833682526
 10
291.3098270199
 20
270.3233140021
 10
292.432778432
 20
270.7300229103
 10
293.6696698978
 20
270.8845631292
 10
294.9974615791
 20
270.7840404563
 10
296.3914198613
 20
270.4303468841
 10
297.8255770173
 20
269.830053417
 10
299.2732172137
 20
268.9943485201
 10
300.7073737112
 20
267.9387997606
 10
302.1013313348
 20
266.6830637381
 10
303.4291236747
 20
265.2505503871
 10
304.6660154697
 20
263.6679254894
 10
305.7889662233
 20
261.9646848584
 10
306.7770575983
 20
260.1725425867
 10
307.6118832758
 20
258.3249018005
 10
308.2778918096
 20
256.4561578705
 10
308.7626770442
 20
254.6011413994
 10
309.0572081326
 20
252.7943892335
 10
309.1559985962
 20
251.0695723369
  0
LWPOLYLINE
  5
3AA
330
1F
100
AcDbEntity
  8
0
  6
Continuous
 62
     7
370
    15
100
AcDbPolyline
 90
       19
 70
   128
 43
0.0
 10
295.2926469108
 20
272.6325926094
 10
295.5524677439
 20
272.7725383588
 10
296.675419156
 20
273.1792472671
 10
297.9123106218
 20
273.3337874859
 10
299.2401023031
 20
273.2332648131
 10
300.6340605853
 20
272.8795712408
 10
302.0682177413
 20
272.2792777737
 10
303.5158579377
 20
271.4435728769
 10
304.9500144352
 20
270.3880241174
 10
306.3439720588
 20
269.1322880948
 10
307.6717643987
 20
267.6997747438
 10
308.9086561937
 20
266.1171498461
 10
310.0316069473
 20
264.4139092151
 10
311.0196983223
 20
262.6217669434
 10
311.8545239998
 20
260.7741261573
 10
312.5205325336
 20
258.9053822273
 10
313.0053177682
 20
257.0503657562
 10
313.2998488566
 20
255.2436135903
 10
313.3986393202
 20
253.5187966936
  0
LINE
  5
3AB
330
1F
100
AcDbEntity
  8
0
  6
Continuous
 62
     7
370
    15
100
AcDbLine
 10
313.3986393202
 20
253.5187966936
 30
0.0
 11
309.1559985962
 21
251.0695723369
 31
0.0
  0
LINE
  5
3AC
330
1F
100
AcDbEntity
  8
0
  6
Continuous
 62
     7
370
    15
100
AcDbLine
 10
313.3986393202
 20
99.1925868488
 30
0.0
 11
309.1559985962
 21
96.743362492
 31
0.0
  0
LINE
  5
3AD
330
1F
100
AcDbEntity
  8
0
  6
Continuous
 62
     7
370
    15
100
AcDbLine
 10
313.3986393202
 20
253.5187966936
 30
0.0
 11
313.3986393202
 21
99.1925868488
 31
0.0
  0
ARC
  5
3AE
330
1F
100
AcDbEntity
  8
0
  6
Continuous
 62
     7
370
    15
100
AcDbCircle
 10
305.9058782489
 20
98.4458639432
 30
0.0
 40
7.529878058032339
100
AcDbArc
 50
305.6209170977
 51
5.691261924
  0
LWPOLYLINE
  5
3AF
330
1F
100
AcDbEntity
  8
0
  6
Continuous
 62
     8
370
    15
100
AcDbPolyline
 90
       17
 70
   128
 43
0.0
 10
313.3986399788
 20
225.2773247174
 10
313.4764680858
 20
225.2679851709
 10
314.4805153357
 20
225.0182437497
 10
315.5199600115
 20
224.5294073716
 10
316.5594040287
 20
223.8181268524
 10
317.5634512786
 20
222.9086199942
 10
318.4979094718
 20
221.831843934
 10
319.3309577377
 20
220.6244925832
 10
320.0342266374
 20
219.3276552724
 10
320.5837681999
 20
217.9855145497
 10
320.9608672488
 20
216.6437705775
 10
321.1526828247
 20
215.348114944
 10
321.1526828247
 20
214.1426535036
 10
320.9608672488
 20
213.0684634201
 10
320.5837681999
 20
212.1620965748
 10
320.0342266374
 20
211.4544491183
 10
319.6227904194
 20
211.1313955339
  0
LWPOLYLINE
  5
3B0
330
1F
100
AcDbEntity
  8
0
  6
Continuous
 62
     8
370
    15
100
AcDbPolyline
 90
       19
 70
   128
 43
0.0
 10
314.9650565796
 20
211.7879326415
 10
315.7785006341
 20
211.4254693128
 10
316.7070391707
 20
211.2146945295
 10
317.5627854901
 20
211.248875884
 10
318.3128531967
 20
211.5267030549
 10
318.9284177974
 20
212.0375002406
 10
319.3858230563
 20
212.7616217045
 10
319.6674924206
 20
213.6712579509
 10
319.7626000769
 20
214.7314475835
 10
319.6674924206
 20
215.9014461789
 10
319.3858230563
 20
217.1363031184
 10
318.9284177974
 20
218.3885334531
 10
318.3128531967
 20
219.6100403151
 10
317.5627854901
 20
220.7538772264
 10
316.7070391707
 20
221.7760883344
 10
315.7785006341
 20
222.6373813259
 10
314.8128531144
 20
223.3046729495
 10
313.8472049362
 20
223.7522946007
 10
313.3986386617
 20
223.8828072585
  0
LWPOLYLINE
  5
3B1
330
1F
100
AcDbEntity
  8
0
  6
Continuous
 62
     8
370
    15
100
AcDbPolyline
 90
       19
 70
   128
 43
0.0
 10
326.5907036614
 20
215.1507352824
 10
327.1052956083
 20
215.5364903465
 10
327.6548371708
 20
216.244137803
 10
328.0319362197
 20
217.1505046483
 10
328.2237517956
 20
218.2246947319
 10
328.2237517956
 20
219.4301561722
 10
328.0319362197
 20
220.7258118057
 10
327.6548371708
 20
222.0675557779
 10
327.1052956083
 20
223.4096965006
 10
326.4020267086
 20
224.7065338114
 10
325.5689784427
 20
225.9138851622
 10
324.6345202495
 20
226.9906612224
 10
323.6304729996
 20
227.9001680806
 10
322.5910289824
 20
228.6114485998
 10
321.5515843066
 20
229.1002849779
 10
320.5475370567
 20
229.3500263991
 10
319.613078205
 20
229.3521531839
 10
318.7800312562
 20
229.1066181277
 10
318.5913543034
 20
229.0075128693
  0
ENDSEC
  0
SECTION
  2
OBJECTS
  0
DICTIONARY
  5
C
330
0
100
AcDbDictionary
281
     1
  3
ACAD_GROUP
350
D
  3
ACAD_LAYOUT
350
1A
  3
ACAD_MLINESTYLE
350
17
  3
ACAD_PLOTSETTINGS
350
19
  3
ACAD_PLOTSTYLENAME
350
E
  3
ACAD_SCALELIST
350
47
  0
DICTIONARY
  5
D
102
{ACAD_REACTORS
330
C
102
}
330
C
100
AcDbDictionary
281
     1
  0
DICTIONARY
  5
1A
102
{ACAD_REACTORS
330
C
102
}
330
C
100
AcDbDictionary
281
     1
  3
Layout1
350
1E
  3
Layout2
350
26
  3
Model
350
22
  0
DICTIONARY
  5
17
102
{ACAD_REACTORS
330
C
102
}
330
C
100
AcDbDictionary
281
     1
  3
Standard
350
18
  0
DICTIONARY
  5
19
102
{ACAD_REACTORS
330
C
102
}
330
C
100
AcDbDictionary
281
     1
  0
ACDBDICTIONARYWDFLT
  5
E
102
{ACAD_REACTORS
330
C
102
}
330
C
100
AcDbDictionary
281
     1
  3
Normal
350
F
100
AcDbDictionaryWithDefault
340
F
  0
DICTIONARY
  5
47
102
{ACAD_REACTORS
330
C
102
}
330
C
100
AcDbDictionary
281
     1
  3
A0
350
48
  3
A1
350
49
  3
A2
350
4A
  3
A3
350
4B
  3
A4
350
4C
  3
A5
350
4D
  3
A6
350
4E
  3
A7
350
4F
  3
A8
350
50
  3
A9
350
51
  3
B0
350
52
  3
B1
350
53
  3
B2
350
54
  3
B3
350
55
  3
B4
350
56
  3
B5
350
57
  3
B6
350
58
  3
B7
350
59
  3
B8
350
5A
  3
B9
350
5B
  3
C0
350
5C
  3
C1
350
5D
  3
C2
350
5E
  3
C3
350
5F
  3
C4
350
60
  3
C5
350
61
  3
C6
350
62
  3
C7
350
63
  3
C8
350
64
  3
C9
350
65
  3
D0
350
66
  3
D1
350
67
  3
D2
350
68
  0
LAYOUT
  5
1E
102
{ACAD_REACTORS
330
1A
102
}
330
1A
100
AcDbPlotSettings
  1

  2
none_device
  4

  6

 40
0.0
 41
0.0
 42
0.0
 43
0.0
 44
0.0
 45
0.0
 46
0.0
 47
0.0
 48
0.0
 49
0.0
140
0.0
141
0.0
142
1.0
143
1.0
 70
   688
 72
     1
 73
     0
 74
     5
  7

 75
    16
147
1.0
148
0.0
149
0.0
100
AcDbLayout
  1
Layout1
 70
     1
 71
     1
 10
0.0
 20
0.0
 11
420.0
 21
297.0
 12
0.0
 22
0.0
 32
0.0
 14
1.0000000000E+20
 24
1.0000000000E+20
 34
1.0000000000E+20
 15
-1.0000000000E+20
 25
-1.0000000000E+20
 35
-1.0000000000E+20
146
0.0
 13
0.0
 23
0.0
 33
0.0
 16
1.0
 26
0.0
 36
0.0
 17
0.0
 27
1.0
 37
0.0
 76
     0
330
1B
  0
LAYOUT
  5
26
102
{ACAD_REACTORS
330
1A
102
}
330
1A
100
AcDbPlotSettings
  1

  2
none_device
  4

  6

 40
0.0
 41
0.0
 42
0.0
 43
0.0
 44
0.0
 45
0.0
 46
0.0
 47
0.0
 48
0.0
 49
0.0
140
0.0
141
0.0
142
1.0
143
1.0
 70
   688
 72
     1
 73
     0
 74
     5
  7

 75
    16
147
1.0
148
0.0
149
0.0
100
AcDbLayout
  1
Layout2
 70
     1
 71
     2
 10
0.0
 20
0.0
 11
0.0
 21
0.0
 12
0.0
 22
0.0
 32
0.0
 14
0.0
 24
0.0
 34
0.0
 15
0.0
 25
0.0
 35
0.0
146
0.0
 13
0.0
 23
0.0
 33
0.0
 16
1.0
 26
0.0
 36
0.0
 17
0.0
 27
1.0
 37
0.0
 76
     0
330
23
  0
LAYOUT
  5
22
102
{ACAD_REACTORS
330
1A
102
}
330
1A
100
AcDbPlotSettings
  1

  2
none_device
  4
Letter_(8.50_x_11.00_Inches)
  6

 40
6.35
 41
6.35
 42
6.35000508
 43
6.35000508
 44
215.9
 45
279.4
 46
0.0
 47
0.0
 48
0.0
 49
0.0
140
0.0
141
0.0
142
1.0
143
1.0
 70
  1712
 72
     1
 73
     0
 74
     0
  7

 75
     0
147
1.0
148
0.0
149
0.0
100
AcDbLayout
  1
Model
 70
     1
 71
     0
 10
0.0
 20
0.0
 11
431.8
 21
279.4
 12
0.0
 22
0.0
 32
0.0
 14
0.0
 24
0.0
 34
0.0
 15
431.8
 25
279.4
 35
0.0
146
0.0
 13
0.0
 23
0.0
 33
0.0
 16
1.0
 26
0.0
 36
0.0
 17
0.0
 27
1.0
 37
0.0
 76
     0
330
1F
331
29
  0
MLINESTYLE
  5
18
102
{ACAD_REACTORS
330
17
102
}
330
17
100
AcDbMlineStyle
  2
Standard
 70
     0
  3

 62
   256
 51
90.0
 52
90.0
 71
     2
 49
0.5
 62
   256
  6
BYLAYER
 49
-0.5
 62
   256
  6
BYLAYER
  0
ACDBPLACEHOLDER
  5
F
102
{ACAD_REACTORS
330
E
102
}
330
E
  0
SCALE
  5
48
102
{ACAD_REACTORS
330
47
102
}
330
47
100
AcDbScale
 70
     0
300
1:1
140
1.0
141
1.0
290
     1
  0
SCALE
  5
49
102
{ACAD_REACTORS
330
47
102
}
330
47
100
AcDbScale
 70
     0
300
1:2
140
1.0
141
2.0
290
     0
  0
SCALE
  5
4A
102
{ACAD_REACTORS
330
47
102
}
330
47
100
AcDbScale
 70
     0
300
1:4
140
1.0
141
4.0
290
     0
  0
SCALE
  5
4B
102
{ACAD_REACTORS
330
47
102
}
330
47
100
AcDbScale
 70
     0
300
1:5
140
1.0
141
5.0
290
     0
  0
SCALE
  5
4C
102
{ACAD_REACTORS
330
47
102
}
330
47
100
AcDbScale
 70
     0
300
1:8
140
1.0
141
8.0
290
     0
  0
SCALE
  5
4D
102
{ACAD_REACTORS
330
47
102
}
330
47
100
AcDbScale
 70
     0
300
1:10
140
1.0
141
10.0
290
     0
  0
SCALE
  5
4E
102
{ACAD_REACTORS
330
47
102
}
330
47
100
AcDbScale
 70
     0
300
1:16
140
1.0
141
16.0
290
     0
  0
SCALE
  5
4F
102
{ACAD_REACTORS
330
47
102
}
330
47
100
AcDbScale
 70
     0
300
1:20
140
1.0
141
20.0
290
     0
  0
SCALE
  5
50
102
{ACAD_REACTORS
330
47
102
}
330
47
100
AcDbScale
 70
     0
300
1:30
140
1.0
141
30.0
290
     0
  0
SCALE
  5
51
102
{ACAD_REACTORS
330
47
102
}
330
47
100
AcDbScale
 70
     0
300
1:40
140
1.0
141
40.0
290
     0
  0
SCALE
  5
52
102
{ACAD_REACTORS
330
47
102
}
330
47
100
AcDbScale
 70
     0
300
1:50
140
1.0
141
50.0
290
     0
  0
SCALE
  5
53
102
{ACAD_REACTORS
330
47
102
}
330
47
100
AcDbScale
 70
     0
300
1:100
140
1.0
141
100.0
290
     0
  0
SCALE
  5
54
102
{ACAD_REACTORS
330
47
102
}
330
47
100
AcDbScale
 70
     0
300
2:1
140
2.0
141
1.0
290
     0
  0
SCALE
  5
55
102
{ACAD_REACTORS
330
47
102
}
330
47
100
AcDbScale
 70
     0
300
4:1
140
4.0
141
1.0
290
     0
  0
SCALE
  5
56
102
{ACAD_REACTORS
330
47
102
}
330
47
100
AcDbScale
 70
     0
300
8:1
140
8.0
141
1.0
290
     0
  0
SCALE
  5
57
102
{ACAD_REACTORS
330
47
102
}
330
47
100
AcDbScale
 70
     0
300
10:1
140
10.0
141
1.0
290
     0
  0
SCALE
  5
58
102
{ACAD_REACTORS
330
47
102
}
330
47
100
AcDbScale
 70
     0
300
100:1
140
100.0
141
1.0
290
     0
  0
SCALE
  5
59
102
{ACAD_REACTORS
330
47
102
}
330
47
100
AcDbScale
 70
     0
300
1/128" = 1'-0"
140
0.0078125
141
12.0
290
     0
  0
SCALE
  5
5A
102
{ACAD_REACTORS
330
47
102
}
330
47
100
AcDbScale
 70
     0
300
1/64" = 1'-0"
140
0.015625
141
12.0
290
     0
  0
SCALE
  5
5B
102
{ACAD_REACTORS
330
47
102
}
330
47
100
AcDbScale
 70
     0
300
1/32" = 1'-0"
140
0.03125
141
12.0
290
     0
  0
SCALE
  5
5C
102
{ACAD_REACTORS
330
47
102
}
330
47
100
AcDbScale
 70
     0
300
1/16" = 1'-0"
140
0.0625
141
12.0
290
     0
  0
SCALE
  5
5D
102
{ACAD_REACTORS
330
47
102
}
330
47
100
AcDbScale
 70
     0
300
3/32" = 1'-0"
140
0.09375
141
12.0
290
     0
  0
SCALE
  5
5E
102
{ACAD_REACTORS
330
47
102
}
330
47
100
AcDbScale
 70
     0
300
1/8" = 1'-0"
140
0.125
141
12.0
290
     0
  0
SCALE
  5
5F
102
{ACAD_REACTORS
330
47
102
}
330
47
100
AcDbScale
 70
     0
300
3/16" = 1'-0"
140
0.1875
141
12.0
290
     0
  0
SCALE
  5
60
102
{ACAD_REACTORS
330
47
102
}
330
47
100
AcDbScale
 70
     0
300
1/4" = 1'-0"
140
0.25
141
12.0
290
     0
  0
SCALE
  5
61
102
{ACAD_REACTORS
330
47
102
}
330
47
100
AcDbScale
 70
     0
300
3/8" = 1'-0"
140
0.375
141
12.0
290
     0
  0
SCALE
  5
62
102
{ACAD_REACTORS
330
47
102
}
330
47
100
AcDbScale
 70
     0
300
1/2" = 1'-0"
140
0.5
141
12.0
290
     0
  0
SCALE
  5
63
102
{ACAD_REACTORS
330
47
102
}
330
47
100
AcDbScale
 70
     0
300
3/4" = 1'-0"
140
0.75
141
12.0
290
     0
  0
SCALE
  5
64
102
{ACAD_REACTORS
330
47
102
}
330
47
100
AcDbScale
 70
     0
300
1" = 1'-0"
140
1.0
141
12.0
290
     0
  0
SCALE
  5
65
102
{ACAD_REACTORS
330
47
102
}
330
47
100
AcDbScale
 70
     0
300
1-1/2" = 1'-0"
140
1.5
141
12.0
290
     0
  0
SCALE
  5
66
102
{ACAD_REACTORS
330
47
102
}
330
47
100
AcDbScale
 70
     0
300
3" = 1'-0"
140
3.0
141
12.0
290
     0
  0
SCALE
  5
67
102
{ACAD_REACTORS
330
47
102
}
330
47
100
AcDbScale
 70
     0
300
6" = 1'-0"
140
6.0
141
12.0
290
     0
  0
SCALE
  5
68
102
{ACAD_REACTORS
330
47
102
}
330
47
100
AcDbScale
 70
     0
300
1'-0" = 1'-0"
140
12.0
141
12.0
290
     0
  0
ENDSEC
  0
EOF
