  0
SECTION
  2
HEADER
  9
$ACADVER
  1
AC1015
  9
$ACADMAINTVER
 70
     6
  9
$DWGCODEPAGE
  3
ANSI_1252
  9
$INSBASE
 10
0.0
 20
0.0
 30
0.0
  9
$EXTMIN
 10
0.0
 20
0.0
 30
0.0
  9
$EXTMAX
 10
431.8
 20
279.4
 30
0.0
  9
$LIMMIN
 10
0.0
 20
0.0
  9
$LIMMAX
 10
431.8
 20
279.4
  9
$ORTHOMODE
 70
     0
  9
$REGENMODE
 70
     1
  9
$FILLMODE
 70
     1
  9
$QTEXTMODE
 70
     0
  9
$MIRRTEXT
 70
     1
  9
$LTSCALE
 40
1.0
  9
$ATTMODE
 70
     1
  9
$TEXTSIZE
 40
3.0
  9
$TRACEWID
 40
1.0
  9
$TEXTSTYLE
  7
Standard
  9
$CLAYER
  8
0
  9
$CELTYPE
  6
ByLayer
  9
$CECOLOR
 62
   256
  9
$CELTSCALE
 40
1.0
  9
$DISPSILH
 70
     0
  9
$DIMSCALE
 40
1.0
  9
$DIMASZ
 40
3.0
  9
$DIMEXO
 40
1.0
  9
$DIMDLI
 40
3.75
  9
$DIMRND
 40
0.0
  9
$DIMDLE
 40
0.0
  9
$DIMEXE
 40
1.0
  9
$DIMTP
 40
0.0
  9
$DIMTM
 40
0.0
  9
$DIMTXT
 40
3.0
  9
$DIMCEN
 40
2.5
  9
$DIMTSZ
 40
0.0
  9
$DIMTOL
 70
     0
  9
$DIMLIM
 70
     0
  9
$DIMTIH
 70
     1
  9
$DIMTOH
 70
     1
  9
$DIMSE1
 70
     0
  9
$DIMSE2
 70
     0
  9
$DIMTAD
 70
     1
  9
$DIMZIN
 70
     0
  9
$DIMBLK
  1

  9
$DIMASO
 70
     1
  9
$DIMSHO
 70
     1
  9
$DIMPOST
  1

  9
$DIMAPOST
  1

  9
$DIMALT
 70
     0
  9
$DIMALTD
 70
     3
  9
$DIMALTF
 40
0.0393700787
  9
$DIMLFAC
 40
5.0
  9
$DIMTOFL
 70
     1
  9
$DIMTVP
 40
0.0
  9
$DIMTIX
 70
     0
  9
$DIMSOXD
 70
     0
  9
$DIMSAH
 70
     0
  9
$DIMBLK1
  1

  9
$DIMBLK2
  1

  9
$DIMSTYLE
  2
ISO-25
  9
$DIMCLRD
 70
     0
  9
$DIMCLRE
 70
     0
  9
$DIMCLRT
 70
     0
  9
$DIMTFAC
 40
1.0
  9
$DIMGAP
 40
1.0
  9
$DIMJUST
 70
     0
  9
$DIMSD1
 70
     0
  9
$DIMSD2
 70
     0
  9
$DIMTOLJ
 70
     0
  9
$DIMTZIN
 70
     0
  9
$DIMALTZ
 70
     0
  9
$DIMALTTZ
 70
     0
  9
$DIMUPT
 70
     0
  9
$DIMDEC
 70
     1
  9
$DIMTDEC
 70
     1
  9
$DIMALTU
 70
     2
  9
$DIMALTTD
 70
     3
  9
$DIMTXSTY
  7
Standard
  9
$DIMAUNIT
 70
     0
  9
$DIMADEC
 70
     0
  9
$DIMALTRND
 40
0.0
  9
$DIMAZIN
 70
     0
  9
$DIMDSEP
 70
    44
  9
$DIMATFIT
 70
     3
  9
$DIMFRAC
 70
     0
  9
$DIMLDRBLK
  1

  9
$DIMLUNIT
 70
     2
  9
$DIMLWD
 70
    -2
  9
$DIMLWE
 70
    -2
  9
$DIMTMOVE
 70
     0
  9
$LUNITS
 70
     2
  9
$LUPREC
 70
     4
  9
$SKETCHINC
 40
1.0
  9
$FILLETRAD
 40
10.0
  9
$AUNITS
 70
     0
  9
$AUPREC
 70
     0
  9
$MENU
  1
.
  9
$ELEVATION
 40
0.0
  9
$PELEVATION
 40
0.0
  9
$THICKNESS
 40
0.0
  9
$LIMCHECK
 70
     0
  9
$CHAMFERA
 40
0.0
  9
$CHAMFERB
 40
0.0
  9
$CHAMFERC
 40
0.0
  9
$CHAMFERD
 40
0.0
  9
$SKPOLY
 70
     0
  9
$TDCREATE
 40
2459892.400299687
  9
$TDUCREATE
 40
2459892.358633021
  9
$TDUPDATE
 40
2459892.40030081
  9
$TDUUPDATE
 40
2459892.358634144
  9
$TDINDWG
 40
0.0000000116
  9
$TDUSRTIMER
 40
0.0000000116
  9
$USRTIMER
 70
     1
  9
$ANGBASE
 50
0.0
  9
$ANGDIR
 70
     0
  9
$PDMODE
 70
     0
  9
$PDSIZE
 40
-1.0
  9
$PLINEWID
 40
0.0
  9
$SPLFRAME
 70
     0
  9
$SPLINETYPE
 70
     6
  9
$SPLINESEGS
 70
     8
  9
$HANDSEED
  5
3D5
  9
$SURFTAB1
 70
     6
  9
$SURFTAB2
 70
     6
  9
$SURFTYPE
 70
     6
  9
$SURFU
 70
     6
  9
$SURFV
 70
     6
  9
$UCSBASE
  2

  9
$UCSNAME
  2

  9
$UCSORG
 10
0.0
 20
0.0
 30
0.0
  9
$UCSXDIR
 10
1.0
 20
0.0
 30
0.0
  9
$UCSYDIR
 10
0.0
 20
1.0
 30
0.0
  9
$UCSORTHOREF
  2

  9
$UCSORTHOVIEW
 70
     0
  9
$UCSORGTOP
 10
0.0
 20
0.0
 30
0.0
  9
$UCSORGBOTTOM
 10
0.0
 20
0.0
 30
0.0
  9
$UCSORGLEFT
 10
0.0
 20
0.0
 30
0.0
  9
$UCSORGRIGHT
 10
0.0
 20
0.0
 30
0.0
  9
$UCSORGFRONT
 10
0.0
 20
0.0
 30
0.0
  9
$UCSORGBACK
 10
0.0
 20
0.0
 30
0.0
  9
$PUCSBASE
  2

  9
$PUCSNAME
  2

  9
$PUCSORG
 10
0.0
 20
0.0
 30
0.0
  9
$PUCSXDIR
 10
1.0
 20
0.0
 30
0.0
  9
$PUCSYDIR
 10
0.0
 20
1.0
 30
0.0
  9
$PUCSORTHOREF
  2

  9
$PUCSORTHOVIEW
 70
     0
  9
$PUCSORGTOP
 10
0.0
 20
0.0
 30
0.0
  9
$PUCSORGBOTTOM
 10
0.0
 20
0.0
 30
0.0
  9
$PUCSORGLEFT
 10
0.0
 20
0.0
 30
0.0
  9
$PUCSORGRIGHT
 10
0.0
 20
0.0
 30
0.0
  9
$PUCSORGFRONT
 10
0.0
 20
0.0
 30
0.0
  9
$PUCSORGBACK
 10
0.0
 20
0.0
 30
0.0
  9
$USERI1
 70
     0
  9
$USERI2
 70
     0
  9
$USERI3
 70
     0
  9
$USERI4
 70
     0
  9
$USERI5
 70
     0
  9
$USERR1
 40
0.0
  9
$USERR2
 40
0.0
  9
$USERR3
 40
0.0
  9
$USERR4
 40
0.0
  9
$USERR5
 40
0.0
  9
$WORLDVIEW
 70
     1
  9
$SHADEDGE
 70
     3
  9
$SHADEDIF
 70
    70
  9
$TILEMODE
 70
     1
  9
$MAXACTVP
 70
    64
  9
$PINSBASE
 10
0.0
 20
0.0
 30
0.0
  9
$PLIMCHECK
 70
     0
  9
$PEXTMIN
 10
1.0000000000E+20
 20
1.0000000000E+20
 30
1.0000000000E+20
  9
$PEXTMAX
 10
-1.0000000000E+20
 20
-1.0000000000E+20
 30
-1.0000000000E+20
  9
$PLIMMIN
 10
0.0
 20
0.0
  9
$PLIMMAX
 10
420.0
 20
297.0
  9
$UNITMODE
 70
     0
  9
$VISRETAIN
 70
     1
  9
$PLINEGEN
 70
     0
  9
$PSLTSCALE
 70
     1
  9
$TREEDEPTH
 70
  3020
  9
$CMLSTYLE
  2
Standard
  9
$CMLJUST
 70
     0
  9
$CMLSCALE
 40
20.0
  9
$PROXYGRAPHICS
 70
     1
  9
$MEASUREMENT
 70
     1
  9
$CELWEIGHT
370
    -1
  9
$ENDCAPS
280
     0
  9
$JOINSTYLE
280
     0
  9
$LWDISPLAY
290
     1
  9
$INSUNITS
 70
     4
  9
$HYPERLINKBASE
  1

  9
$STYLESHEET
  1

  9
$XEDIT
290
     1
  9
$CEPSNTYPE
380
     0
  9
$PSTYLEMODE
290
     1
  9
$FINGERPRINTGUID
  2
{9f86492d-dfd6-4a28-a9c6-782f09d75223}
  9
$VERSIONGUID
  2
{FAEB1C32-E019-11D5-929B-00C0DF256EC4}
  9
$EXTNAMES
290
     1
  9
$PSVPSCALE
 40
0.0
  9
$OLESTARTUP
290
     0
  0
ENDSEC
  0
SECTION
  2
CLASSES
  0
CLASS
  1
ACDBDICTIONARYWDFLT
  2
AcDbDictionaryWithDefault
  3
ObjectDBX Classes
 90
        0
280
     0
281
     0
  0
CLASS
  1
VISUALSTYLE
  2
AcDbVisualStyle
  3
ObjectDBX Classes
 90
     4095
280
     0
281
     0
  0
CLASS
  1
MATERIAL
  2
AcDbMaterial
  3
ObjectDBX Classes
 90
     1153
280
     0
281
     0
  0
CLASS
  1
SCALE
  2
AcDbScale
  3
ObjectDBX Classes
 90
     1153
280
     0
281
     0
  0
CLASS
  1
TABLESTYLE
  2
AcDbTableStyle
  3
ObjectDBX Classes
 90
     4095
280
     0
281
     0
  0
CLASS
  1
MLEADERSTYLE
  2
AcDbMLeaderStyle
  3
ACDB_MLEADERSTYLE_CLASS
 90
     4095
280
     0
281
     0
  0
CLASS
  1
SUN
  2
AcDbSun
  3
SCENEOE
 90
     1153
280
     0
281
     0
  0
CLASS
  1
ACDBPLACEHOLDER
  2
AcDbPlaceHolder
  3
ObjectDBX Classes
 90
        0
280
     0
281
     0
  0
CLASS
  1
LAYOUT
  2
AcDbLayout
  3
ObjectDBX Classes
 90
        0
280
     0
281
     0
  0
ENDSEC
  0
SECTION
  2
TABLES
  0
TABLE
  2
VPORT
  5
8
330
0
100
AcDbSymbolTable
 70
     1
  0
VPORT
  5
29
330
8
100
AcDbSymbolTableRecord
100
AcDbViewportTableRecord
  2
*Active
 70
     0
 10
0.0
 20
0.0
 11
1.0
 21
1.0
 12
215.9
 22
139.7
 13
0.0
 23
0.0
 14
10.0
 24
10.0
 15
10.0
 25
10.0
 16
0.0
 26
0.0
 36
1.0
 17
0.0
 27
0.0
 37
0.0
 40
279.4
 41
1.5454545455
 42
50.0
 43
0.0
 44
0.0
 50
0.0
 51
0.0
 71
     0
 72
  2000
 73
     1
 74
     3
 75
     0
 76
     0
 77
     0
 78
     0
281
     0
 65
     1
110
0.0
120
0.0
130
0.0
111
1.0
121
0.0
131
0.0
112
0.0
122
1.0
132
0.0
 79
     0
146
0.0
  0
ENDTAB
  0
TABLE
  2
LTYPE
  5
5
330
0
100
AcDbSymbolTable
 70
     6
  0
LTYPE
  5
14
330
5
100
AcDbSymbolTableRecord
100
AcDbLinetypeTableRecord
  2
ByBlock
 70
     0
  3

 72
    65
 73
     0
 40
0.0
  0
LTYPE
  5
15
330
5
100
AcDbSymbolTableRecord
100
AcDbLinetypeTableRecord
  2
ByLayer
 70
     0
  3

 72
    65
 73
     0
 40
0.0
  0
LTYPE
  5
16
330
5
100
AcDbSymbolTableRecord
100
AcDbLinetypeTableRecord
  2
Continuous
 70
     0
  3
Solid line
 72
    65
 73
     0
 40
0.0
  0
LTYPE
  5
6E
330
5
100
AcDbSymbolTableRecord
100
AcDbLinetypeTableRecord
  2
HIDDEN
 70
     0
  3
Hidden __ __ __ __ __ __ __ __ __ __ __ __ __ __
 72
    65
 73
     2
 40
1.905
 49
1.27
 74
     0
 49
-0.635
 74
     0
  0
LTYPE
  5
6F
330
5
100
AcDbSymbolTableRecord
100
AcDbLinetypeTableRecord
  2
PHANTOM
 70
     0
  3
Phantom ______  __  __  ______  __  __  ______
 72
    65
 73
     6
 40
12.7
 49
6.35
 74
     0
 49
-1.27
 74
     0
 49
1.27
 74
     0
 49
-1.27
 74
     0
 49
1.27
 74
     0
 49
-1.27
 74
     0
  0
LTYPE
  5
70
330
5
100
AcDbSymbolTableRecord
100
AcDbLinetypeTableRecord
  2
CENTER
 70
     0
  3
Center ____ _ ____ _ ____ _ ____ _ ____ _ ____
 72
    65
 73
     4
 40
10.16
 49
6.35
 74
     0
 49
-1.27
 74
     0
 49
1.27
 74
     0
 49
-1.27
 74
     0
  0
LTYPE
  5
71
330
5
100
AcDbSymbolTableRecord
100
AcDbLinetypeTableRecord
  2
CENTERX2
 70
     0
  3
Center (2x) ________  __  ________  __  _____
 72
    65
 73
     4
 40
20.32
 49
12.7
 74
     0
 49
-2.54
 74
     0
 49
2.54
 74
     0
 49
-2.54
 74
     0
  0
LTYPE
  5
72
330
5
100
AcDbSymbolTableRecord
100
AcDbLinetypeTableRecord
  2
DOT2
 70
     0
  3
Dot (.5x) ........................................
 72
    65
 73
     2
 40
0.635
 49
0.0
 74
     0
 49
-0.635
 74
     0
  0
ENDTAB
  0
TABLE
  2
LAYER
  5
2
330
0
100
AcDbSymbolTable
 70
     1
  0
LAYER
  5
10
330
2
100
AcDbSymbolTableRecord
100
AcDbLayerTableRecord
  2
0
 70
     0
 62
     7
  6
Continuous
370
    -3
390
F
  0
ENDTAB
  0
TABLE
  2
STYLE
  5
3
330
0
100
AcDbSymbolTable
 70
     3
  0
STYLE
  5
11
330
3
100
AcDbSymbolTableRecord
100
AcDbTextStyleTableRecord
  2
Standard
 70
     0
 40
0.0
 41
1.0
 50
0.0
 71
     0
 42
3.0
  3
txt
  4

  0
STYLE
  5
88
330
3
100
AcDbSymbolTableRecord
100
AcDbTextStyleTableRecord
  2
SLDTEXTSTYLE0
 70
     0
 40
0.0
 41
0.605
 50
0.0
 71
     0
 42
3.0
  3
TXT
  4

  0
STYLE
  5
D8
330
3
100
AcDbSymbolTableRecord
100
AcDbTextStyleTableRecord
  2
SLDTEXTSTYLE1
 70
     0
 40
0.0
 41
0.75
 50
0.0
 71
     0
 42
3.0
  3
TXT
  4

  0
ENDTAB
  0
TABLE
  2
VIEW
  5
6
330
0
100
AcDbSymbolTable
 70
     0
  0
ENDTAB
  0
TABLE
  2
UCS
  5
7
330
0
100
AcDbSymbolTable
 70
     0
  0
ENDTAB
  0
TABLE
  2
APPID
  5
9
330
0
100
AcDbSymbolTable
 70
     1
  0
APPID
  5
12
330
9
100
AcDbSymbolTableRecord
100
AcDbRegAppTableRecord
  2
ACAD
 70
     0
  0
ENDTAB
  0
TABLE
  2
DIMSTYLE
  5
A
330
0
100
AcDbSymbolTable
 70
     1
100
AcDbDimStyleTable
  0
DIMSTYLE
105
27
330
A
100
AcDbSymbolTableRecord
100
AcDbDimStyleTableRecord
  2
ISO-25
 70
     0
 41
2.5
 42
0.625
 43
3.75
 44
1.25
 73
     0
 74
     0
 77
     1
 78
     8
140
2.5
141
2.5
143
0.0393700787
147
0.625
171
     3
172
     1
178
     0
271
     2
272
     2
274
     3
278
    44
283
     0
284
     8
340
11
  0
ENDTAB
  0
TABLE
  2
BLOCK_RECORD
  5
1
330
0
100
AcDbSymbolTable
 70
    55
  0
BLOCK_RECORD
  5
1F
330
1
100
AcDbSymbolTableRecord
100
AcDbBlockTableRecord
  2
*Model_Space
340
22
  0
BLOCK_RECORD
  5
1B
330
1
100
AcDbSymbolTableRecord
100
AcDbBlockTableRecord
  2
*Paper_Space
340
1E
  0
BLOCK_RECORD
  5
23
330
1
100
AcDbSymbolTableRecord
100
AcDbBlockTableRecord
  2
*Paper_Space0
340
26
  0
BLOCK_RECORD
  5
73
330
1
100
AcDbSymbolTableRecord
100
AcDbBlockTableRecord
  2
Projektion
340
0
  0
BLOCK_RECORD
  5
7D
330
1
100
AcDbSymbolTableRecord
100
AcDbBlockTableRecord
  2
sichtseite-e
340
0
  0
BLOCK_RECORD
  5
85
330
1
100
AcDbSymbolTableRecord
100
AcDbBlockTableRecord
  2
SW_NOTE_0
340
0
102
{BLKREFS
331
8A
102
}
  0
BLOCK_RECORD
  5
8B
330
1
100
AcDbSymbolTableRecord
100
AcDbBlockTableRecord
  2
alle-Kanten-entgraten
340
0
  0
BLOCK_RECORD
  5
8E
330
1
100
AcDbSymbolTableRecord
100
AcDbBlockTableRecord
  2
SW_NOTE_0_1
340
0
102
{BLKREFS
331
93
102
}
  0
BLOCK_RECORD
  5
94
330
1
100
AcDbSymbolTableRecord
100
AcDbBlockTableRecord
  2
sichtseite-de
340
0
  0
BLOCK_RECORD
  5
9C
330
1
100
AcDbSymbolTableRecord
100
AcDbBlockTableRecord
  2
SW_NOTE_0_2
340
0
102
{BLKREFS
331
A0
102
}
  0
BLOCK_RECORD
  5
A1
330
1
100
AcDbSymbolTableRecord
100
AcDbBlockTableRecord
  2
Projektion_1
340
0
  0
BLOCK_RECORD
  5
AC
330
1
100
AcDbSymbolTableRecord
100
AcDbBlockTableRecord
  2
Block1
340
0
  0
BLOCK_RECORD
  5
AF
330
1
100
AcDbSymbolTableRecord
100
AcDbBlockTableRecord
  2
SW_NOTE_0_3
340
0
102
{BLKREFS
331
B5
102
}
  0
BLOCK_RECORD
  5
B6
330
1
100
AcDbSymbolTableRecord
100
AcDbBlockTableRecord
  2
SW_NOTE_0_4
340
0
102
{BLKREFS
331
BA
102
}
  0
BLOCK_RECORD
  5
BB
330
1
100
AcDbSymbolTableRecord
100
AcDbBlockTableRecord
  2
SW_NOTE_0_5
340
0
102
{BLKREFS
331
BF
102
}
  0
BLOCK_RECORD
  5
C0
330
1
100
AcDbSymbolTableRecord
100
AcDbBlockTableRecord
  2
Werkstüchkanten DIN 6784
340
0
  0
BLOCK_RECORD
  5
D5
330
1
100
AcDbSymbolTableRecord
100
AcDbBlockTableRecord
  2
SW_NOTE_0_6
340
0
102
{BLKREFS
331
DB
102
}
  0
BLOCK_RECORD
  5
DC
330
1
100
AcDbSymbolTableRecord
100
AcDbBlockTableRecord
  2
SW_NOTE_0_7
340
0
102
{BLKREFS
331
E1
102
}
  0
BLOCK_RECORD
  5
E2
330
1
100
AcDbSymbolTableRecord
100
AcDbBlockTableRecord
  2
Block5
340
0
102
{BLKREFS
331
1E3
102
}
  0
BLOCK_RECORD
  5
F9
330
1
100
AcDbSymbolTableRecord
100
AcDbBlockTableRecord
  2
SW_BLOCK_DIMENSION_0
340
0
102
{BLKREFS
331
104
102
}
  0
BLOCK_RECORD
  5
FC
330
1
100
AcDbSymbolTableRecord
100
AcDbBlockTableRecord
  2
_Origin
340
0
102
{BLKREFS
331
101
331
170
102
}
  0
BLOCK_RECORD
  5
105
330
1
100
AcDbSymbolTableRecord
100
AcDbBlockTableRecord
  2
SW_BLOCK_DIMENSION_1
340
0
102
{BLKREFS
331
10C
102
}
  0
BLOCK_RECORD
  5
10D
330
1
100
AcDbSymbolTableRecord
100
AcDbBlockTableRecord
  2
SW_BLOCK_DIMENSION_2
340
0
102
{BLKREFS
331
114
102
}
  0
BLOCK_RECORD
  5
115
330
1
100
AcDbSymbolTableRecord
100
AcDbBlockTableRecord
  2
SW_BLOCK_DIMENSION_3
340
0
102
{BLKREFS
331
11C
102
}
  0
BLOCK_RECORD
  5
11D
330
1
100
AcDbSymbolTableRecord
100
AcDbBlockTableRecord
  2
SW_BLOCK_DIMENSION_4
340
0
102
{BLKREFS
331
124
102
}
  0
BLOCK_RECORD
  5
125
330
1
100
AcDbSymbolTableRecord
100
AcDbBlockTableRecord
  2
SW_BLOCK_DIMENSION_5
340
0
102
{BLKREFS
331
12C
102
}
  0
BLOCK_RECORD
  5
12D
330
1
100
AcDbSymbolTableRecord
100
AcDbBlockTableRecord
  2
SW_BLOCK_DIMENSION_6
340
0
102
{BLKREFS
331
134
102
}
  0
BLOCK_RECORD
  5
135
330
1
100
AcDbSymbolTableRecord
100
AcDbBlockTableRecord
  2
SW_BLOCK_DIMENSION_7
340
0
102
{BLKREFS
331
13C
102
}
  0
BLOCK_RECORD
  5
13D
330
1
100
AcDbSymbolTableRecord
100
AcDbBlockTableRecord
  2
SW_BLOCK_DIMENSION_8
340
0
102
{BLKREFS
331
144
102
}
  0
BLOCK_RECORD
  5
145
330
1
100
AcDbSymbolTableRecord
100
AcDbBlockTableRecord
  2
SW_BLOCK_DIMENSION_9
340
0
102
{BLKREFS
331
14C
102
}
  0
BLOCK_RECORD
  5
14D
330
1
100
AcDbSymbolTableRecord
100
AcDbBlockTableRecord
  2
SW_BLOCK_DIMENSION_10
340
0
102
{BLKREFS
331
154
102
}
  0
BLOCK_RECORD
  5
155
330
1
100
AcDbSymbolTableRecord
100
AcDbBlockTableRecord
  2
SW_BLOCK_DIMENSION_11
340
0
102
{BLKREFS
331
15C
102
}
  0
BLOCK_RECORD
  5
15D
330
1
100
AcDbSymbolTableRecord
100
AcDbBlockTableRecord
  2
SW_BLOCK_DIMENSION_12
340
0
102
{BLKREFS
331
164
102
}
  0
BLOCK_RECORD
  5
165
330
1
100
AcDbSymbolTableRecord
100
AcDbBlockTableRecord
  2
SW_BLOCK_DIMENSION_13
340
0
102
{BLKREFS
331
16C
102
}
  0
BLOCK_RECORD
  5
16D
330
1
100
AcDbSymbolTableRecord
100
AcDbBlockTableRecord
  2
SW_BLOCK_DIMENSION_14
340
0
102
{BLKREFS
331
17C
102
}
  0
BLOCK_RECORD
  5
17D
330
1
100
AcDbSymbolTableRecord
100
AcDbBlockTableRecord
  2
SW_BLOCK_DIMENSION_15
340
0
102
{BLKREFS
331
18D
102
}
  0
BLOCK_RECORD
  5
18E
330
1
100
AcDbSymbolTableRecord
100
AcDbBlockTableRecord
  2
SW_BLOCK_DIMENSION_16
340
0
102
{BLKREFS
331
19E
102
}
  0
BLOCK_RECORD
  5
19F
330
1
100
AcDbSymbolTableRecord
100
AcDbBlockTableRecord
  2
SW_BLOCK_DIMENSION_17
340
0
102
{BLKREFS
331
1AF
102
}
  0
BLOCK_RECORD
  5
1B0
330
1
100
AcDbSymbolTableRecord
100
AcDbBlockTableRecord
  2
SW_BLOCK_DIMENSION_18
340
0
102
{BLKREFS
331
1C0
102
}
  0
BLOCK_RECORD
  5
1C1
330
1
100
AcDbSymbolTableRecord
100
AcDbBlockTableRecord
  2
SW_BLOCK_DIMENSION_19
340
0
102
{BLKREFS
331
1D1
102
}
  0
BLOCK_RECORD
  5
1D2
330
1
100
AcDbSymbolTableRecord
100
AcDbBlockTableRecord
  2
SW_NOTE_0_8
340
0
102
{BLKREFS
331
1D7
102
}
  0
BLOCK_RECORD
  5
1D8
330
1
100
AcDbSymbolTableRecord
100
AcDbBlockTableRecord
  2
SW_NOTE_0_9
340
0
102
{BLKREFS
331
1DC
102
}
  0
BLOCK_RECORD
  5
1E6
330
1
100
AcDbSymbolTableRecord
100
AcDbBlockTableRecord
  2
SW_NOTE_0_10
340
0
102
{BLKREFS
331
1ED
102
}
  0
BLOCK_RECORD
  5
302
330
1
100
AcDbSymbolTableRecord
100
AcDbBlockTableRecord
  2
SW_CENTERMARKSYMBOL_0
340
0
102
{BLKREFS
331
30D
102
}
  0
BLOCK_RECORD
  5
30E
330
1
100
AcDbSymbolTableRecord
100
AcDbBlockTableRecord
  2
SW_CENTERMARKSYMBOL_1
340
0
102
{BLKREFS
331
319
102
}
  0
BLOCK_RECORD
  5
31A
330
1
100
AcDbSymbolTableRecord
100
AcDbBlockTableRecord
  2
SW_CENTERMARKSYMBOL_2
340
0
102
{BLKREFS
331
325
102
}
  0
BLOCK_RECORD
  5
326
330
1
100
AcDbSymbolTableRecord
100
AcDbBlockTableRecord
  2
SW_CENTERMARKSYMBOL_3
340
0
102
{BLKREFS
331
331
102
}
  0
BLOCK_RECORD
  5
332
330
1
100
AcDbSymbolTableRecord
100
AcDbBlockTableRecord
  2
SW_CENTERMARKSYMBOL_4
340
0
102
{BLKREFS
331
33D
102
}
  0
BLOCK_RECORD
  5
33E
330
1
100
AcDbSymbolTableRecord
100
AcDbBlockTableRecord
  2
SW_CENTERMARKSYMBOL_5
340
0
102
{BLKREFS
331
349
102
}
  0
BLOCK_RECORD
  5
34A
330
1
100
AcDbSymbolTableRecord
100
AcDbBlockTableRecord
  2
SW_CENTERMARKSYMBOL_6
340
0
102
{BLKREFS
331
355
102
}
  0
BLOCK_RECORD
  5
356
330
1
100
AcDbSymbolTableRecord
100
AcDbBlockTableRecord
  2
SW_CENTERMARKSYMBOL_7
340
0
102
{BLKREFS
331
361
102
}
  0
BLOCK_RECORD
  5
362
330
1
100
AcDbSymbolTableRecord
100
AcDbBlockTableRecord
  2
SW_CENTERMARKSYMBOL_8
340
0
102
{BLKREFS
331
36D
102
}
  0
BLOCK_RECORD
  5
36E
330
1
100
AcDbSymbolTableRecord
100
AcDbBlockTableRecord
  2
SW_CENTERMARKSYMBOL_9
340
0
102
{BLKREFS
331
379
102
}
  0
BLOCK_RECORD
  5
37A
330
1
100
AcDbSymbolTableRecord
100
AcDbBlockTableRecord
  2
SW_CENTERMARKSYMBOL_10
340
0
102
{BLKREFS
331
385
102
}
  0
BLOCK_RECORD
  5
386
330
1
100
AcDbSymbolTableRecord
100
AcDbBlockTableRecord
  2
SW_CENTERMARKSYMBOL_11
340
0
102
{BLKREFS
331
391
102
}
  0
BLOCK_RECORD
  5
392
330
1
100
AcDbSymbolTableRecord
100
AcDbBlockTableRecord
  2
SW_CENTERMARKSYMBOL_12
340
0
102
{BLKREFS
331
39D
102
}
  0
BLOCK_RECORD
  5
39E
330
1
100
AcDbSymbolTableRecord
100
AcDbBlockTableRecord
  2
SW_CENTERMARKSYMBOL_13
340
0
102
{BLKREFS
331
3A9
102
}
  0
ENDTAB
  0
ENDSEC
  0
SECTION
  2
BLOCKS
  0
BLOCK
  5
20
330
1F
100
AcDbEntity
  8
0
100
AcDbBlockBegin
  2
*Model_Space
 70
     0
 10
0.0
 20
0.0
 30
0.0
  3
*Model_Space
  1

  0
ENDBLK
  5
21
330
1F
100
AcDbEntity
  8
0
100
AcDbBlockEnd
  0
BLOCK
  5
1C
330
1B
100
AcDbEntity
 67
     1
  8
0
100
AcDbBlockBegin
  2
*Paper_Space
 70
     0
 10
0.0
 20
0.0
 30
0.0
  3
*Paper_Space
  1

  0
ENDBLK
  5
1D
330
1B
100
AcDbEntity
 67
     1
  8
0
100
AcDbBlockEnd
  0
BLOCK
  5
24
330
23
100
AcDbEntity
  8
0
100
AcDbBlockBegin
  2
*Paper_Space0
 70
     0
 10
0.0
 20
0.0
 30
0.0
  3
*Paper_Space0
  1

  0
ENDBLK
  5
25
330
23
100
AcDbEntity
  8
0
100
AcDbBlockEnd
  0
BLOCK
  5
74
330
73
100
AcDbEntity
  8
0
100
AcDbBlockBegin
  2
Projektion
 70
     0
 10
0.0
 20
0.0
 30
0.0
  3
Projektion
  1

  0
CIRCLE
  5
76
330
73
100
AcDbEntity
  8
0
  6
Continuous
 62
     7
370
    18
100
AcDbCircle
 10
174.3600996763
 20
116.0271411334
 30
0.0
 40
3.403359543179178
  0
CIRCLE
  5
77
330
73
100
AcDbEntity
  8
0
  6
Continuous
 62
     7
370
    18
100
AcDbCircle
 10
174.3600996763
 20
116.0271411334
 30
0.0
 40
6.87995547039705
  0
LINE
  5
78
330
73
100
AcDbEntity
  8
0
  6
Continuous
 62
     7
370
    18
100
AcDbLine
 10
135.2082544366
 20
119.4271411334
 30
0.0
 11
135.2082544366
 21
112.6271411334
 31
0.0
  0
LINE
  5
79
330
73
100
AcDbEntity
  8
0
  6
Continuous
 62
     7
370
    18
100
AcDbLine
 10
135.2082544366
 20
112.6271411334
 30
0.0
 11
157.5294737026
 21
109.1471411334
 31
0.0
  0
LINE
  5
7A
330
73
100
AcDbEntity
  8
0
  6
Continuous
 62
     7
370
    18
100
AcDbLine
 10
157.5294737026
 20
109.1471411334
 30
0.0
 11
157.5294737026
 21
122.9071411334
 31
0.0
  0
LINE
  5
7B
330
73
100
AcDbEntity
  8
0
  6
Continuous
 62
     7
370
    18
100
AcDbLine
 10
157.5294737026
 20
122.9071411334
 30
0.0
 11
135.2082544366
 21
119.4271411334
 31
0.0
  0
LINE
  5
7C
330
73
100
AcDbEntity
  8
0
  6
CENTERX2
 62
     7
370
    18
100
AcDbLine
 10
164.5632959991
 20
116.0271411334
 30
0.0
 11
132.3261221773
 21
116.0271411334
 31
0.0
  0
ENDBLK
  5
75
330
73
100
AcDbEntity
  8
0
100
AcDbBlockEnd
  0
BLOCK
  5
7E
330
7D
100
AcDbEntity
  8
0
100
AcDbBlockBegin
  2
sichtseite-e
 70
     0
 10
0.0
 20
0.0
 30
0.0
  3
sichtseite-e
  1

  0
LINE
  5
80
330
7D
100
AcDbEntity
  8
0
  6
CENTERX2
 62
     7
370
    18
100
AcDbLine
 10
8.633005208
 20
3.5873572346
 30
0.0
 11
-1.4417111071
 21
3.5873572346
 31
0.0
  0
LINE
  5
81
330
7D
100
AcDbEntity
  8
0
  6
Continuous
 62
     7
370
    18
100
AcDbLine
 10
-5.2184676026
 20
7.4838966376
 30
0.0
 11
60.6886509487
 21
7.4838966376
 31
0.0
  0
LINE
  5
82
330
7D
100
AcDbEntity
  8
0
  6
Continuous
 62
     7
370
    18
100
AcDbLine
 10
-5.2184676026
 20
7.4838966376
 30
0.0
 11
-5.2184676026
 21
0.0
 31
0.0
  0
LINE
  5
83
330
7D
100
AcDbEntity
  8
0
  6
Continuous
 62
     7
370
    18
100
AcDbLine
 10
-5.2184676026
 20
0.0
 30
0.0
 11
60.6886509487
 21
0.0
 31
0.0
  0
LINE
  5
84
330
7D
100
AcDbEntity
  8
0
  6
Continuous
 62
     7
370
    18
100
AcDbLine
 10
60.6886509487
 20
7.4838966376
 30
0.0
 11
60.6886509487
 21
0.0
 31
0.0
  0
INSERT
  5
8A
330
7D
100
AcDbEntity
  8
0
  6
Continuous
 62
     7
370
     0
100
AcDbBlockReference
  2
SW_NOTE_0
 10
10.7971833269
 20
1.199926799
 30
0.0
  0
ENDBLK
  5
7F
330
7D
100
AcDbEntity
  8
0
100
AcDbBlockEnd
  0
BLOCK
  5
86
330
85
100
AcDbEntity
  8
0
100
AcDbBlockBegin
  2
SW_NOTE_0
 70
     0
 10
0.0
 20
0.0
 30
0.0
  3
SW_NOTE_0
  1

  0
MTEXT
  5
89
330
85
100
AcDbEntity
  8
0
  6
Continuous
 62
     0
370
     0
100
AcDbMText
 10
0.0
 20
4.5117370892
 30
0.0
 40
3.5
 41
0.0
 71
     1
 72
     1
  1
Sichtseite / visible side
  7
SLDTEXTSTYLE0
 73
     1
 44
1.0
  0
ENDBLK
  5
87
330
85
100
AcDbEntity
  8
0
100
AcDbBlockEnd
  0
BLOCK
  5
8C
330
8B
100
AcDbEntity
  8
0
100
AcDbBlockBegin
  2
alle-Kanten-entgraten
 70
     0
 10
0.0
 20
0.0
 30
0.0
  3
alle-Kanten-entgraten
  1

  0
INSERT
  5
93
330
8B
100
AcDbEntity
  8
0
  6
Continuous
 62
     7
370
     0
100
AcDbBlockReference
  2
SW_NOTE_0_1
 10
0.0
 20
-0.1581958531
 30
0.0
  0
ENDBLK
  5
8D
330
8B
100
AcDbEntity
  8
0
100
AcDbBlockEnd
  0
BLOCK
  5
8F
330
8E
100
AcDbEntity
  8
0
100
AcDbBlockBegin
  2
SW_NOTE_0_1
 70
     0
 10
0.0
 20
0.0
 30
0.0
  3
SW_NOTE_0_1
  1

  0
MTEXT
  5
91
330
8E
100
AcDbEntity
  8
0
  6
Continuous
 62
     0
370
     0
100
AcDbMText
 10
0.0
 20
2.2558685446
 30
0.0
 40
1.75
 41
0.0
 71
     1
 72
     1
  1
alle Kanten entgraten!
  7
SLDTEXTSTYLE0
 73
     1
 44
1.0
  0
MTEXT
  5
92
330
8E
100
AcDbEntity
  8
0
  6
Continuous
 62
     0
370
     0
100
AcDbMText
 10
0.0
 20
-0.0045482015
 30
0.0
 40
1.75
 41
0.0
 71
     1
 72
     1
  1
all edges deburred !
  7
SLDTEXTSTYLE0
 73
     1
 44
1.0
  0
ENDBLK
  5
90
330
8E
100
AcDbEntity
  8
0
100
AcDbBlockEnd
  0
BLOCK
  5
95
330
94
100
AcDbEntity
  8
0
100
AcDbBlockBegin
  2
sichtseite-de
 70
     0
 10
0.0
 20
0.0
 30
0.0
  3
sichtseite-de
  1

  0
LINE
  5
97
330
94
100
AcDbEntity
  8
0
  6
CENTERX2
 62
     7
370
    18
100
AcDbLine
 10
13.8091502721
 20
4.1288679822
 30
0.0
 11
2.4993857185
 21
4.1288679822
 31
0.0
  0
LINE
  5
98
330
94
100
AcDbEntity
  8
0
  6
Continuous
 62
     7
370
    18
100
AcDbLine
 10
0.0
 20
7.4838966376
 30
0.0
 11
64.9923819561
 21
7.4838966376
 31
0.0
  0
LINE
  5
99
330
94
100
AcDbEntity
  8
0
  6
Continuous
 62
     7
370
    18
100
AcDbLine
 10
0.0
 20
7.4838966376
 30
0.0
 11
0.0
 21
0.0
 31
0.0
  0
LINE
  5
9A
330
94
100
AcDbEntity
  8
0
  6
Continuous
 62
     7
370
    18
100
AcDbLine
 10
0.0
 20
0.0
 30
0.0
 11
64.9923819561
 21
0.0
 31
0.0
  0
LINE
  5
9B
330
94
100
AcDbEntity
  8
0
  6
Continuous
 62
     7
370
    18
100
AcDbLine
 10
64.9923819561
 20
7.4838966376
 30
0.0
 11
64.9923819561
 21
0.0
 31
0.0
  0
INSERT
  5
A0
330
94
100
AcDbEntity
  8
0
  6
Continuous
 62
     7
370
     0
100
AcDbBlockReference
  2
SW_NOTE_0_2
 10
17.130930217
 20
1.4302083739
 30
0.0
  0
ENDBLK
  5
96
330
94
100
AcDbEntity
  8
0
100
AcDbBlockEnd
  0
BLOCK
  5
9D
330
9C
100
AcDbEntity
  8
0
100
AcDbBlockBegin
  2
SW_NOTE_0_2
 70
     0
 10
0.0
 20
0.0
 30
0.0
  3
SW_NOTE_0_2
  1

  0
MTEXT
  5
9F
330
9C
100
AcDbEntity
  8
0
  6
Continuous
 62
     0
370
     0
100
AcDbMText
 10
0.0
 20
4.0927900738
 30
0.0
 40
3.175
 41
0.0
 71
     1
 72
     1
  1
Sichtseite / visible side
  7
SLDTEXTSTYLE0
 73
     1
 44
1.0
  0
ENDBLK
  5
9E
330
9C
100
AcDbEntity
  8
0
100
AcDbBlockEnd
  0
BLOCK
  5
A2
330
A1
100
AcDbEntity
  8
0
100
AcDbBlockBegin
  2
Projektion_1
 70
     0
 10
0.0
 20
0.0
 30
0.0
  3
Projektion_1
  1

  0
CIRCLE
  5
A4
330
A1
100
AcDbEntity
  8
0
  6
Continuous
 62
     7
370
    18
100
AcDbCircle
 10
174.3600996763
 20
116.0271411334
 30
0.0
 40
3.403359543179178
  0
CIRCLE
  5
A5
330
A1
100
AcDbEntity
  8
0
  6
Continuous
 62
     7
370
    18
100
AcDbCircle
 10
174.3600996763
 20
116.0271411334
 30
0.0
 40
6.87995547039705
  0
LINE
  5
A6
330
A1
100
AcDbEntity
  8
0
  6
Continuous
 62
     7
370
    18
100
AcDbLine
 10
135.2082544366
 20
119.4271411334
 30
0.0
 11
135.2082544366
 21
112.6271411334
 31
0.0
  0
LINE
  5
A7
330
A1
100
AcDbEntity
  8
0
  6
Continuous
 62
     7
370
    18
100
AcDbLine
 10
135.2082544366
 20
112.6271411334
 30
0.0
 11
157.5294737026
 21
109.1471411334
 31
0.0
  0
LINE
  5
A8
330
A1
100
AcDbEntity
  8
0
  6
Continuous
 62
     7
370
    18
100
AcDbLine
 10
157.5294737026
 20
109.1471411334
 30
0.0
 11
157.5294737026
 21
122.9071411334
 31
0.0
  0
LINE
  5
A9
330
A1
100
AcDbEntity
  8
0
  6
Continuous
 62
     7
370
    18
100
AcDbLine
 10
157.5294737026
 20
122.9071411334
 30
0.0
 11
135.2082544366
 21
119.4271411334
 31
0.0
  0
LINE
  5
AA
330
A1
100
AcDbEntity
  8
0
  6
CENTERX2
 62
     7
370
    18
100
AcDbLine
 10
184.6825839037
 20
116.0271411334
 30
0.0
 11
132.3261221773
 21
116.0271411334
 31
0.0
  0
LINE
  5
AB
330
A1
100
AcDbEntity
  8
0
  6
CENTERX2
 62
     7
370
    18
100
AcDbLine
 10
174.3600996763
 20
126.2664215848
 30
0.0
 11
174.3600996763
 21
106.5064066785
 31
0.0
  0
ENDBLK
  5
A3
330
A1
100
AcDbEntity
  8
0
100
AcDbBlockEnd
  0
BLOCK
  5
AD
330
AC
100
AcDbEntity
  8
0
100
AcDbBlockBegin
  2
Block1
 70
     0
 10
0.0
 20
0.0
 30
0.0
  3
Block1
  1

  0
INSERT
  5
B5
330
AC
100
AcDbEntity
  8
0
  6
Continuous
 62
     7
370
     0
100
AcDbBlockReference
  2
SW_NOTE_0_3
 10
8.0143494797
 20
5.0217835376
 30
0.0
  0
INSERT
  5
BA
330
AC
100
AcDbEntity
  8
0
  6
Continuous
 62
     7
370
     0
100
AcDbBlockReference
  2
SW_NOTE_0_4
 10
2.7163741334
 20
13.3377004076
 30
0.0
  0
INSERT
  5
BF
330
AC
100
AcDbEntity
  8
0
  6
Continuous
 62
     7
370
     0
100
AcDbBlockReference
  2
SW_NOTE_0_5
 10
0.6743674321
 20
9.3073129433
 30
0.0
  0
ENDBLK
  5
AE
330
AC
100
AcDbEntity
  8
0
100
AcDbBlockEnd
  0
BLOCK
  5
B0
330
AF
100
AcDbEntity
  8
0
100
AcDbBlockBegin
  2
SW_NOTE_0_3
 70
     0
 10
0.0
 20
0.0
 30
0.0
  3
SW_NOTE_0_3
  1

  0
MTEXT
  5
B2
330
AF
100
AcDbEntity
  8
0
  6
Continuous
 62
     0
370
     0
100
AcDbMText
 10
11.3688151042
 20
3.7517242343
 30
0.0
 40
2.9104166667
 41
0.0
 71
     2
 72
     1
  1
76646 Bruchsal
  7
SLDTEXTSTYLE0
 73
     1
 44
1.0
  0
MTEXT
  5
B3
330
AF
100
AcDbEntity
  8
0
  6
Continuous
 62
     0
370
     0
100
AcDbMText
 10
11.0349921544
 20
-0.1288312744
 30
0.0
 40
2.9104166667
 41
0.0
 71
     2
 72
     1
  1
Germany
  7
SLDTEXTSTYLE0
 73
     1
 44
1.0
  0
MTEXT
  5
B4
330
AF
100
AcDbEntity
  8
0
  6
Continuous
 62
     0
370
     0
100
AcDbMText
 10
11.234990793
 20
-3.9742509227
 30
0.0
 40
2.1166666667
 41
0.0
 71
     2
 72
     1
  1
www.abp-beyerle.de
  7
SLDTEXTSTYLE0
 73
     1
 44
1.0
  0
ENDBLK
  5
B1
330
AF
100
AcDbEntity
  8
0
100
AcDbBlockEnd
  0
BLOCK
  5
B7
330
B6
100
AcDbEntity
  8
0
100
AcDbBlockBegin
  2
SW_NOTE_0_4
 70
     0
 10
0.0
 20
0.0
 30
0.0
  3
SW_NOTE_0_4
  1

  0
MTEXT
  5
B9
330
B6
100
AcDbEntity
  8
0
  6
Continuous
 62
     0
370
     0
100
AcDbMText
 10
0.0
 20
3.7517242343
 30
0.0
 40
2.9104166667
 41
0.0
 71
     1
 72
     1
  1
ABP-Beyerle GmbH
  7
SLDTEXTSTYLE0
 73
     1
 44
1.0
  0
ENDBLK
  5
B8
330
B6
100
AcDbEntity
  8
0
100
AcDbBlockEnd
  0
BLOCK
  5
BC
330
BB
100
AcDbEntity
  8
0
100
AcDbBlockBegin
  2
SW_NOTE_0_5
 70
     0
 10
0.0
 20
0.0
 30
0.0
  3
SW_NOTE_0_5
  1

  0
MTEXT
  5
BE
330
BB
100
AcDbEntity
  8
0
  6
Continuous
 62
     0
370
     0
100
AcDbMText
 10
0.0
 20
3.7517242343
 30
0.0
 40
2.9104166667
 41
0.0
 71
     1
 72
     1
  1
Im Schollengarten 24b
  7
SLDTEXTSTYLE0
 73
     1
 44
1.0
  0
ENDBLK
  5
BD
330
BB
100
AcDbEntity
  8
0
100
AcDbBlockEnd
  0
BLOCK
  5
C1
330
C0
100
AcDbEntity
  8
0
100
AcDbBlockBegin
  2
Werkstüchkanten DIN 6784
 70
     0
 10
0.0
 20
0.0
 30
0.0
  3
Werkstüchkanten DIN 6784
  1

  0
LINE
  5
C3
330
C0
100
AcDbEntity
  8
0
  6
CENTERX2
 62
     7
370
    18
100
AcDbLine
 10
20.8474554071
 20
7.0004997595
 30
0.0
 11
30.4793071742
 21
16.2066898674
 31
0.0
  0
LINE
  5
C4
330
C0
100
AcDbEntity
  8
0
  6
CENTERX2
 62
     7
370
    18
100
AcDbLine
 10
0.0
 20
7.0
 30
0.0
 11
10.0
 21
17.0
 31
0.0
  0
LINE
  5
C5
330
C0
100
AcDbEntity
  8
0
  6
Continuous
 62
     7
370
    18
100
AcDbLine
 10
24.1170077817
 20
9.4748053439
 30
0.0
 11
23.3546039568
 21
10.1570311109
 31
0.0
  0
LINE
  5
C6
330
C0
100
AcDbEntity
  8
0
  6
Continuous
 62
     7
370
    18
100
AcDbLine
 10
20.8474554071
 20
7.0004997595
 30
0.0
 11
23.3546039568
 21
10.1570311109
 31
0.0
  0
LINE
  5
C7
330
C0
100
AcDbEntity
  8
0
  6
Continuous
 62
     7
370
    18
100
AcDbLine
 10
20.8474554071
 20
7.0004997595
 30
0.0
 11
24.1170077817
 21
9.4748053439
 31
0.0
  0
LINE
  5
C8
330
C0
100
AcDbEntity
  8
0
  6
Continuous
 62
     7
370
    18
100
AcDbLine
 10
3.1570311109
 20
9.4748053439
 30
0.0
 11
2.4748053439
 21
10.1570311109
 31
0.0
  0
LINE
  5
C9
330
C0
100
AcDbEntity
  8
0
  6
Continuous
 62
     7
370
    18
100
AcDbLine
 10
0.0
 20
7.0
 30
0.0
 11
2.4748053439
 21
10.1570311109
 31
0.0
  0
LINE
  5
CA
330
C0
100
AcDbEntity
  8
0
  6
Continuous
 62
     7
370
    18
100
AcDbLine
 10
0.0
 20
7.0
 30
0.0
 11
3.1570311109
 21
9.4748053439
 31
0.0
  0
LINE
  5
CB
330
C0
100
AcDbEntity
  8
0
  6
Continuous
 62
     7
370
    18
100
AcDbLine
 10
20.8474554071
 20
7.0004997595
 30
0.0
 11
30.4793071742
 21
16.2066898674
 31
0.0
  0
LINE
  5
CC
330
C0
100
AcDbEntity
  8
0
  6
Continuous
 62
     7
370
    18
100
AcDbLine
 10
0.0
 20
7.0
 30
0.0
 11
10.0
 21
17.0
 31
0.0
  0
LINE
  5
CD
330
C0
100
AcDbEntity
  8
0
  6
Continuous
 62
     7
370
    18
100
AcDbLine
 10
0.0
 20
14.0
 30
0.0
 11
0.0
 21
7.0
 31
0.0
  0
LINE
  5
CE
330
C0
100
AcDbEntity
  8
0
  6
Continuous
 62
     7
370
    18
100
AcDbLine
 10
0.0
 20
7.0
 30
0.0
 11
7.0
 21
7.0
 31
0.0
  0
LINE
  5
CF
330
C0
100
AcDbEntity
  8
0
  6
Continuous
 62
     7
370
    18
100
AcDbLine
 10
10.0
 20
24.0
 30
0.0
 11
10.0
 21
17.0
 31
0.0
  0
LINE
  5
D0
330
C0
100
AcDbEntity
  8
0
  6
Continuous
 62
     7
370
    18
100
AcDbLine
 10
10.0
 20
17.0
 30
0.0
 11
19.0978492681
 21
17.0
 31
0.0
  0
LINE
  5
D1
330
C0
100
AcDbEntity
  8
0
  6
Continuous
 62
     7
370
    18
100
AcDbLine
 10
20.8474554071
 20
7.0004997595
 30
0.0
 11
20.8474554071
 21
0.0
 31
0.0
  0
LINE
  5
D2
330
C0
100
AcDbEntity
  8
0
  6
Continuous
 62
     7
370
    18
100
AcDbLine
 10
20.8474554071
 20
7.0004997595
 30
0.0
 11
13.786670644
 21
6.999332965
 31
0.0
  0
LINE
  5
D3
330
C0
100
AcDbEntity
  8
0
  6
Continuous
 62
     7
370
    18
100
AcDbLine
 10
30.4793071742
 20
24.0
 30
0.0
 11
30.4793071742
 21
16.2066898674
 31
0.0
  0
LINE
  5
D4
330
C0
100
AcDbEntity
  8
0
  6
Continuous
 62
     7
370
    18
100
AcDbLine
 10
30.4793071742
 20
16.2066898674
 30
0.0
 11
38.3636329923
 21
16.2066898674
 31
0.0
  0
INSERT
  5
DB
330
C0
100
AcDbEntity
  8
0
  6
Continuous
 62
     8
370
    18
100
AcDbBlockReference
  2
SW_NOTE_0_6
 10
10.9047648596
 20
21.1927937205
 30
0.0
  0
INSERT
  5
E1
330
C0
100
AcDbEntity
  8
0
  6
Continuous
 62
     8
370
    18
100
AcDbBlockReference
  2
SW_NOTE_0_7
 10
31.447571997
 20
20.4192406142
 30
0.0
  0
ENDBLK
  5
C2
330
C0
100
AcDbEntity
  8
0
100
AcDbBlockEnd
  0
BLOCK
  5
D6
330
D5
100
AcDbEntity
  8
0
100
AcDbBlockBegin
  2
SW_NOTE_0_6
 70
     0
 10
0.0
 20
0.0
 30
0.0
  3
SW_NOTE_0_6
  1

  0
MTEXT
  5
D9
330
D5
100
AcDbEntity
  8
0
  6
Continuous
 62
     0
370
    18
100
AcDbMText
 10
0.0
 20
3.8672032193
 30
0.0
 40
3.0
 41
0.0
 71
     1
 72
     1
  1
+0,5
  7
SLDTEXTSTYLE1
 73
     1
 44
1.0
  0
MTEXT
  5
DA
330
D5
100
AcDbEntity
  8
0
  6
Continuous
 62
     0
370
    18
100
AcDbMText
 10
0.0
 20
-0.1327969707
 30
0.0
 40
3.0
 41
0.0
 71
     1
 72
     1
  1
+0,2
  7
SLDTEXTSTYLE1
 73
     1
 44
1.0
  0
ENDBLK
  5
D7
330
D5
100
AcDbEntity
  8
0
100
AcDbBlockEnd
  0
BLOCK
  5
DD
330
DC
100
AcDbEntity
  8
0
100
AcDbBlockBegin
  2
SW_NOTE_0_7
 70
     0
 10
0.0
 20
0.0
 30
0.0
  3
SW_NOTE_0_7
  1

  0
MTEXT
  5
DF
330
DC
100
AcDbEntity
  8
0
  6
Continuous
 62
     0
370
    18
100
AcDbMText
 10
0.0
 20
3.8672032193
 30
0.0
 40
3.0
 41
0.0
 71
     1
 72
     1
  1
-0,5
  7
SLDTEXTSTYLE1
 73
     1
 44
1.0
  0
MTEXT
  5
E0
330
DC
100
AcDbEntity
  8
0
  6
Continuous
 62
     0
370
    18
100
AcDbMText
 10
0.0
 20
-0.1327969707
 30
0.0
 40
3.0
 41
0.0
 71
     1
 72
     1
  1
-0,2
  7
SLDTEXTSTYLE1
 73
     1
 44
1.0
  0
ENDBLK
  5
DE
330
DC
100
AcDbEntity
  8
0
100
AcDbBlockEnd
  0
BLOCK
  5
E3
330
E2
100
AcDbEntity
  8
0
100
AcDbBlockBegin
  2
Block5
 70
     0
 10
0.0
 20
0.0
 30
0.0
  3
Block5
  1

  0
LINE
  5
E5
330
E2
100
AcDbEntity
  8
0
100
AcDbLine
 10
363.6834285714
 20
41.3579706949
 30
0.0
 11
388.6834285714
 21
41.3579706949
 31
0.0
  0
LINE
  5
E6
330
E2
100
AcDbEntity
  8
0
100
AcDbLine
 10
374.9034285714
 20
41.3579706949
 30
0.0
 11
374.9034285714
 21
171.3579706949
 31
0.0
  0
LINE
  5
E7
330
E2
100
AcDbEntity
  8
0
100
AcDbLine
 10
374.9034285714
 20
51.3579706949
 30
0.0
 11
384.9034285714
 21
51.3579706949
 31
0.0
  0
LINE
  5
E8
330
E2
100
AcDbEntity
  8
0
100
AcDbLine
 10
374.9034285714
 20
61.3579706949
 30
0.0
 11
384.9034285714
 21
61.3579706949
 31
0.0
  0
LINE
  5
E9
330
E2
100
AcDbEntity
  8
0
100
AcDbLine
 10
374.9034285714
 20
71.3579706949
 30
0.0
 11
384.9034285714
 21
71.3579706949
 31
0.0
  0
LINE
  5
EA
330
E2
100
AcDbEntity
  8
0
100
AcDbLine
 10
374.9034285714
 20
81.3579706949
 30
0.0
 11
384.9034285714
 21
81.3579706949
 31
0.0
  0
LINE
  5
EB
330
E2
100
AcDbEntity
  8
0
100
AcDbLine
 10
374.9034285714
 20
91.3579706949
 30
0.0
 11
384.9034285714
 21
91.3579706949
 31
0.0
  0
LINE
  5
EC
330
E2
100
AcDbEntity
  8
0
100
AcDbLine
 10
374.9034285714
 20
101.3579706949
 30
0.0
 11
384.9034285714
 21
101.3579706949
 31
0.0
  0
LINE
  5
ED
330
E2
100
AcDbEntity
  8
0
100
AcDbLine
 10
374.9034285714
 20
111.3579706949
 30
0.0
 11
384.9034285714
 21
111.3579706949
 31
0.0
  0
LINE
  5
EE
330
E2
100
AcDbEntity
  8
0
100
AcDbLine
 10
374.9034285714
 20
121.3579706949
 30
0.0
 11
384.9034285714
 21
121.3579706949
 31
0.0
  0
LINE
  5
EF
330
E2
100
AcDbEntity
  8
0
100
AcDbLine
 10
374.9034285714
 20
131.3579706949
 30
0.0
 11
384.9034285714
 21
131.3579706949
 31
0.0
  0
LINE
  5
F0
330
E2
100
AcDbEntity
  8
0
100
AcDbLine
 10
374.9034285714
 20
141.3579706949
 30
0.0
 11
384.9034285714
 21
141.3579706949
 31
0.0
  0
LINE
  5
F1
330
E2
100
AcDbEntity
  8
0
100
AcDbLine
 10
374.9034285714
 20
151.3579706949
 30
0.0
 11
384.9034285714
 21
151.3579706949
 31
0.0
  0
LINE
  5
F2
330
E2
100
AcDbEntity
  8
0
100
AcDbLine
 10
374.9034285714
 20
161.3579706949
 30
0.0
 11
384.9034285714
 21
161.3579706949
 31
0.0
  0
LINE
  5
F3
330
E2
100
AcDbEntity
  8
0
100
AcDbLine
 10
374.9034285714
 20
171.3579706949
 30
0.0
 11
384.9034285714
 21
171.3579706949
 31
0.0
  0
LINE
  5
F4
330
E2
100
AcDbEntity
  8
0
100
AcDbLine
 10
374.9034285714
 20
66.7579706949
 30
0.0
 11
362.9034285714
 21
66.7579706949
 31
0.0
  0
LINE
  5
F5
330
E2
100
AcDbEntity
  8
0
100
AcDbLine
 10
374.9034285714
 20
92.1579706949
 30
0.0
 11
362.9034285714
 21
92.1579706949
 31
0.0
  0
LINE
  5
F6
330
E2
100
AcDbEntity
  8
0
100
AcDbLine
 10
374.9034285714
 20
117.5579706949
 30
0.0
 11
362.9034285714
 21
117.5579706949
 31
0.0
  0
LINE
  5
F7
330
E2
100
AcDbEntity
  8
0
100
AcDbLine
 10
374.9034285714
 20
142.9579706949
 30
0.0
 11
362.9034285714
 21
142.9579706949
 31
0.0
  0
LINE
  5
F8
330
E2
100
AcDbEntity
  8
0
100
AcDbLine
 10
374.9034285714
 20
168.3579706949
 30
0.0
 11
362.9034285714
 21
168.3579706949
 31
0.0
  0
INSERT
  5
104
330
E2
100
AcDbEntity
  8
0
100
AcDbBlockReference
  2
SW_BLOCK_DIMENSION_0
 10
397.2096946378
 20
38.9914197296
 30
0.0
  0
INSERT
  5
10C
330
E2
100
AcDbEntity
  8
0
100
AcDbBlockReference
  2
SW_BLOCK_DIMENSION_1
 10
397.2096946378
 20
48.9914197296
 30
0.0
  0
INSERT
  5
114
330
E2
100
AcDbEntity
  8
0
100
AcDbBlockReference
  2
SW_BLOCK_DIMENSION_2
 10
397.2096946378
 20
58.9914197296
 30
0.0
  0
INSERT
  5
11C
330
E2
100
AcDbEntity
  8
0
100
AcDbBlockReference
  2
SW_BLOCK_DIMENSION_3
 10
397.2096946378
 20
68.9914197296
 30
0.0
  0
INSERT
  5
124
330
E2
100
AcDbEntity
  8
0
100
AcDbBlockReference
  2
SW_BLOCK_DIMENSION_4
 10
397.2096946378
 20
78.9914197296
 30
0.0
  0
INSERT
  5
12C
330
E2
100
AcDbEntity
  8
0
100
AcDbBlockReference
  2
SW_BLOCK_DIMENSION_5
 10
397.2096946378
 20
88.9914197296
 30
0.0
  0
INSERT
  5
134
330
E2
100
AcDbEntity
  8
0
100
AcDbBlockReference
  2
SW_BLOCK_DIMENSION_6
 10
397.2096946378
 20
98.9914197296
 30
0.0
  0
INSERT
  5
13C
330
E2
100
AcDbEntity
  8
0
100
AcDbBlockReference
  2
SW_BLOCK_DIMENSION_7
 10
397.2096946378
 20
108.9914197296
 30
0.0
  0
INSERT
  5
144
330
E2
100
AcDbEntity
  8
0
100
AcDbBlockReference
  2
SW_BLOCK_DIMENSION_8
 10
397.2096946378
 20
118.9914197296
 30
0.0
  0
INSERT
  5
14C
330
E2
100
AcDbEntity
  8
0
100
AcDbBlockReference
  2
SW_BLOCK_DIMENSION_9
 10
397.2096946378
 20
128.9914197296
 30
0.0
  0
INSERT
  5
154
330
E2
100
AcDbEntity
  8
0
100
AcDbBlockReference
  2
SW_BLOCK_DIMENSION_10
 10
397.2096946378
 20
138.9914197296
 30
0.0
  0
INSERT
  5
15C
330
E2
100
AcDbEntity
  8
0
100
AcDbBlockReference
  2
SW_BLOCK_DIMENSION_11
 10
397.2096946378
 20
148.9914197296
 30
0.0
  0
INSERT
  5
164
330
E2
100
AcDbEntity
  8
0
100
AcDbBlockReference
  2
SW_BLOCK_DIMENSION_12
 10
397.2096946378
 20
158.9914197296
 30
0.0
  0
INSERT
  5
16C
330
E2
100
AcDbEntity
  8
0
100
AcDbBlockReference
  2
SW_BLOCK_DIMENSION_13
 10
397.2096946378
 20
168.9914197296
 30
0.0
  0
INSERT
  5
17C
330
E2
100
AcDbEntity
  8
0
100
AcDbBlockReference
  2
SW_BLOCK_DIMENSION_14
 10
334.9469441589
 20
36.1691980072
 30
0.0
  0
INSERT
  5
18D
330
E2
100
AcDbEntity
  8
0
100
AcDbBlockReference
  2
SW_BLOCK_DIMENSION_15
 10
334.9469441589
 20
61.5691980072
 30
0.0
  0
INSERT
  5
19E
330
E2
100
AcDbEntity
  8
0
100
AcDbBlockReference
  2
SW_BLOCK_DIMENSION_16
 10
334.9469441589
 20
86.9691980072
 30
0.0
  0
INSERT
  5
1AF
330
E2
100
AcDbEntity
  8
0
100
AcDbBlockReference
  2
SW_BLOCK_DIMENSION_17
 10
334.9469441589
 20
112.3691980072
 30
0.0
  0
INSERT
  5
1C0
330
E2
100
AcDbEntity
  8
0
100
AcDbBlockReference
  2
SW_BLOCK_DIMENSION_18
 10
334.9469441589
 20
137.7691980072
 30
0.0
  0
INSERT
  5
1D1
330
E2
100
AcDbEntity
  8
0
100
AcDbBlockReference
  2
SW_BLOCK_DIMENSION_19
 10
334.9469441589
 20
163.1691980072
 30
0.0
  0
INSERT
  5
1D7
330
E2
100
AcDbEntity
  8
0
 62
     7
100
AcDbBlockReference
  2
SW_NOTE_0_8
 10
337.5586028241
 20
28.8175207347
 30
0.0
  0
INSERT
  5
1DC
330
E2
100
AcDbEntity
  8
0
 62
     7
100
AcDbBlockReference
  2
SW_NOTE_0_9
 10
393.160738319
 20
28.8175207347
 30
0.0
  0
ENDBLK
  5
E4
330
E2
100
AcDbEntity
  8
0
100
AcDbBlockEnd
  0
BLOCK
  5
FA
330
F9
100
AcDbEntity
  8
0
100
AcDbBlockBegin
  2
SW_BLOCK_DIMENSION_0
 70
     0
 10
0.0
 20
0.0
 30
0.0
  3
SW_BLOCK_DIMENSION_0
  1

  0
INSERT
  5
101
330
F9
100
AcDbEntity
  8
0
 62
     0
100
AcDbBlockReference
  2
_Origin
 10
-0.9230769231
 20
2.3665509652
 30
0.0
 41
0.9483022837
 42
0.9483022837
 50
0.0
  0
LINE
  5
102
330
F9
100
AcDbEntity
  8
0
 62
     0
100
AcDbLine
 10
-7.5262660664
 20
2.3665509652
 30
0.0
 11
0.0
 21
2.3665509652
 31
0.0
  0
MTEXT
  5
103
330
F9
100
AcDbEntity
  8
0
 62
     0
100
AcDbMText
 10
0.0
 20
4.0927900738
 30
0.0
 40
3.175
 41
0.0
 71
     1
 72
     1
  1
0
  7
SLDTEXTSTYLE0
 73
     1
 44
1.0
  0
ENDBLK
  5
FB
330
F9
100
AcDbEntity
  8
0
100
AcDbBlockEnd
  0
BLOCK
  5
FD
330
FC
100
AcDbEntity
  8
0
100
AcDbBlockBegin
  2
_Origin
 70
     0
 10
0.0
 20
0.0
 30
0.0
  3
_Origin
  1

  0
CIRCLE
  5
FF
330
FC
100
AcDbEntity
  8
0
  6
ByBlock
 62
     0
370
    -2
100
AcDbCircle
 10
0.0
 20
0.0
 30
0.0
 40
0.5
  0
LINE
  5
100
330
FC
100
AcDbEntity
  8
0
  6
ByBlock
 62
     0
370
    -2
100
AcDbLine
 10
0.0
 20
0.0
 30
0.0
 11
-1.0
 21
0.0
 31
0.0
  0
ENDBLK
  5
FE
330
FC
100
AcDbEntity
  8
0
100
AcDbBlockEnd
  0
BLOCK
  5
106
330
105
100
AcDbEntity
  8
0
100
AcDbBlockBegin
  2
SW_BLOCK_DIMENSION_1
 70
     0
 10
0.0
 20
0.0
 30
0.0
  3
SW_BLOCK_DIMENSION_1
  1

  0
SOLID
  5
108
330
105
100
AcDbEntity
  8
0
 62
     0
100
AcDbTrace
 10
-0.9230769231
 20
2.3665509652
 30
0.0
 11
-1.3972280649
 21
-0.7154314566
 31
0.0
 12
-0.4489257813
 22
-0.7154314566
 32
0.0
 13
-0.4489257813
 23
-0.7154314566
 33
0.0
  0
LINE
  5
109
330
105
100
AcDbEntity
  8
0
 62
     0
100
AcDbLine
 10
-11.3062660664
 20
2.3665509652
 30
0.0
 11
0.0
 21
2.3665509652
 31
0.0
  0
LINE
  5
10A
330
105
100
AcDbEntity
  8
0
 62
     0
100
AcDbLine
 10
-0.9230769231
 20
-7.6334490348
 30
0.0
 11
-0.9230769231
 21
2.3665509652
 31
0.0
  0
MTEXT
  5
10B
330
105
100
AcDbEntity
  8
0
 62
     0
100
AcDbMText
 10
0.0
 20
4.0927900738
 30
0.0
 40
3.175
 41
0.0
 71
     1
 72
     1
  1
10
  7
SLDTEXTSTYLE0
 73
     1
 44
1.0
  0
ENDBLK
  5
107
330
105
100
AcDbEntity
  8
0
100
AcDbBlockEnd
  0
BLOCK
  5
10E
330
10D
100
AcDbEntity
  8
0
100
AcDbBlockBegin
  2
SW_BLOCK_DIMENSION_2
 70
     0
 10
0.0
 20
0.0
 30
0.0
  3
SW_BLOCK_DIMENSION_2
  1

  0
SOLID
  5
110
330
10D
100
AcDbEntity
  8
0
 62
     0
100
AcDbTrace
 10
-0.9230769231
 20
2.3665509652
 30
0.0
 11
-1.3972280649
 21
-0.7154314566
 31
0.0
 12
-0.4489257813
 22
-0.7154314566
 32
0.0
 13
-0.4489257813
 23
-0.7154314566
 33
0.0
  0
LINE
  5
111
330
10D
100
AcDbEntity
  8
0
 62
     0
100
AcDbLine
 10
-11.3062660664
 20
2.3665509652
 30
0.0
 11
0.0
 21
2.3665509652
 31
0.0
  0
LINE
  5
112
330
10D
100
AcDbEntity
  8
0
 62
     0
100
AcDbLine
 10
-0.9230769231
 20
-7.6334490348
 30
0.0
 11
-0.9230769231
 21
2.3665509652
 31
0.0
  0
MTEXT
  5
113
330
10D
100
AcDbEntity
  8
0
 62
     0
100
AcDbMText
 10
0.0
 20
4.0927900738
 30
0.0
 40
3.175
 41
0.0
 71
     1
 72
     1
  1
20
  7
SLDTEXTSTYLE0
 73
     1
 44
1.0
  0
ENDBLK
  5
10F
330
10D
100
AcDbEntity
  8
0
100
AcDbBlockEnd
  0
BLOCK
  5
116
330
115
100
AcDbEntity
  8
0
100
AcDbBlockBegin
  2
SW_BLOCK_DIMENSION_3
 70
     0
 10
0.0
 20
0.0
 30
0.0
  3
SW_BLOCK_DIMENSION_3
  1

  0
SOLID
  5
118
330
115
100
AcDbEntity
  8
0
 62
     0
100
AcDbTrace
 10
-0.9230769231
 20
2.3665509652
 30
0.0
 11
-1.3972280649
 21
-0.7154314566
 31
0.0
 12
-0.4489257813
 22
-0.7154314566
 32
0.0
 13
-0.4489257813
 23
-0.7154314566
 33
0.0
  0
LINE
  5
119
330
115
100
AcDbEntity
  8
0
 62
     0
100
AcDbLine
 10
-11.3062660664
 20
2.3665509652
 30
0.0
 11
0.0
 21
2.3665509652
 31
0.0
  0
LINE
  5
11A
330
115
100
AcDbEntity
  8
0
 62
     0
100
AcDbLine
 10
-0.9230769231
 20
-7.6334490348
 30
0.0
 11
-0.9230769231
 21
2.3665509652
 31
0.0
  0
MTEXT
  5
11B
330
115
100
AcDbEntity
  8
0
 62
     0
100
AcDbMText
 10
0.0
 20
4.0927900738
 30
0.0
 40
3.175
 41
0.0
 71
     1
 72
     1
  1
30
  7
SLDTEXTSTYLE0
 73
     1
 44
1.0
  0
ENDBLK
  5
117
330
115
100
AcDbEntity
  8
0
100
AcDbBlockEnd
  0
BLOCK
  5
11E
330
11D
100
AcDbEntity
  8
0
100
AcDbBlockBegin
  2
SW_BLOCK_DIMENSION_4
 70
     0
 10
0.0
 20
0.0
 30
0.0
  3
SW_BLOCK_DIMENSION_4
  1

  0
SOLID
  5
120
330
11D
100
AcDbEntity
  8
0
 62
     0
100
AcDbTrace
 10
-0.9230769231
 20
2.3665509652
 30
0.0
 11
-1.3972280649
 21
-0.7154314566
 31
0.0
 12
-0.4489257813
 22
-0.7154314566
 32
0.0
 13
-0.4489257813
 23
-0.7154314566
 33
0.0
  0
LINE
  5
121
330
11D
100
AcDbEntity
  8
0
 62
     0
100
AcDbLine
 10
-11.3062660664
 20
2.3665509652
 30
0.0
 11
0.0
 21
2.3665509652
 31
0.0
  0
LINE
  5
122
330
11D
100
AcDbEntity
  8
0
 62
     0
100
AcDbLine
 10
-0.9230769231
 20
-7.6334490348
 30
0.0
 11
-0.9230769231
 21
2.3665509652
 31
0.0
  0
MTEXT
  5
123
330
11D
100
AcDbEntity
  8
0
 62
     0
100
AcDbMText
 10
0.0
 20
4.0927900738
 30
0.0
 40
3.175
 41
0.0
 71
     1
 72
     1
  1
40
  7
SLDTEXTSTYLE0
 73
     1
 44
1.0
  0
ENDBLK
  5
11F
330
11D
100
AcDbEntity
  8
0
100
AcDbBlockEnd
  0
BLOCK
  5
126
330
125
100
AcDbEntity
  8
0
100
AcDbBlockBegin
  2
SW_BLOCK_DIMENSION_5
 70
     0
 10
0.0
 20
0.0
 30
0.0
  3
SW_BLOCK_DIMENSION_5
  1

  0
SOLID
  5
128
330
125
100
AcDbEntity
  8
0
 62
     0
100
AcDbTrace
 10
-0.9230769231
 20
2.3665509652
 30
0.0
 11
-1.3972280649
 21
-0.7154314566
 31
0.0
 12
-0.4489257813
 22
-0.7154314566
 32
0.0
 13
-0.4489257813
 23
-0.7154314566
 33
0.0
  0
LINE
  5
129
330
125
100
AcDbEntity
  8
0
 62
     0
100
AcDbLine
 10
-11.3062660664
 20
2.3665509652
 30
0.0
 11
0.0
 21
2.3665509652
 31
0.0
  0
LINE
  5
12A
330
125
100
AcDbEntity
  8
0
 62
     0
100
AcDbLine
 10
-0.9230769231
 20
-7.6334490348
 30
0.0
 11
-0.9230769231
 21
2.3665509652
 31
0.0
  0
MTEXT
  5
12B
330
125
100
AcDbEntity
  8
0
 62
     0
100
AcDbMText
 10
0.0
 20
4.0927900738
 30
0.0
 40
3.175
 41
0.0
 71
     1
 72
     1
  1
50
  7
SLDTEXTSTYLE0
 73
     1
 44
1.0
  0
ENDBLK
  5
127
330
125
100
AcDbEntity
  8
0
100
AcDbBlockEnd
  0
BLOCK
  5
12E
330
12D
100
AcDbEntity
  8
0
100
AcDbBlockBegin
  2
SW_BLOCK_DIMENSION_6
 70
     0
 10
0.0
 20
0.0
 30
0.0
  3
SW_BLOCK_DIMENSION_6
  1

  0
SOLID
  5
130
330
12D
100
AcDbEntity
  8
0
 62
     0
100
AcDbTrace
 10
-0.9230769231
 20
2.3665509652
 30
0.0
 11
-1.3972280649
 21
-0.7154314566
 31
0.0
 12
-0.4489257813
 22
-0.7154314566
 32
0.0
 13
-0.4489257813
 23
-0.7154314566
 33
0.0
  0
LINE
  5
131
330
12D
100
AcDbEntity
  8
0
 62
     0
100
AcDbLine
 10
-11.3062660664
 20
2.3665509652
 30
0.0
 11
0.0
 21
2.3665509652
 31
0.0
  0
LINE
  5
132
330
12D
100
AcDbEntity
  8
0
 62
     0
100
AcDbLine
 10
-0.9230769231
 20
-7.6334490348
 30
0.0
 11
-0.9230769231
 21
2.3665509652
 31
0.0
  0
MTEXT
  5
133
330
12D
100
AcDbEntity
  8
0
 62
     0
100
AcDbMText
 10
0.0
 20
4.0927900738
 30
0.0
 40
3.175
 41
0.0
 71
     1
 72
     1
  1
60
  7
SLDTEXTSTYLE0
 73
     1
 44
1.0
  0
ENDBLK
  5
12F
330
12D
100
AcDbEntity
  8
0
100
AcDbBlockEnd
  0
BLOCK
  5
136
330
135
100
AcDbEntity
  8
0
100
AcDbBlockBegin
  2
SW_BLOCK_DIMENSION_7
 70
     0
 10
0.0
 20
0.0
 30
0.0
  3
SW_BLOCK_DIMENSION_7
  1

  0
SOLID
  5
138
330
135
100
AcDbEntity
  8
0
 62
     0
100
AcDbTrace
 10
-0.9230769231
 20
2.3665509652
 30
0.0
 11
-1.3972280649
 21
-0.7154314566
 31
0.0
 12
-0.4489257813
 22
-0.7154314566
 32
0.0
 13
-0.4489257813
 23
-0.7154314566
 33
0.0
  0
LINE
  5
139
330
135
100
AcDbEntity
  8
0
 62
     0
100
AcDbLine
 10
-11.3062660664
 20
2.3665509652
 30
0.0
 11
0.0
 21
2.3665509652
 31
0.0
  0
LINE
  5
13A
330
135
100
AcDbEntity
  8
0
 62
     0
100
AcDbLine
 10
-0.9230769231
 20
-7.6334490348
 30
0.0
 11
-0.9230769231
 21
2.3665509652
 31
0.0
  0
MTEXT
  5
13B
330
135
100
AcDbEntity
  8
0
 62
     0
100
AcDbMText
 10
0.0
 20
4.0927900738
 30
0.0
 40
3.175
 41
0.0
 71
     1
 72
     1
  1
70
  7
SLDTEXTSTYLE0
 73
     1
 44
1.0
  0
ENDBLK
  5
137
330
135
100
AcDbEntity
  8
0
100
AcDbBlockEnd
  0
BLOCK
  5
13E
330
13D
100
AcDbEntity
  8
0
100
AcDbBlockBegin
  2
SW_BLOCK_DIMENSION_8
 70
     0
 10
0.0
 20
0.0
 30
0.0
  3
SW_BLOCK_DIMENSION_8
  1

  0
SOLID
  5
140
330
13D
100
AcDbEntity
  8
0
 62
     0
100
AcDbTrace
 10
-0.9230769231
 20
2.3665509652
 30
0.0
 11
-1.3972280649
 21
-0.7154314566
 31
0.0
 12
-0.4489257813
 22
-0.7154314566
 32
0.0
 13
-0.4489257813
 23
-0.7154314566
 33
0.0
  0
LINE
  5
141
330
13D
100
AcDbEntity
  8
0
 62
     0
100
AcDbLine
 10
-11.3062660664
 20
2.3665509652
 30
0.0
 11
0.0
 21
2.3665509652
 31
0.0
  0
LINE
  5
142
330
13D
100
AcDbEntity
  8
0
 62
     0
100
AcDbLine
 10
-0.9230769231
 20
-7.6334490348
 30
0.0
 11
-0.9230769231
 21
2.3665509652
 31
0.0
  0
MTEXT
  5
143
330
13D
100
AcDbEntity
  8
0
 62
     0
100
AcDbMText
 10
0.0
 20
4.0927900738
 30
0.0
 40
3.175
 41
0.0
 71
     1
 72
     1
  1
80
  7
SLDTEXTSTYLE0
 73
     1
 44
1.0
  0
ENDBLK
  5
13F
330
13D
100
AcDbEntity
  8
0
100
AcDbBlockEnd
  0
BLOCK
  5
146
330
145
100
AcDbEntity
  8
0
100
AcDbBlockBegin
  2
SW_BLOCK_DIMENSION_9
 70
     0
 10
0.0
 20
0.0
 30
0.0
  3
SW_BLOCK_DIMENSION_9
  1

  0
SOLID
  5
148
330
145
100
AcDbEntity
  8
0
 62
     0
100
AcDbTrace
 10
-0.9230769231
 20
2.3665509652
 30
0.0
 11
-1.3972280649
 21
-0.7154314566
 31
0.0
 12
-0.4489257813
 22
-0.7154314566
 32
0.0
 13
-0.4489257813
 23
-0.7154314566
 33
0.0
  0
LINE
  5
149
330
145
100
AcDbEntity
  8
0
 62
     0
100
AcDbLine
 10
-11.3062660664
 20
2.3665509652
 30
0.0
 11
0.0
 21
2.3665509652
 31
0.0
  0
LINE
  5
14A
330
145
100
AcDbEntity
  8
0
 62
     0
100
AcDbLine
 10
-0.9230769231
 20
-7.6334490348
 30
0.0
 11
-0.9230769231
 21
2.3665509652
 31
0.0
  0
MTEXT
  5
14B
330
145
100
AcDbEntity
  8
0
 62
     0
100
AcDbMText
 10
0.0
 20
4.0927900738
 30
0.0
 40
3.175
 41
0.0
 71
     1
 72
     1
  1
90
  7
SLDTEXTSTYLE0
 73
     1
 44
1.0
  0
ENDBLK
  5
147
330
145
100
AcDbEntity
  8
0
100
AcDbBlockEnd
  0
BLOCK
  5
14E
330
14D
100
AcDbEntity
  8
0
100
AcDbBlockBegin
  2
SW_BLOCK_DIMENSION_10
 70
     0
 10
0.0
 20
0.0
 30
0.0
  3
SW_BLOCK_DIMENSION_10
  1

  0
SOLID
  5
150
330
14D
100
AcDbEntity
  8
0
 62
     0
100
AcDbTrace
 10
-0.9230769231
 20
2.3665509652
 30
0.0
 11
-1.3972280649
 21
-0.7154314566
 31
0.0
 12
-0.4489257813
 22
-0.7154314566
 32
0.0
 13
-0.4489257813
 23
-0.7154314566
 33
0.0
  0
LINE
  5
151
330
14D
100
AcDbEntity
  8
0
 62
     0
100
AcDbLine
 10
-11.3062660664
 20
2.3665509652
 30
0.0
 11
0.0
 21
2.3665509652
 31
0.0
  0
LINE
  5
152
330
14D
100
AcDbEntity
  8
0
 62
     0
100
AcDbLine
 10
-0.9230769231
 20
-7.6334490348
 30
0.0
 11
-0.9230769231
 21
2.3665509652
 31
0.0
  0
MTEXT
  5
153
330
14D
100
AcDbEntity
  8
0
 62
     0
100
AcDbMText
 10
0.0
 20
4.0927900738
 30
0.0
 40
3.175
 41
0.0
 71
     1
 72
     1
  1
100
  7
SLDTEXTSTYLE0
 73
     1
 44
1.0
  0
ENDBLK
  5
14F
330
14D
100
AcDbEntity
  8
0
100
AcDbBlockEnd
  0
BLOCK
  5
156
330
155
100
AcDbEntity
  8
0
100
AcDbBlockBegin
  2
SW_BLOCK_DIMENSION_11
 70
     0
 10
0.0
 20
0.0
 30
0.0
  3
SW_BLOCK_DIMENSION_11
  1

  0
SOLID
  5
158
330
155
100
AcDbEntity
  8
0
 62
     0
100
AcDbTrace
 10
-0.9230769231
 20
2.3665509652
 30
0.0
 11
-1.3972280649
 21
-0.7154314566
 31
0.0
 12
-0.4489257813
 22
-0.7154314566
 32
0.0
 13
-0.4489257813
 23
-0.7154314566
 33
0.0
  0
LINE
  5
159
330
155
100
AcDbEntity
  8
0
 62
     0
100
AcDbLine
 10
-11.3062660664
 20
2.3665509652
 30
0.0
 11
0.0
 21
2.3665509652
 31
0.0
  0
LINE
  5
15A
330
155
100
AcDbEntity
  8
0
 62
     0
100
AcDbLine
 10
-0.9230769231
 20
-7.6334490348
 30
0.0
 11
-0.9230769231
 21
2.3665509652
 31
0.0
  0
MTEXT
  5
15B
330
155
100
AcDbEntity
  8
0
 62
     0
100
AcDbMText
 10
0.0
 20
4.0927900738
 30
0.0
 40
3.175
 41
0.0
 71
     1
 72
     1
  1
110
  7
SLDTEXTSTYLE0
 73
     1
 44
1.0
  0
ENDBLK
  5
157
330
155
100
AcDbEntity
  8
0
100
AcDbBlockEnd
  0
BLOCK
  5
15E
330
15D
100
AcDbEntity
  8
0
100
AcDbBlockBegin
  2
SW_BLOCK_DIMENSION_12
 70
     0
 10
0.0
 20
0.0
 30
0.0
  3
SW_BLOCK_DIMENSION_12
  1

  0
SOLID
  5
160
330
15D
100
AcDbEntity
  8
0
 62
     0
100
AcDbTrace
 10
-0.9230769231
 20
2.3665509652
 30
0.0
 11
-1.3972280649
 21
-0.7154314566
 31
0.0
 12
-0.4489257813
 22
-0.7154314566
 32
0.0
 13
-0.4489257813
 23
-0.7154314566
 33
0.0
  0
LINE
  5
161
330
15D
100
AcDbEntity
  8
0
 62
     0
100
AcDbLine
 10
-11.3062660664
 20
2.3665509652
 30
0.0
 11
0.0
 21
2.3665509652
 31
0.0
  0
LINE
  5
162
330
15D
100
AcDbEntity
  8
0
 62
     0
100
AcDbLine
 10
-0.9230769231
 20
-7.6334490348
 30
0.0
 11
-0.9230769231
 21
2.3665509652
 31
0.0
  0
MTEXT
  5
163
330
15D
100
AcDbEntity
  8
0
 62
     0
100
AcDbMText
 10
0.0
 20
4.0927900738
 30
0.0
 40
3.175
 41
0.0
 71
     1
 72
     1
  1
120
  7
SLDTEXTSTYLE0
 73
     1
 44
1.0
  0
ENDBLK
  5
15F
330
15D
100
AcDbEntity
  8
0
100
AcDbBlockEnd
  0
BLOCK
  5
166
330
165
100
AcDbEntity
  8
0
100
AcDbBlockBegin
  2
SW_BLOCK_DIMENSION_13
 70
     0
 10
0.0
 20
0.0
 30
0.0
  3
SW_BLOCK_DIMENSION_13
  1

  0
SOLID
  5
168
330
165
100
AcDbEntity
  8
0
 62
     0
100
AcDbTrace
 10
-0.9230769231
 20
2.3665509652
 30
0.0
 11
-1.3972280649
 21
-0.7154314566
 31
0.0
 12
-0.4489257813
 22
-0.7154314566
 32
0.0
 13
-0.4489257813
 23
-0.7154314566
 33
0.0
  0
LINE
  5
169
330
165
100
AcDbEntity
  8
0
 62
     0
100
AcDbLine
 10
-11.3062660664
 20
2.3665509652
 30
0.0
 11
0.0
 21
2.3665509652
 31
0.0
  0
LINE
  5
16A
330
165
100
AcDbEntity
  8
0
 62
     0
100
AcDbLine
 10
-0.9230769231
 20
-7.6334490348
 30
0.0
 11
-0.9230769231
 21
2.3665509652
 31
0.0
  0
MTEXT
  5
16B
330
165
100
AcDbEntity
  8
0
 62
     0
100
AcDbMText
 10
0.0
 20
4.0927900738
 30
0.0
 40
3.175
 41
0.0
 71
     1
 72
     1
  1
130
  7
SLDTEXTSTYLE0
 73
     1
 44
1.0
  0
ENDBLK
  5
167
330
165
100
AcDbEntity
  8
0
100
AcDbBlockEnd
  0
BLOCK
  5
16E
330
16D
100
AcDbEntity
  8
0
100
AcDbBlockBegin
  2
SW_BLOCK_DIMENSION_14
 70
     0
 10
0.0
 20
0.0
 30
0.0
  3
SW_BLOCK_DIMENSION_14
  1

  0
INSERT
  5
170
330
16D
100
AcDbEntity
  8
0
 62
     0
100
AcDbBlockReference
  2
_Origin
 10
18.0915950789
 20
5.1887726877
 30
0.0
 41
0.9483022837
 42
0.9483022837
 50
0.0
  0
LINE
  5
171
330
16D
100
AcDbEntity
  8
0
 62
     0
100
AcDbLine
 10
3.2925925916
 20
9.671990294
 30
0.0
 11
2.2342592711
 21
9.671990294
 31
0.0
  0
LINE
  5
172
330
16D
100
AcDbEntity
  8
0
 62
     0
100
AcDbLine
 10
2.2342592711
 20
9.671990294
 30
0.0
 11
2.2342592711
 21
4.9388883635
 31
0.0
  0
LINE
  5
173
330
16D
100
AcDbEntity
  8
0
 62
     0
100
AcDbLine
 10
2.2342592711
 20
4.9388883635
 30
0.0
 11
3.2925925916
 21
4.9388883635
 31
0.0
  0
LINE
  5
174
330
16D
100
AcDbEntity
  8
0
 62
     0
100
AcDbLine
 10
13.8759262627
 20
9.671990294
 30
0.0
 11
14.9342595832
 21
9.671990294
 31
0.0
  0
LINE
  5
175
330
16D
100
AcDbEntity
  8
0
 62
     0
100
AcDbLine
 10
14.9342595832
 20
9.671990294
 30
0.0
 11
14.9342595832
 21
4.9388883635
 31
0.0
  0
LINE
  5
176
330
16D
100
AcDbEntity
  8
0
 62
     0
100
AcDbLine
 10
14.9342595832
 20
4.9388883635
 30
0.0
 11
13.8759262627
 21
4.9388883635
 31
0.0
  0
LINE
  5
177
330
16D
100
AcDbEntity
  8
0
 62
     0
100
AcDbLine
 10
27.7364844126
 20
5.1887726877
 30
0.0
 11
17.1685181558
 21
5.1887726877
 31
0.0
  0
MTEXT
  5
178
330
16D
100
AcDbEntity
  8
0
 62
     0
100
AcDbMText
 10
1.190625
 20
4.0927900738
 30
0.0
 40
3.175
 41
0.0
 71
     1
 72
     1
  1

  7
SLDTEXTSTYLE0
 73
     1
 44
1.0
  0
MTEXT
  5
179
330
16D
100
AcDbEntity
  8
0
 62
     0
100
AcDbMText
 10
3.2925925916
 20
9.0316784373
 30
0.0
 40
3.175
 41
0.0
 71
     1
 72
     1
  1
0,000
  7
SLDTEXTSTYLE0
 73
     1
 44
1.0
  0
MTEXT
  5
17A
330
16D
100
AcDbEntity
  8
0
 62
     0
100
AcDbMText
 10
7.4083334766
 20
4.0927898409
 30
0.0
 40
3.175
 41
0.0
 71
     1
 72
     1
  1
0
  7
SLDTEXTSTYLE0
 73
     1
 44
1.0
  0
MTEXT
  5
17B
330
16D
100
AcDbEntity
  8
0
 62
     0
100
AcDbMText
 10
17.1832180202
 20
4.0927900738
 30
0.0
 40
3.175
 41
0.0
 71
     1
 72
     1
  1

  7
SLDTEXTSTYLE0
 73
     1
 44
1.0
  0
ENDBLK
  5
16F
330
16D
100
AcDbEntity
  8
0
100
AcDbBlockEnd
  0
BLOCK
  5
17E
330
17D
100
AcDbEntity
  8
0
100
AcDbBlockBegin
  2
SW_BLOCK_DIMENSION_15
 70
     0
 10
0.0
 20
0.0
 30
0.0
  3
SW_BLOCK_DIMENSION_15
  1

  0
SOLID
  5
180
330
17D
100
AcDbEntity
  8
0
 62
     0
100
AcDbTrace
 10
18.0915950789
 20
5.1887726877
 30
0.0
 11
17.6174439371
 21
2.1067902658
 31
0.0
 12
18.5657462207
 22
2.1067902658
 32
0.0
 13
18.5657462207
 23
2.1067902658
 33
0.0
  0
LINE
  5
181
330
17D
100
AcDbEntity
  8
0
 62
     0
100
AcDbLine
 10
3.2925925916
 20
9.671990294
 30
0.0
 11
2.2342592711
 21
9.671990294
 31
0.0
  0
LINE
  5
182
330
17D
100
AcDbEntity
  8
0
 62
     0
100
AcDbLine
 10
2.2342592711
 20
9.671990294
 30
0.0
 11
2.2342592711
 21
4.9388883635
 31
0.0
  0
LINE
  5
183
330
17D
100
AcDbEntity
  8
0
 62
     0
100
AcDbLine
 10
2.2342592711
 20
4.9388883635
 30
0.0
 11
3.2925925916
 21
4.9388883635
 31
0.0
  0
LINE
  5
184
330
17D
100
AcDbEntity
  8
0
 62
     0
100
AcDbLine
 10
13.8759262627
 20
9.671990294
 30
0.0
 11
14.9342595832
 21
9.671990294
 31
0.0
  0
LINE
  5
185
330
17D
100
AcDbEntity
  8
0
 62
     0
100
AcDbLine
 10
14.9342595832
 20
9.671990294
 30
0.0
 11
14.9342595832
 21
4.9388883635
 31
0.0
  0
LINE
  5
186
330
17D
100
AcDbEntity
  8
0
 62
     0
100
AcDbLine
 10
14.9342595832
 20
4.9388883635
 30
0.0
 11
13.8759262627
 21
4.9388883635
 31
0.0
  0
LINE
  5
187
330
17D
100
AcDbEntity
  8
0
 62
     0
100
AcDbLine
 10
26.9564844126
 20
5.1887726877
 30
0.0
 11
17.1685181558
 21
5.1887726877
 31
0.0
  0
LINE
  5
188
330
17D
100
AcDbEntity
  8
0
 62
     0
100
AcDbLine
 10
18.0915950789
 20
-20.2112273123
 30
0.0
 11
18.0915950789
 21
5.1887726877
 31
0.0
  0
MTEXT
  5
189
330
17D
100
AcDbEntity
  8
0
 62
     0
100
AcDbMText
 10
1.190625
 20
4.0927900738
 30
0.0
 40
3.175
 41
0.0
 71
     1
 72
     1
  1

  7
SLDTEXTSTYLE0
 73
     1
 44
1.0
  0
MTEXT
  5
18A
330
17D
100
AcDbEntity
  8
0
 62
     0
100
AcDbMText
 10
3.2925925916
 20
9.0316784373
 30
0.0
 40
3.175
 41
0.0
 71
     1
 72
     1
  1
1,000
  7
SLDTEXTSTYLE0
 73
     1
 44
1.0
  0
MTEXT
  5
18B
330
17D
100
AcDbEntity
  8
0
 62
     0
100
AcDbMText
 10
4.4685186585
 20
4.0927898409
 30
0.0
 40
3.175
 41
0.0
 71
     1
 72
     1
  1
25,4
  7
SLDTEXTSTYLE0
 73
     1
 44
1.0
  0
MTEXT
  5
18C
330
17D
100
AcDbEntity
  8
0
 62
     0
100
AcDbMText
 10
17.1832180202
 20
4.0927900738
 30
0.0
 40
3.175
 41
0.0
 71
     1
 72
     1
  1

  7
SLDTEXTSTYLE0
 73
     1
 44
1.0
  0
ENDBLK
  5
17F
330
17D
100
AcDbEntity
  8
0
100
AcDbBlockEnd
  0
BLOCK
  5
18F
330
18E
100
AcDbEntity
  8
0
100
AcDbBlockBegin
  2
SW_BLOCK_DIMENSION_16
 70
     0
 10
0.0
 20
0.0
 30
0.0
  3
SW_BLOCK_DIMENSION_16
  1

  0
SOLID
  5
191
330
18E
100
AcDbEntity
  8
0
 62
     0
100
AcDbTrace
 10
18.0915950789
 20
5.1887726877
 30
0.0
 11
17.6174439371
 21
2.1067902658
 31
0.0
 12
18.5657462207
 22
2.1067902658
 32
0.0
 13
18.5657462207
 23
2.1067902658
 33
0.0
  0
LINE
  5
192
330
18E
100
AcDbEntity
  8
0
 62
     0
100
AcDbLine
 10
3.2925925916
 20
9.671990294
 30
0.0
 11
2.2342592711
 21
9.671990294
 31
0.0
  0
LINE
  5
193
330
18E
100
AcDbEntity
  8
0
 62
     0
100
AcDbLine
 10
2.2342592711
 20
9.671990294
 30
0.0
 11
2.2342592711
 21
4.9388883635
 31
0.0
  0
LINE
  5
194
330
18E
100
AcDbEntity
  8
0
 62
     0
100
AcDbLine
 10
2.2342592711
 20
4.9388883635
 30
0.0
 11
3.2925925916
 21
4.9388883635
 31
0.0
  0
LINE
  5
195
330
18E
100
AcDbEntity
  8
0
 62
     0
100
AcDbLine
 10
13.8759262627
 20
9.671990294
 30
0.0
 11
14.9342595832
 21
9.671990294
 31
0.0
  0
LINE
  5
196
330
18E
100
AcDbEntity
  8
0
 62
     0
100
AcDbLine
 10
14.9342595832
 20
9.671990294
 30
0.0
 11
14.9342595832
 21
4.9388883635
 31
0.0
  0
LINE
  5
197
330
18E
100
AcDbEntity
  8
0
 62
     0
100
AcDbLine
 10
14.9342595832
 20
4.9388883635
 30
0.0
 11
13.8759262627
 21
4.9388883635
 31
0.0
  0
LINE
  5
198
330
18E
100
AcDbEntity
  8
0
 62
     0
100
AcDbLine
 10
26.9564844126
 20
5.1887726877
 30
0.0
 11
17.1685181558
 21
5.1887726877
 31
0.0
  0
LINE
  5
199
330
18E
100
AcDbEntity
  8
0
 62
     0
100
AcDbLine
 10
18.0915950789
 20
-20.2112273123
 30
0.0
 11
18.0915950789
 21
5.1887726877
 31
0.0
  0
MTEXT
  5
19A
330
18E
100
AcDbEntity
  8
0
 62
     0
100
AcDbMText
 10
1.190625
 20
4.0927900738
 30
0.0
 40
3.175
 41
0.0
 71
     1
 72
     1
  1

  7
SLDTEXTSTYLE0
 73
     1
 44
1.0
  0
MTEXT
  5
19B
330
18E
100
AcDbEntity
  8
0
 62
     0
100
AcDbMText
 10
3.2925925916
 20
9.0316784373
 30
0.0
 40
3.175
 41
0.0
 71
     1
 72
     1
  1
2,000
  7
SLDTEXTSTYLE0
 73
     1
 44
1.0
  0
MTEXT
  5
19C
330
18E
100
AcDbEntity
  8
0
 62
     0
100
AcDbMText
 10
4.4685186585
 20
4.0927898409
 30
0.0
 40
3.175
 41
0.0
 71
     1
 72
     1
  1
50,8
  7
SLDTEXTSTYLE0
 73
     1
 44
1.0
  0
MTEXT
  5
19D
330
18E
100
AcDbEntity
  8
0
 62
     0
100
AcDbMText
 10
17.1832180202
 20
4.0927900738
 30
0.0
 40
3.175
 41
0.0
 71
     1
 72
     1
  1

  7
SLDTEXTSTYLE0
 73
     1
 44
1.0
  0
ENDBLK
  5
190
330
18E
100
AcDbEntity
  8
0
100
AcDbBlockEnd
  0
BLOCK
  5
1A0
330
19F
100
AcDbEntity
  8
0
100
AcDbBlockBegin
  2
SW_BLOCK_DIMENSION_17
 70
     0
 10
0.0
 20
0.0
 30
0.0
  3
SW_BLOCK_DIMENSION_17
  1

  0
SOLID
  5
1A2
330
19F
100
AcDbEntity
  8
0
 62
     0
100
AcDbTrace
 10
18.0915950789
 20
5.1887726877
 30
0.0
 11
17.6174439371
 21
2.1067902658
 31
0.0
 12
18.5657462207
 22
2.1067902658
 32
0.0
 13
18.5657462207
 23
2.1067902658
 33
0.0
  0
LINE
  5
1A3
330
19F
100
AcDbEntity
  8
0
 62
     0
100
AcDbLine
 10
3.2925925916
 20
9.671990294
 30
0.0
 11
2.2342592711
 21
9.671990294
 31
0.0
  0
LINE
  5
1A4
330
19F
100
AcDbEntity
  8
0
 62
     0
100
AcDbLine
 10
2.2342592711
 20
9.671990294
 30
0.0
 11
2.2342592711
 21
4.9388883635
 31
0.0
  0
LINE
  5
1A5
330
19F
100
AcDbEntity
  8
0
 62
     0
100
AcDbLine
 10
2.2342592711
 20
4.9388883635
 30
0.0
 11
3.2925925916
 21
4.9388883635
 31
0.0
  0
LINE
  5
1A6
330
19F
100
AcDbEntity
  8
0
 62
     0
100
AcDbLine
 10
13.8759262627
 20
9.671990294
 30
0.0
 11
14.9342595832
 21
9.671990294
 31
0.0
  0
LINE
  5
1A7
330
19F
100
AcDbEntity
  8
0
 62
     0
100
AcDbLine
 10
14.9342595832
 20
9.671990294
 30
0.0
 11
14.9342595832
 21
4.9388883635
 31
0.0
  0
LINE
  5
1A8
330
19F
100
AcDbEntity
  8
0
 62
     0
100
AcDbLine
 10
14.9342595832
 20
4.9388883635
 30
0.0
 11
13.8759262627
 21
4.9388883635
 31
0.0
  0
LINE
  5
1A9
330
19F
100
AcDbEntity
  8
0
 62
     0
100
AcDbLine
 10
26.9564844126
 20
5.1887726877
 30
0.0
 11
17.1685181558
 21
5.1887726877
 31
0.0
  0
LINE
  5
1AA
330
19F
100
AcDbEntity
  8
0
 62
     0
100
AcDbLine
 10
18.0915950789
 20
-20.2112273123
 30
0.0
 11
18.0915950789
 21
5.1887726877
 31
0.0
  0
MTEXT
  5
1AB
330
19F
100
AcDbEntity
  8
0
 62
     0
100
AcDbMText
 10
1.190625
 20
4.0927900738
 30
0.0
 40
3.175
 41
0.0
 71
     1
 72
     1
  1

  7
SLDTEXTSTYLE0
 73
     1
 44
1.0
  0
MTEXT
  5
1AC
330
19F
100
AcDbEntity
  8
0
 62
     0
100
AcDbMText
 10
3.2925925916
 20
9.0316784373
 30
0.0
 40
3.175
 41
0.0
 71
     1
 72
     1
  1
3,000
  7
SLDTEXTSTYLE0
 73
     1
 44
1.0
  0
MTEXT
  5
1AD
330
19F
100
AcDbEntity
  8
0
 62
     0
100
AcDbMText
 10
4.4685186585
 20
4.0927898409
 30
0.0
 40
3.175
 41
0.0
 71
     1
 72
     1
  1
76,2
  7
SLDTEXTSTYLE0
 73
     1
 44
1.0
  0
MTEXT
  5
1AE
330
19F
100
AcDbEntity
  8
0
 62
     0
100
AcDbMText
 10
17.1832180202
 20
4.0927900738
 30
0.0
 40
3.175
 41
0.0
 71
     1
 72
     1
  1

  7
SLDTEXTSTYLE0
 73
     1
 44
1.0
  0
ENDBLK
  5
1A1
330
19F
100
AcDbEntity
  8
0
100
AcDbBlockEnd
  0
BLOCK
  5
1B1
330
1B0
100
AcDbEntity
  8
0
100
AcDbBlockBegin
  2
SW_BLOCK_DIMENSION_18
 70
     0
 10
0.0
 20
0.0
 30
0.0
  3
SW_BLOCK_DIMENSION_18
  1

  0
SOLID
  5
1B3
330
1B0
100
AcDbEntity
  8
0
 62
     0
100
AcDbTrace
 10
18.0915950789
 20
5.1887726877
 30
0.0
 11
17.6174439371
 21
2.1067902658
 31
0.0
 12
18.5657462207
 22
2.1067902658
 32
0.0
 13
18.5657462207
 23
2.1067902658
 33
0.0
  0
LINE
  5
1B4
330
1B0
100
AcDbEntity
  8
0
 62
     0
100
AcDbLine
 10
3.2925925916
 20
9.671990294
 30
0.0
 11
2.2342592711
 21
9.671990294
 31
0.0
  0
LINE
  5
1B5
330
1B0
100
AcDbEntity
  8
0
 62
     0
100
AcDbLine
 10
2.2342592711
 20
9.671990294
 30
0.0
 11
2.2342592711
 21
4.9388883635
 31
0.0
  0
LINE
  5
1B6
330
1B0
100
AcDbEntity
  8
0
 62
     0
100
AcDbLine
 10
2.2342592711
 20
4.9388883635
 30
0.0
 11
3.2925925916
 21
4.9388883635
 31
0.0
  0
LINE
  5
1B7
330
1B0
100
AcDbEntity
  8
0
 62
     0
100
AcDbLine
 10
13.8759262627
 20
9.671990294
 30
0.0
 11
14.9342595832
 21
9.671990294
 31
0.0
  0
LINE
  5
1B8
330
1B0
100
AcDbEntity
  8
0
 62
     0
100
AcDbLine
 10
14.9342595832
 20
9.671990294
 30
0.0
 11
14.9342595832
 21
4.9388883635
 31
0.0
  0
LINE
  5
1B9
330
1B0
100
AcDbEntity
  8
0
 62
     0
100
AcDbLine
 10
14.9342595832
 20
4.9388883635
 30
0.0
 11
13.8759262627
 21
4.9388883635
 31
0.0
  0
LINE
  5
1BA
330
1B0
100
AcDbEntity
  8
0
 62
     0
100
AcDbLine
 10
26.9564844126
 20
5.1887726877
 30
0.0
 11
17.1685181558
 21
5.1887726877
 31
0.0
  0
LINE
  5
1BB
330
1B0
100
AcDbEntity
  8
0
 62
     0
100
AcDbLine
 10
18.0915950789
 20
-20.2112273123
 30
0.0
 11
18.0915950789
 21
5.1887726877
 31
0.0
  0
MTEXT
  5
1BC
330
1B0
100
AcDbEntity
  8
0
 62
     0
100
AcDbMText
 10
1.190625
 20
4.0927900738
 30
0.0
 40
3.175
 41
0.0
 71
     1
 72
     1
  1

  7
SLDTEXTSTYLE0
 73
     1
 44
1.0
  0
MTEXT
  5
1BD
330
1B0
100
AcDbEntity
  8
0
 62
     0
100
AcDbMText
 10
3.2925925916
 20
9.0316784373
 30
0.0
 40
3.175
 41
0.0
 71
     1
 72
     1
  1
4,000
  7
SLDTEXTSTYLE0
 73
     1
 44
1.0
  0
MTEXT
  5
1BE
330
1B0
100
AcDbEntity
  8
0
 62
     0
100
AcDbMText
 10
3.2925925916
 20
4.0927898409
 30
0.0
 40
3.175
 41
0.0
 71
     1
 72
     1
  1
101,6
  7
SLDTEXTSTYLE0
 73
     1
 44
1.0
  0
MTEXT
  5
1BF
330
1B0
100
AcDbEntity
  8
0
 62
     0
100
AcDbMText
 10
17.1832180202
 20
4.0927900738
 30
0.0
 40
3.175
 41
0.0
 71
     1
 72
     1
  1

  7
SLDTEXTSTYLE0
 73
     1
 44
1.0
  0
ENDBLK
  5
1B2
330
1B0
100
AcDbEntity
  8
0
100
AcDbBlockEnd
  0
BLOCK
  5
1C2
330
1C1
100
AcDbEntity
  8
0
100
AcDbBlockBegin
  2
SW_BLOCK_DIMENSION_19
 70
     0
 10
0.0
 20
0.0
 30
0.0
  3
SW_BLOCK_DIMENSION_19
  1

  0
SOLID
  5
1C4
330
1C1
100
AcDbEntity
  8
0
 62
     0
100
AcDbTrace
 10
18.0915950789
 20
5.1887726877
 30
0.0
 11
17.6174439371
 21
2.1067902658
 31
0.0
 12
18.5657462207
 22
2.1067902658
 32
0.0
 13
18.5657462207
 23
2.1067902658
 33
0.0
  0
LINE
  5
1C5
330
1C1
100
AcDbEntity
  8
0
 62
     0
100
AcDbLine
 10
3.2925925916
 20
9.671990294
 30
0.0
 11
2.2342592711
 21
9.671990294
 31
0.0
  0
LINE
  5
1C6
330
1C1
100
AcDbEntity
  8
0
 62
     0
100
AcDbLine
 10
2.2342592711
 20
9.671990294
 30
0.0
 11
2.2342592711
 21
4.9388883635
 31
0.0
  0
LINE
  5
1C7
330
1C1
100
AcDbEntity
  8
0
 62
     0
100
AcDbLine
 10
2.2342592711
 20
4.9388883635
 30
0.0
 11
3.2925925916
 21
4.9388883635
 31
0.0
  0
LINE
  5
1C8
330
1C1
100
AcDbEntity
  8
0
 62
     0
100
AcDbLine
 10
13.8759262627
 20
9.671990294
 30
0.0
 11
14.9342595832
 21
9.671990294
 31
0.0
  0
LINE
  5
1C9
330
1C1
100
AcDbEntity
  8
0
 62
     0
100
AcDbLine
 10
14.9342595832
 20
9.671990294
 30
0.0
 11
14.9342595832
 21
4.9388883635
 31
0.0
  0
LINE
  5
1CA
330
1C1
100
AcDbEntity
  8
0
 62
     0
100
AcDbLine
 10
14.9342595832
 20
4.9388883635
 30
0.0
 11
13.8759262627
 21
4.9388883635
 31
0.0
  0
LINE
  5
1CB
330
1C1
100
AcDbEntity
  8
0
 62
     0
100
AcDbLine
 10
26.9564844126
 20
5.1887726877
 30
0.0
 11
17.1685181558
 21
5.1887726877
 31
0.0
  0
LINE
  5
1CC
330
1C1
100
AcDbEntity
  8
0
 62
     0
100
AcDbLine
 10
18.0915950789
 20
-20.2112273123
 30
0.0
 11
18.0915950789
 21
5.1887726877
 31
0.0
  0
MTEXT
  5
1CD
330
1C1
100
AcDbEntity
  8
0
 62
     0
100
AcDbMText
 10
1.190625
 20
4.0927900738
 30
0.0
 40
3.175
 41
0.0
 71
     1
 72
     1
  1

  7
SLDTEXTSTYLE0
 73
     1
 44
1.0
  0
MTEXT
  5
1CE
330
1C1
100
AcDbEntity
  8
0
 62
     0
100
AcDbMText
 10
3.2925925916
 20
9.0316784373
 30
0.0
 40
3.175
 41
0.0
 71
     1
 72
     1
  1
5,000
  7
SLDTEXTSTYLE0
 73
     1
 44
1.0
  0
MTEXT
  5
1CF
330
1C1
100
AcDbEntity
  8
0
 62
     0
100
AcDbMText
 10
5.056481692
 20
4.0927898409
 30
0.0
 40
3.175
 41
0.0
 71
     1
 72
     1
  1
127
  7
SLDTEXTSTYLE0
 73
     1
 44
1.0
  0
MTEXT
  5
1D0
330
1C1
100
AcDbEntity
  8
0
 62
     0
100
AcDbMText
 10
17.1832180202
 20
4.0927900738
 30
0.0
 40
3.175
 41
0.0
 71
     1
 72
     1
  1

  7
SLDTEXTSTYLE0
 73
     1
 44
1.0
  0
ENDBLK
  5
1C3
330
1C1
100
AcDbEntity
  8
0
100
AcDbBlockEnd
  0
BLOCK
  5
1D3
330
1D2
100
AcDbEntity
  8
0
100
AcDbBlockBegin
  2
SW_NOTE_0_8
 70
     0
 10
0.0
 20
0.0
 30
0.0
  3
SW_NOTE_0_8
  1

  0
MTEXT
  5
1D5
330
1D2
100
AcDbEntity
  8
0
 62
     0
100
AcDbMText
 10
6.7138020833
 20
4.7749217527
 30
0.0
 40
3.7041666667
 41
0.0
 71
     2
 72
     1
  1
(Inch)
  7
SLDTEXTSTYLE0
 73
     1
 44
1.0
  0
MTEXT
  5
1D6
330
1D2
100
AcDbEntity
  8
0
 62
     0
100
AcDbMText
 10
6.7309508326
 20
-1.1639672404
 30
0.0
 40
3.7041666667
 41
0.0
 71
     2
 72
     1
  1
mm
  7
SLDTEXTSTYLE0
 73
     1
 44
1.0
  0
ENDBLK
  5
1D4
330
1D2
100
AcDbEntity
  8
0
100
AcDbBlockEnd
  0
BLOCK
  5
1D9
330
1D8
100
AcDbEntity
  8
0
100
AcDbBlockBegin
  2
SW_NOTE_0_9
 70
     0
 10
0.0
 20
0.0
 30
0.0
  3
SW_NOTE_0_9
  1

  0
MTEXT
  5
1DB
330
1D8
100
AcDbEntity
  8
0
 62
     0
100
AcDbMText
 10
0.0
 20
4.7749217527
 30
0.0
 40
3.7041666667
 41
0.0
 71
     1
 72
     1
  1
mm
  7
SLDTEXTSTYLE0
 73
     1
 44
1.0
  0
ENDBLK
  5
1DA
330
1D8
100
AcDbEntity
  8
0
100
AcDbBlockEnd
  0
BLOCK
  5
1E7
330
1E6
100
AcDbEntity
  8
0
100
AcDbBlockBegin
  2
SW_NOTE_0_10
 70
     0
 10
0.0
 20
0.0
 30
0.0
  3
SW_NOTE_0_10
  1

  0
MTEXT
  5
1E9
330
1E6
100
AcDbEntity
  8
0
  6
Continuous
 62
     0
370
     0
100
AcDbMText
 10
19.893359375
 20
4.0927900738
 30
0.0
 40
3.175
 41
0.0
 71
     2
 72
     1
  1
ABP-Beyerle GmbH
  7
SLDTEXTSTYLE0
 73
     1
 44
1.0
  0
MTEXT
  5
1EA
330
1E6
100
AcDbEntity
  8
0
  6
Continuous
 62
     0
370
     0
100
AcDbMText
 10
20.6558884293
 20
-0.1405432084
 30
0.0
 40
3.175
 41
0.0
 71
     2
 72
     1
  1
Im Schollengarten 24b, 76646 Bruchsal
  7
SLDTEXTSTYLE0
 73
     1
 44
1.0
  0
MTEXT
  5
1EB
330
1E6
100
AcDbEntity
  8
0
  6
Continuous
 62
     0
370
     0
100
AcDbMText
 10
20.7863491923
 20
-4.3738764906
 30
0.0
 40
3.175
 41
0.0
 71
     2
 72
     1
  1
Tel. +49 (0)7251-9127-0, Fax. +49 (0)7251-9127-29
  7
SLDTEXTSTYLE0
 73
     1
 44
1.0
  0
MTEXT
  5
1EC
330
1E6
100
AcDbEntity
  8
0
  6
Continuous
 62
     0
370
     0
100
AcDbMText
 10
20.8392552227
 20
-8.6072097727
 30
0.0
 40
3.175
 41
0.0
 71
     2
 72
     1
  1
info@abp-beyerle.de, www.abp-beyerle.de
  7
SLDTEXTSTYLE0
 73
     1
 44
1.0
  0
ENDBLK
  5
1E8
330
1E6
100
AcDbEntity
  8
0
100
AcDbBlockEnd
  0
BLOCK
  5
303
330
302
100
AcDbEntity
  8
0
100
AcDbBlockBegin
  2
SW_CENTERMARKSYMBOL_0
 70
     0
 10
0.0
 20
0.0
 30
0.0
  3
SW_CENTERMARKSYMBOL_0
  1

  0
LINE
  5
305
330
302
100
AcDbEntity
  8
0
 62
     0
100
AcDbLine
 10
0.0
 20
0.0
 30
0.0
 11
0.0
 21
0.5
 31
0.0
  0
LINE
  5
306
330
302
100
AcDbEntity
  8
0
 62
     0
100
AcDbLine
 10
0.0
 20
0.0
 30
0.0
 11
-0.5
 21
0.0
 31
0.0
  0
LINE
  5
307
330
302
100
AcDbEntity
  8
0
 62
     0
100
AcDbLine
 10
0.0
 20
0.0
 30
0.0
 11
0.0
 21
-0.5
 31
0.0
  0
LINE
  5
308
330
302
100
AcDbEntity
  8
0
 62
     0
100
AcDbLine
 10
0.0
 20
0.0
 30
0.0
 11
0.5
 21
0.0
 31
0.0
  0
LINE
  5
309
330
302
100
AcDbEntity
  8
0
 62
     0
100
AcDbLine
 10
0.0
 20
1.0
 30
0.0
 11
0.0
 21
1.35
 31
0.0
  0
LINE
  5
30A
330
302
100
AcDbEntity
  8
0
 62
     0
100
AcDbLine
 10
-1.0
 20
0.0
 30
0.0
 11
-1.35
 21
0.0
 31
0.0
  0
LINE
  5
30B
330
302
100
AcDbEntity
  8
0
 62
     0
100
AcDbLine
 10
0.0
 20
-1.0
 30
0.0
 11
0.0
 21
-1.35
 31
0.0
  0
LINE
  5
30C
330
302
100
AcDbEntity
  8
0
 62
     0
100
AcDbLine
 10
1.0
 20
0.0
 30
0.0
 11
1.35
 21
0.0
 31
0.0
  0
ENDBLK
  5
304
330
302
100
AcDbEntity
  8
0
100
AcDbBlockEnd
  0
BLOCK
  5
30F
330
30E
100
AcDbEntity
  8
0
100
AcDbBlockBegin
  2
SW_CENTERMARKSYMBOL_1
 70
     0
 10
0.0
 20
0.0
 30
0.0
  3
SW_CENTERMARKSYMBOL_1
  1

  0
LINE
  5
311
330
30E
100
AcDbEntity
  8
0
 62
     0
100
AcDbLine
 10
0.0
 20
0.0
 30
0.0
 11
0.0
 21
0.5
 31
0.0
  0
LINE
  5
312
330
30E
100
AcDbEntity
  8
0
 62
     0
100
AcDbLine
 10
0.0
 20
0.0
 30
0.0
 11
-0.5
 21
0.0
 31
0.0
  0
LINE
  5
313
330
30E
100
AcDbEntity
  8
0
 62
     0
100
AcDbLine
 10
0.0
 20
0.0
 30
0.0
 11
0.0
 21
-0.5
 31
0.0
  0
LINE
  5
314
330
30E
100
AcDbEntity
  8
0
 62
     0
100
AcDbLine
 10
0.0
 20
0.0
 30
0.0
 11
0.5
 21
0.0
 31
0.0
  0
LINE
  5
315
330
30E
100
AcDbEntity
  8
0
 62
     0
100
AcDbLine
 10
0.0
 20
1.0
 30
0.0
 11
0.0
 21
1.35
 31
0.0
  0
LINE
  5
316
330
30E
100
AcDbEntity
  8
0
 62
     0
100
AcDbLine
 10
-1.0
 20
0.0
 30
0.0
 11
-1.35
 21
0.0
 31
0.0
  0
LINE
  5
317
330
30E
100
AcDbEntity
  8
0
 62
     0
100
AcDbLine
 10
0.0
 20
-1.0
 30
0.0
 11
0.0
 21
-1.35
 31
0.0
  0
LINE
  5
318
330
30E
100
AcDbEntity
  8
0
 62
     0
100
AcDbLine
 10
1.0
 20
0.0
 30
0.0
 11
1.35
 21
0.0
 31
0.0
  0
ENDBLK
  5
310
330
30E
100
AcDbEntity
  8
0
100
AcDbBlockEnd
  0
BLOCK
  5
31B
330
31A
100
AcDbEntity
  8
0
100
AcDbBlockBegin
  2
SW_CENTERMARKSYMBOL_2
 70
     0
 10
0.0
 20
0.0
 30
0.0
  3
SW_CENTERMARKSYMBOL_2
  1

  0
LINE
  5
31D
330
31A
100
AcDbEntity
  8
0
 62
     0
100
AcDbLine
 10
0.0
 20
0.0
 30
0.0
 11
0.0
 21
0.5
 31
0.0
  0
LINE
  5
31E
330
31A
100
AcDbEntity
  8
0
 62
     0
100
AcDbLine
 10
0.0
 20
0.0
 30
0.0
 11
-0.5
 21
0.0
 31
0.0
  0
LINE
  5
31F
330
31A
100
AcDbEntity
  8
0
 62
     0
100
AcDbLine
 10
0.0
 20
0.0
 30
0.0
 11
0.0
 21
-0.5
 31
0.0
  0
LINE
  5
320
330
31A
100
AcDbEntity
  8
0
 62
     0
100
AcDbLine
 10
0.0
 20
0.0
 30
0.0
 11
0.5
 21
0.0
 31
0.0
  0
LINE
  5
321
330
31A
100
AcDbEntity
  8
0
 62
     0
100
AcDbLine
 10
0.0
 20
1.0
 30
0.0
 11
0.0
 21
1.15
 31
0.0
  0
LINE
  5
322
330
31A
100
AcDbEntity
  8
0
 62
     0
100
AcDbLine
 10
-1.0
 20
0.0
 30
0.0
 11
-1.15
 21
0.0
 31
0.0
  0
LINE
  5
323
330
31A
100
AcDbEntity
  8
0
 62
     0
100
AcDbLine
 10
0.0
 20
-1.0
 30
0.0
 11
0.0
 21
-1.15
 31
0.0
  0
LINE
  5
324
330
31A
100
AcDbEntity
  8
0
 62
     0
100
AcDbLine
 10
1.0
 20
0.0
 30
0.0
 11
1.15
 21
0.0
 31
0.0
  0
ENDBLK
  5
31C
330
31A
100
AcDbEntity
  8
0
100
AcDbBlockEnd
  0
BLOCK
  5
327
330
326
100
AcDbEntity
  8
0
100
AcDbBlockBegin
  2
SW_CENTERMARKSYMBOL_3
 70
     0
 10
0.0
 20
0.0
 30
0.0
  3
SW_CENTERMARKSYMBOL_3
  1

  0
LINE
  5
329
330
326
100
AcDbEntity
  8
0
 62
     0
100
AcDbLine
 10
0.0
 20
0.0
 30
0.0
 11
0.0
 21
0.5
 31
0.0
  0
LINE
  5
32A
330
326
100
AcDbEntity
  8
0
 62
     0
100
AcDbLine
 10
0.0
 20
0.0
 30
0.0
 11
-0.5
 21
0.0
 31
0.0
  0
LINE
  5
32B
330
326
100
AcDbEntity
  8
0
 62
     0
100
AcDbLine
 10
0.0
 20
0.0
 30
0.0
 11
0.0
 21
-0.5
 31
0.0
  0
LINE
  5
32C
330
326
100
AcDbEntity
  8
0
 62
     0
100
AcDbLine
 10
0.0
 20
0.0
 30
0.0
 11
0.5
 21
0.0
 31
0.0
  0
LINE
  5
32D
330
326
100
AcDbEntity
  8
0
 62
     0
100
AcDbLine
 10
0.0
 20
1.0
 30
0.0
 11
0.0
 21
1.15
 31
0.0
  0
LINE
  5
32E
330
326
100
AcDbEntity
  8
0
 62
     0
100
AcDbLine
 10
-1.0
 20
0.0
 30
0.0
 11
-1.15
 21
0.0
 31
0.0
  0
LINE
  5
32F
330
326
100
AcDbEntity
  8
0
 62
     0
100
AcDbLine
 10
0.0
 20
-1.0
 30
0.0
 11
0.0
 21
-1.15
 31
0.0
  0
LINE
  5
330
330
326
100
AcDbEntity
  8
0
 62
     0
100
AcDbLine
 10
1.0
 20
0.0
 30
0.0
 11
1.15
 21
0.0
 31
0.0
  0
ENDBLK
  5
328
330
326
100
AcDbEntity
  8
0
100
AcDbBlockEnd
  0
BLOCK
  5
333
330
332
100
AcDbEntity
  8
0
100
AcDbBlockBegin
  2
SW_CENTERMARKSYMBOL_4
 70
     0
 10
0.0
 20
0.0
 30
0.0
  3
SW_CENTERMARKSYMBOL_4
  1

  0
LINE
  5
335
330
332
100
AcDbEntity
  8
0
 62
     0
100
AcDbLine
 10
0.0
 20
0.0
 30
0.0
 11
0.0
 21
0.5
 31
0.0
  0
LINE
  5
336
330
332
100
AcDbEntity
  8
0
 62
     0
100
AcDbLine
 10
0.0
 20
0.0
 30
0.0
 11
-0.5
 21
0.0
 31
0.0
  0
LINE
  5
337
330
332
100
AcDbEntity
  8
0
 62
     0
100
AcDbLine
 10
0.0
 20
0.0
 30
0.0
 11
0.0
 21
-0.5
 31
0.0
  0
LINE
  5
338
330
332
100
AcDbEntity
  8
0
 62
     0
100
AcDbLine
 10
0.0
 20
0.0
 30
0.0
 11
0.5
 21
0.0
 31
0.0
  0
LINE
  5
339
330
332
100
AcDbEntity
  8
0
 62
     0
100
AcDbLine
 10
0.0
 20
1.0
 30
0.0
 11
0.0
 21
1.15
 31
0.0
  0
LINE
  5
33A
330
332
100
AcDbEntity
  8
0
 62
     0
100
AcDbLine
 10
-1.0
 20
0.0
 30
0.0
 11
-1.15
 21
0.0
 31
0.0
  0
LINE
  5
33B
330
332
100
AcDbEntity
  8
0
 62
     0
100
AcDbLine
 10
0.0
 20
-1.0
 30
0.0
 11
0.0
 21
-1.15
 31
0.0
  0
LINE
  5
33C
330
332
100
AcDbEntity
  8
0
 62
     0
100
AcDbLine
 10
1.0
 20
0.0
 30
0.0
 11
1.15
 21
0.0
 31
0.0
  0
ENDBLK
  5
334
330
332
100
AcDbEntity
  8
0
100
AcDbBlockEnd
  0
BLOCK
  5
33F
330
33E
100
AcDbEntity
  8
0
100
AcDbBlockBegin
  2
SW_CENTERMARKSYMBOL_5
 70
     0
 10
0.0
 20
0.0
 30
0.0
  3
SW_CENTERMARKSYMBOL_5
  1

  0
LINE
  5
341
330
33E
100
AcDbEntity
  8
0
 62
     0
100
AcDbLine
 10
0.0
 20
0.0
 30
0.0
 11
0.0
 21
0.5
 31
0.0
  0
LINE
  5
342
330
33E
100
AcDbEntity
  8
0
 62
     0
100
AcDbLine
 10
0.0
 20
0.0
 30
0.0
 11
-0.5
 21
0.0
 31
0.0
  0
LINE
  5
343
330
33E
100
AcDbEntity
  8
0
 62
     0
100
AcDbLine
 10
0.0
 20
0.0
 30
0.0
 11
0.0
 21
-0.5
 31
0.0
  0
LINE
  5
344
330
33E
100
AcDbEntity
  8
0
 62
     0
100
AcDbLine
 10
0.0
 20
0.0
 30
0.0
 11
0.5
 21
0.0
 31
0.0
  0
LINE
  5
345
330
33E
100
AcDbEntity
  8
0
 62
     0
100
AcDbLine
 10
0.0
 20
1.0
 30
0.0
 11
0.0
 21
1.15
 31
0.0
  0
LINE
  5
346
330
33E
100
AcDbEntity
  8
0
 62
     0
100
AcDbLine
 10
-1.0
 20
0.0
 30
0.0
 11
-1.15
 21
0.0
 31
0.0
  0
LINE
  5
347
330
33E
100
AcDbEntity
  8
0
 62
     0
100
AcDbLine
 10
0.0
 20
-1.0
 30
0.0
 11
0.0
 21
-1.15
 31
0.0
  0
LINE
  5
348
330
33E
100
AcDbEntity
  8
0
 62
     0
100
AcDbLine
 10
1.0
 20
0.0
 30
0.0
 11
1.15
 21
0.0
 31
0.0
  0
ENDBLK
  5
340
330
33E
100
AcDbEntity
  8
0
100
AcDbBlockEnd
  0
BLOCK
  5
34B
330
34A
100
AcDbEntity
  8
0
100
AcDbBlockBegin
  2
SW_CENTERMARKSYMBOL_6
 70
     0
 10
0.0
 20
0.0
 30
0.0
  3
SW_CENTERMARKSYMBOL_6
  1

  0
LINE
  5
34D
330
34A
100
AcDbEntity
  8
0
 62
     0
100
AcDbLine
 10
0.0
 20
0.0
 30
0.0
 11
0.0
 21
0.5
 31
0.0
  0
LINE
  5
34E
330
34A
100
AcDbEntity
  8
0
 62
     0
100
AcDbLine
 10
0.0
 20
0.0
 30
0.0
 11
-0.5
 21
0.0
 31
0.0
  0
LINE
  5
34F
330
34A
100
AcDbEntity
  8
0
 62
     0
100
AcDbLine
 10
0.0
 20
0.0
 30
0.0
 11
0.0
 21
-0.5
 31
0.0
  0
LINE
  5
350
330
34A
100
AcDbEntity
  8
0
 62
     0
100
AcDbLine
 10
0.0
 20
0.0
 30
0.0
 11
0.5
 21
0.0
 31
0.0
  0
LINE
  5
351
330
34A
100
AcDbEntity
  8
0
 62
     0
100
AcDbLine
 10
0.0
 20
1.0
 30
0.0
 11
0.0
 21
1.15
 31
0.0
  0
LINE
  5
352
330
34A
100
AcDbEntity
  8
0
 62
     0
100
AcDbLine
 10
-1.0
 20
0.0
 30
0.0
 11
-1.15
 21
0.0
 31
0.0
  0
LINE
  5
353
330
34A
100
AcDbEntity
  8
0
 62
     0
100
AcDbLine
 10
0.0
 20
-1.0
 30
0.0
 11
0.0
 21
-1.15
 31
0.0
  0
LINE
  5
354
330
34A
100
AcDbEntity
  8
0
 62
     0
100
AcDbLine
 10
1.0
 20
0.0
 30
0.0
 11
1.15
 21
0.0
 31
0.0
  0
ENDBLK
  5
34C
330
34A
100
AcDbEntity
  8
0
100
AcDbBlockEnd
  0
BLOCK
  5
357
330
356
100
AcDbEntity
  8
0
100
AcDbBlockBegin
  2
SW_CENTERMARKSYMBOL_7
 70
     0
 10
0.0
 20
0.0
 30
0.0
  3
SW_CENTERMARKSYMBOL_7
  1

  0
LINE
  5
359
330
356
100
AcDbEntity
  8
0
 62
     0
100
AcDbLine
 10
0.0
 20
0.0
 30
0.0
 11
0.0
 21
0.5
 31
0.0
  0
LINE
  5
35A
330
356
100
AcDbEntity
  8
0
 62
     0
100
AcDbLine
 10
0.0
 20
0.0
 30
0.0
 11
-0.5
 21
0.0
 31
0.0
  0
LINE
  5
35B
330
356
100
AcDbEntity
  8
0
 62
     0
100
AcDbLine
 10
0.0
 20
0.0
 30
0.0
 11
0.0
 21
-0.5
 31
0.0
  0
LINE
  5
35C
330
356
100
AcDbEntity
  8
0
 62
     0
100
AcDbLine
 10
0.0
 20
0.0
 30
0.0
 11
0.5
 21
0.0
 31
0.0
  0
LINE
  5
35D
330
356
100
AcDbEntity
  8
0
 62
     0
100
AcDbLine
 10
0.0
 20
1.0
 30
0.0
 11
0.0
 21
1.15
 31
0.0
  0
LINE
  5
35E
330
356
100
AcDbEntity
  8
0
 62
     0
100
AcDbLine
 10
-1.0
 20
0.0
 30
0.0
 11
-1.15
 21
0.0
 31
0.0
  0
LINE
  5
35F
330
356
100
AcDbEntity
  8
0
 62
     0
100
AcDbLine
 10
0.0
 20
-1.0
 30
0.0
 11
0.0
 21
-1.15
 31
0.0
  0
LINE
  5
360
330
356
100
AcDbEntity
  8
0
 62
     0
100
AcDbLine
 10
1.0
 20
0.0
 30
0.0
 11
1.15
 21
0.0
 31
0.0
  0
ENDBLK
  5
358
330
356
100
AcDbEntity
  8
0
100
AcDbBlockEnd
  0
BLOCK
  5
363
330
362
100
AcDbEntity
  8
0
100
AcDbBlockBegin
  2
SW_CENTERMARKSYMBOL_8
 70
     0
 10
0.0
 20
0.0
 30
0.0
  3
SW_CENTERMARKSYMBOL_8
  1

  0
LINE
  5
365
330
362
100
AcDbEntity
  8
0
 62
     0
100
AcDbLine
 10
0.0
 20
0.0
 30
0.0
 11
0.0
 21
0.5
 31
0.0
  0
LINE
  5
366
330
362
100
AcDbEntity
  8
0
 62
     0
100
AcDbLine
 10
0.0
 20
0.0
 30
0.0
 11
-0.5
 21
0.0
 31
0.0
  0
LINE
  5
367
330
362
100
AcDbEntity
  8
0
 62
     0
100
AcDbLine
 10
0.0
 20
0.0
 30
0.0
 11
0.0
 21
-0.5
 31
0.0
  0
LINE
  5
368
330
362
100
AcDbEntity
  8
0
 62
     0
100
AcDbLine
 10
0.0
 20
0.0
 30
0.0
 11
0.5
 21
0.0
 31
0.0
  0
LINE
  5
369
330
362
100
AcDbEntity
  8
0
 62
     0
100
AcDbLine
 10
0.0
 20
1.0
 30
0.0
 11
0.0
 21
1.15
 31
0.0
  0
LINE
  5
36A
330
362
100
AcDbEntity
  8
0
 62
     0
100
AcDbLine
 10
-1.0
 20
0.0
 30
0.0
 11
-1.15
 21
0.0
 31
0.0
  0
LINE
  5
36B
330
362
100
AcDbEntity
  8
0
 62
     0
100
AcDbLine
 10
0.0
 20
-1.0
 30
0.0
 11
0.0
 21
-1.15
 31
0.0
  0
LINE
  5
36C
330
362
100
AcDbEntity
  8
0
 62
     0
100
AcDbLine
 10
1.0
 20
0.0
 30
0.0
 11
1.15
 21
0.0
 31
0.0
  0
ENDBLK
  5
364
330
362
100
AcDbEntity
  8
0
100
AcDbBlockEnd
  0
BLOCK
  5
36F
330
36E
100
AcDbEntity
  8
0
100
AcDbBlockBegin
  2
SW_CENTERMARKSYMBOL_9
 70
     0
 10
0.0
 20
0.0
 30
0.0
  3
SW_CENTERMARKSYMBOL_9
  1

  0
LINE
  5
371
330
36E
100
AcDbEntity
  8
0
 62
     0
100
AcDbLine
 10
0.0
 20
0.0
 30
0.0
 11
0.0
 21
0.5
 31
0.0
  0
LINE
  5
372
330
36E
100
AcDbEntity
  8
0
 62
     0
100
AcDbLine
 10
0.0
 20
0.0
 30
0.0
 11
-0.5
 21
0.0
 31
0.0
  0
LINE
  5
373
330
36E
100
AcDbEntity
  8
0
 62
     0
100
AcDbLine
 10
0.0
 20
0.0
 30
0.0
 11
0.0
 21
-0.5
 31
0.0
  0
LINE
  5
374
330
36E
100
AcDbEntity
  8
0
 62
     0
100
AcDbLine
 10
0.0
 20
0.0
 30
0.0
 11
0.5
 21
0.0
 31
0.0
  0
LINE
  5
375
330
36E
100
AcDbEntity
  8
0
 62
     0
100
AcDbLine
 10
0.0
 20
1.0
 30
0.0
 11
0.0
 21
1.15
 31
0.0
  0
LINE
  5
376
330
36E
100
AcDbEntity
  8
0
 62
     0
100
AcDbLine
 10
-1.0
 20
0.0
 30
0.0
 11
-1.15
 21
0.0
 31
0.0
  0
LINE
  5
377
330
36E
100
AcDbEntity
  8
0
 62
     0
100
AcDbLine
 10
0.0
 20
-1.0
 30
0.0
 11
0.0
 21
-1.15
 31
0.0
  0
LINE
  5
378
330
36E
100
AcDbEntity
  8
0
 62
     0
100
AcDbLine
 10
1.0
 20
0.0
 30
0.0
 11
1.15
 21
0.0
 31
0.0
  0
ENDBLK
  5
370
330
36E
100
AcDbEntity
  8
0
100
AcDbBlockEnd
  0
BLOCK
  5
37B
330
37A
100
AcDbEntity
  8
0
100
AcDbBlockBegin
  2
SW_CENTERMARKSYMBOL_10
 70
     0
 10
0.0
 20
0.0
 30
0.0
  3
SW_CENTERMARKSYMBOL_10
  1

  0
LINE
  5
37D
330
37A
100
AcDbEntity
  8
0
 62
     0
100
AcDbLine
 10
0.0
 20
0.0
 30
0.0
 11
0.0
 21
0.5
 31
0.0
  0
LINE
  5
37E
330
37A
100
AcDbEntity
  8
0
 62
     0
100
AcDbLine
 10
0.0
 20
0.0
 30
0.0
 11
-0.5
 21
0.0
 31
0.0
  0
LINE
  5
37F
330
37A
100
AcDbEntity
  8
0
 62
     0
100
AcDbLine
 10
0.0
 20
0.0
 30
0.0
 11
0.0
 21
-0.5
 31
0.0
  0
LINE
  5
380
330
37A
100
AcDbEntity
  8
0
 62
     0
100
AcDbLine
 10
0.0
 20
0.0
 30
0.0
 11
0.5
 21
0.0
 31
0.0
  0
LINE
  5
381
330
37A
100
AcDbEntity
  8
0
 62
     0
100
AcDbLine
 10
0.0
 20
1.0
 30
0.0
 11
0.0
 21
1.15
 31
0.0
  0
LINE
  5
382
330
37A
100
AcDbEntity
  8
0
 62
     0
100
AcDbLine
 10
-1.0
 20
0.0
 30
0.0
 11
-1.15
 21
0.0
 31
0.0
  0
LINE
  5
383
330
37A
100
AcDbEntity
  8
0
 62
     0
100
AcDbLine
 10
0.0
 20
-1.0
 30
0.0
 11
0.0
 21
-1.15
 31
0.0
  0
LINE
  5
384
330
37A
100
AcDbEntity
  8
0
 62
     0
100
AcDbLine
 10
1.0
 20
0.0
 30
0.0
 11
1.15
 21
0.0
 31
0.0
  0
ENDBLK
  5
37C
330
37A
100
AcDbEntity
  8
0
100
AcDbBlockEnd
  0
BLOCK
  5
387
330
386
100
AcDbEntity
  8
0
100
AcDbBlockBegin
  2
SW_CENTERMARKSYMBOL_11
 70
     0
 10
0.0
 20
0.0
 30
0.0
  3
SW_CENTERMARKSYMBOL_11
  1

  0
LINE
  5
389
330
386
100
AcDbEntity
  8
0
 62
     0
100
AcDbLine
 10
0.0
 20
0.0
 30
0.0
 11
0.0
 21
0.5
 31
0.0
  0
LINE
  5
38A
330
386
100
AcDbEntity
  8
0
 62
     0
100
AcDbLine
 10
0.0
 20
0.0
 30
0.0
 11
-0.5
 21
0.0
 31
0.0
  0
LINE
  5
38B
330
386
100
AcDbEntity
  8
0
 62
     0
100
AcDbLine
 10
0.0
 20
0.0
 30
0.0
 11
0.0
 21
-0.5
 31
0.0
  0
LINE
  5
38C
330
386
100
AcDbEntity
  8
0
 62
     0
100
AcDbLine
 10
0.0
 20
0.0
 30
0.0
 11
0.5
 21
0.0
 31
0.0
  0
LINE
  5
38D
330
386
100
AcDbEntity
  8
0
 62
     0
100
AcDbLine
 10
0.0
 20
1.0
 30
0.0
 11
0.0
 21
1.15
 31
0.0
  0
LINE
  5
38E
330
386
100
AcDbEntity
  8
0
 62
     0
100
AcDbLine
 10
-1.0
 20
0.0
 30
0.0
 11
-1.15
 21
0.0
 31
0.0
  0
LINE
  5
38F
330
386
100
AcDbEntity
  8
0
 62
     0
100
AcDbLine
 10
0.0
 20
-1.0
 30
0.0
 11
0.0
 21
-1.15
 31
0.0
  0
LINE
  5
390
330
386
100
AcDbEntity
  8
0
 62
     0
100
AcDbLine
 10
1.0
 20
0.0
 30
0.0
 11
1.15
 21
0.0
 31
0.0
  0
ENDBLK
  5
388
330
386
100
AcDbEntity
  8
0
100
AcDbBlockEnd
  0
BLOCK
  5
393
330
392
100
AcDbEntity
  8
0
100
AcDbBlockBegin
  2
SW_CENTERMARKSYMBOL_12
 70
     0
 10
0.0
 20
0.0
 30
0.0
  3
SW_CENTERMARKSYMBOL_12
  1

  0
LINE
  5
395
330
392
100
AcDbEntity
  8
0
 62
     0
100
AcDbLine
 10
0.0
 20
0.0
 30
0.0
 11
0.0
 21
0.5
 31
0.0
  0
LINE
  5
396
330
392
100
AcDbEntity
  8
0
 62
     0
100
AcDbLine
 10
0.0
 20
0.0
 30
0.0
 11
-0.5
 21
0.0
 31
0.0
  0
LINE
  5
397
330
392
100
AcDbEntity
  8
0
 62
     0
100
AcDbLine
 10
0.0
 20
0.0
 30
0.0
 11
0.0
 21
-0.5
 31
0.0
  0
LINE
  5
398
330
392
100
AcDbEntity
  8
0
 62
     0
100
AcDbLine
 10
0.0
 20
0.0
 30
0.0
 11
0.5
 21
0.0
 31
0.0
  0
LINE
  5
399
330
392
100
AcDbEntity
  8
0
 62
     0
100
AcDbLine
 10
0.0
 20
1.0
 30
0.0
 11
0.0
 21
1.15
 31
0.0
  0
LINE
  5
39A
330
392
100
AcDbEntity
  8
0
 62
     0
100
AcDbLine
 10
-1.0
 20
0.0
 30
0.0
 11
-1.15
 21
0.0
 31
0.0
  0
LINE
  5
39B
330
392
100
AcDbEntity
  8
0
 62
     0
100
AcDbLine
 10
0.0
 20
-1.0
 30
0.0
 11
0.0
 21
-1.15
 31
0.0
  0
LINE
  5
39C
330
392
100
AcDbEntity
  8
0
 62
     0
100
AcDbLine
 10
1.0
 20
0.0
 30
0.0
 11
1.15
 21
0.0
 31
0.0
  0
ENDBLK
  5
394
330
392
100
AcDbEntity
  8
0
100
AcDbBlockEnd
  0
BLOCK
  5
39F
330
39E
100
AcDbEntity
  8
0
100
AcDbBlockBegin
  2
SW_CENTERMARKSYMBOL_13
 70
     0
 10
0.0
 20
0.0
 30
0.0
  3
SW_CENTERMARKSYMBOL_13
  1

  0
LINE
  5
3A1
330
39E
100
AcDbEntity
  8
0
 62
     0
100
AcDbLine
 10
0.0
 20
0.0
 30
0.0
 11
0.0
 21
0.5
 31
0.0
  0
LINE
  5
3A2
330
39E
100
AcDbEntity
  8
0
 62
     0
100
AcDbLine
 10
0.0
 20
0.0
 30
0.0
 11
-0.5
 21
0.0
 31
0.0
  0
LINE
  5
3A3
330
39E
100
AcDbEntity
  8
0
 62
     0
100
AcDbLine
 10
0.0
 20
0.0
 30
0.0
 11
0.0
 21
-0.5
 31
0.0
  0
LINE
  5
3A4
330
39E
100
AcDbEntity
  8
0
 62
     0
100
AcDbLine
 10
0.0
 20
0.0
 30
0.0
 11
0.5
 21
0.0
 31
0.0
  0
LINE
  5
3A5
330
39E
100
AcDbEntity
  8
0
 62
     0
100
AcDbLine
 10
0.0
 20
1.0
 30
0.0
 11
0.0
 21
1.15
 31
0.0
  0
LINE
  5
3A6
330
39E
100
AcDbEntity
  8
0
 62
     0
100
AcDbLine
 10
-1.0
 20
0.0
 30
0.0
 11
-1.15
 21
0.0
 31
0.0
  0
LINE
  5
3A7
330
39E
100
AcDbEntity
  8
0
 62
     0
100
AcDbLine
 10
0.0
 20
-1.0
 30
0.0
 11
0.0
 21
-1.15
 31
0.0
  0
LINE
  5
3A8
330
39E
100
AcDbEntity
  8
0
 62
     0
100
AcDbLine
 10
1.0
 20
0.0
 30
0.0
 11
1.15
 21
0.0
 31
0.0
  0
ENDBLK
  5
3A0
330
39E
100
AcDbEntity
  8
0
100
AcDbBlockEnd
  0
ENDSEC
  0
SECTION
  2
ENTITIES
  0
LINE
  5
1DD
330
1F
100
AcDbEntity
  8
0
100
AcDbLine
 10
127.4819306314
 20
27.1626886523
 30
0.0
 11
127.4819306314
 21
7.1626886523
 31
0.0
  0
LINE
  5
1DE
330
1F
100
AcDbEntity
  8
0
100
AcDbLine
 10
127.4819306314
 20
7.1626886523
 30
0.0
 11
231.2890403829
 21
7.1626886523
 31
0.0
  0
LINE
  5
1DF
330
1F
100
AcDbEntity
  8
0
100
AcDbLine
 10
231.2890403829
 20
7.1626886523
 30
0.0
 11
231.2890403829
 21
27.1626886523
 31
0.0
  0
LINE
  5
1E0
330
1F
100
AcDbEntity
  8
0
100
AcDbLine
 10
231.2890403829
 20
27.1626886523
 30
0.0
 11
127.4819306314
 21
27.1626886523
 31
0.0
  0
LINE
  5
1E1
330
1F
100
AcDbEntity
  8
0
100
AcDbLine
 10
231.2890403829
 20
17.1626886523
 30
0.0
 11
127.4819306314
 21
17.1626886523
 31
0.0
  0
LINE
  5
1E2
330
1F
100
AcDbEntity
  8
0
100
AcDbLine
 10
188.5336333335
 20
27.1626886523
 30
0.0
 11
188.5336333335
 21
7.1626886523
 31
0.0
  0
INSERT
  5
1E3
330
1F
100
AcDbEntity
  8
0
100
AcDbBlockReference
  2
Block5
 10
19.561342692
 20
-6.9223244521
 30
0.0
  0
MTEXT
  5
1E4
330
1F
100
AcDbEntity
  8
0
  6
Continuous
 62
     7
370
     0
100
AcDbMText
 10
402.5
 20
14.7189135832
 30
0.0
 40
6.35
 41
0.0
 71
     1
 72
     1
  1
1:5
  7
SLDTEXTSTYLE1
 73
     1
 44
1.0
  0
MTEXT
  5
1E5
330
1F
100
AcDbEntity
  8
0
  6
Continuous
 62
     7
370
     0
100
AcDbMText
 10
190.3749692016
 20
25.1056679674
 30
0.0
 40
4.2333333333
 41
0.0
 71
     1
 72
     1
  1
T124
  7
SLDTEXTSTYLE1
 73
     1
 44
1.0
  0
INSERT
  5
1ED
330
1F
100
AcDbEntity
  8
0
  6
Continuous
 62
     7
370
     0
100
AcDbBlockReference
  2
SW_NOTE_0_10
 10
35.4202146835
 20
20.1681939512
 30
0.0
  0
MTEXT
  5
1EE
330
1F
100
AcDbEntity
  8
0
100
AcDbMText
 10
131.6112989967
 20
25.1056677346
 30
0.0
 40
4.2333333333
 41
0.0
 71
     1
 72
     1
  1
Artikelnummer
  7
SLDTEXTSTYLE1
 73
     1
 44
1.0
  0
MTEXT
  5
1EF
330
1F
100
AcDbEntity
  8
0
100
AcDbMText
 10
131.6112989967
 20
15.1068467326
 30
0.0
 40
4.2333333333
 41
0.0
 71
     1
 72
     1
  1
Index
  7
SLDTEXTSTYLE1
 73
     1
 44
1.0
  0
MTEXT
  5
1F0
330
1F
100
AcDbEntity
  8
0
100
AcDbMText
 10
191.3424447454
 20
14.5571014523
 30
0.0
 40
4.2333333333
 41
0.0
 71
     1
 72
     1
  1
-
  7
SLDTEXTSTYLE1
 73
     1
 44
1.0
  0
ARC
  5
1F1
330
1F
100
AcDbEntity
  8
0
  6
Continuous
 62
     7
370
    25
100
AcDbCircle
 10
74.8399358727
 20
210.4094792811
 30
0.0
 40
0.6000000000000085
100
AcDbArc
 50
0.0
 51
90.0
  0
ARC
  5
1F2
330
1F
100
AcDbEntity
  8
0
  6
Continuous
 62
     7
370
    25
100
AcDbCircle
 10
144.4949474233
 20
210.4094792811
 30
0.0
 40
0.5999999999999943
100
AcDbArc
 50
90.0
 51
180.0
  0
ARC
  5
1F3
330
1F
100
AcDbEntity
  8
0
  6
Continuous
 62
     7
370
    25
100
AcDbCircle
 10
89.367441648
 20
210.4094792811
 30
0.0
 40
0.6000000000000085
100
AcDbArc
 50
0.0
 51
90.0
  0
ARC
  5
1F4
330
1F
100
AcDbEntity
  8
0
  6
Continuous
 62
     7
370
    25
100
AcDbCircle
 10
129.967441648
 20
210.4094792811
 30
0.0
 40
0.5999999999999943
100
AcDbArc
 50
90.0
 51
180.0
  0
ARC
  5
1F5
330
1F
100
AcDbEntity
  8
0
  6
Continuous
 62
     7
370
    25
100
AcDbCircle
 10
76.0399358727
 20
210.4094792811
 30
0.0
 40
0.6000000000000227
100
AcDbArc
 50
180.0
 51
270.0
  0
ARC
  5
1F6
330
1F
100
AcDbEntity
  8
0
  6
Continuous
 62
     7
370
    25
100
AcDbCircle
 10
143.2949474233
 20
210.4094792811
 30
0.0
 40
0.6000000000000227
100
AcDbArc
 50
270.0
 51
0.0
  0
ARC
  5
1F7
330
1F
100
AcDbEntity
  8
0
  6
Continuous
 62
     7
370
    25
100
AcDbCircle
 10
128.767441648
 20
210.4094792811
 30
0.0
 40
0.6000000000000227
100
AcDbArc
 50
270.0
 51
0.0
  0
ARC
  5
1F8
330
1F
100
AcDbEntity
  8
0
  6
Continuous
 62
     7
370
    25
100
AcDbCircle
 10
90.567441648
 20
210.4094792811
 30
0.0
 40
0.6000000000000227
100
AcDbArc
 50
180.0
 51
270.0
  0
LINE
  5
1F9
330
1F
100
AcDbEntity
  8
0
  6
Continuous
 62
     7
370
    25
100
AcDbLine
 10
70.6674430785
 20
212.2094793019
 30
0.0
 11
70.6674430785
 21
211.0094792915
 31
0.0
  0
LINE
  5
1FA
330
1F
100
AcDbEntity
  8
0
  6
Continuous
 62
     7
370
    25
100
AcDbLine
 10
70.6674430785
 20
211.0094792915
 30
0.0
 11
69.667441052
 21
211.0094792915
 31
0.0
  0
LINE
  5
1FB
330
1F
100
AcDbEntity
  8
0
  6
Continuous
 62
     7
370
    25
100
AcDbLine
 10
69.667441052
 20
211.0094792915
 30
0.0
 11
69.667441052
 21
212.2094793019
 31
0.0
  0
LINE
  5
1FC
330
1F
100
AcDbEntity
  8
0
  6
Continuous
 62
     7
370
    25
100
AcDbLine
 10
69.667441052
 20
212.2094793019
 30
0.0
 11
70.6674430785
 21
212.2094793019
 31
0.0
  0
LINE
  5
1FD
330
1F
100
AcDbEntity
  8
0
  6
Continuous
 62
     7
370
    25
100
AcDbLine
 10
70.6674430785
 20
212.2094793019
 30
0.0
 11
148.6674402175
 21
212.2094793019
 31
0.0
  0
LINE
  5
1FE
330
1F
100
AcDbEntity
  8
0
  6
Continuous
 62
     7
370
    25
100
AcDbLine
 10
148.6674402175
 20
211.0094792915
 30
0.0
 11
148.6674402175
 21
212.2094793019
 31
0.0
  0
LINE
  5
1FF
330
1F
100
AcDbEntity
  8
0
  6
Continuous
 62
     7
370
    25
100
AcDbLine
 10
148.6674402175
 20
211.0094792915
 30
0.0
 11
70.6674430785
 21
211.0094792915
 31
0.0
  0
LINE
  5
200
330
1F
100
AcDbEntity
  8
0
  6
Continuous
 62
     7
370
    25
100
AcDbLine
 10
149.6674422441
 20
212.2094793019
 30
0.0
 11
149.6674422441
 21
211.0094792915
 31
0.0
  0
LINE
  5
201
330
1F
100
AcDbEntity
  8
0
  6
Continuous
 62
     7
370
    25
100
AcDbLine
 10
148.6674402175
 20
212.2094793019
 30
0.0
 11
149.6674422441
 21
212.2094793019
 31
0.0
  0
LINE
  5
202
330
1F
100
AcDbEntity
  8
0
  6
Continuous
 62
     7
370
    25
100
AcDbLine
 10
149.6674422441
 20
211.0094792915
 30
0.0
 11
148.6674402175
 21
211.0094792915
 31
0.0
  0
SPLINE
  5
203
330
1F
100
AcDbEntity
  8
0
  6
Continuous
 62
     7
370
    25
100
AcDbSpline
210
0.0
220
0.0
230
1.0
 70
     8
 71
     3
 72
    22
 73
    18
 74
     0
 42
0.000000001
 43
0.00000001
 40
0.0
 40
0.0
 40
0.0
 40
0.0
 40
0.125
 40
0.125
 40
0.25
 40
0.25
 40
0.375
 40
0.375
 40
0.5
 40
0.5
 40
0.625
 40
0.625
 40
0.75
 40
0.75
 40
0.875
 40
0.875
 40
1.0
 40
1.0
 40
1.0
 40
1.0
 10
78.33963638731794
 20
210.4094792810626
 30
0.0
 10
78.33963638731792
 20
210.4491033564671
 30
0.0
 10
78.34237127586796
 20
210.4880655278729
 30
0.0
 10
78.3530869907148
 20
210.5647202102283
 30
0.0
 10
78.3611976099096
 20
210.6028092330976
 30
0.0
 10
78.38237355731856
 20
210.6754492041942
 30
0.0
 10
78.39533193773326
 20
210.7099021585491
 30
0.0
 10
78.42594611668086
 20
210.7751078486031
 30
0.0
 10
78.44376575121143
 20
210.8059836132243
 30
0.0
 10
78.48269148992622
 20
210.8613301573524
 30
0.0
 10
78.50393031831213
 20
210.8861673032521
 30
0.0
 10
78.55004351116017
 20
210.9300351603331
 30
0.0
 10
78.57460238591264
 20
210.9486842479307
 30
0.0
 10
78.62536712558968
 20
210.9786282273949
 30
0.0
 10
78.65189613975
 20
210.9901434692052
 30
0.0
 10
78.70647902383377
 20
211.005622972903
 30
0.0
 10
78.73427843753032
 20
211.0094792810625
 30
0.0
 10
78.76177008867703
 20
211.0094792810626
 30
0.0
  0
ARC
  5
204
330
1F
100
AcDbEntity
  8
0
  6
Continuous
 62
     7
370
    25
100
AcDbCircle
 10
140.5135775581
 20
210.4903680555
 30
0.0
 40
0.5326132630302932
100
AcDbArc
 50
351.2646023174
 51
77.0713586088
  0
LINE
  5
205
330
1F
100
AcDbEntity
  8
0
  6
Continuous
 62
     7
370
    25
100
AcDbLine
 10
91.6674409328
 20
211.0094792915
 30
0.0
 11
91.6674409328
 21
210.4094792863
 31
0.0
  0
LINE
  5
206
330
1F
100
AcDbEntity
  8
0
  6
Continuous
 62
     7
370
    25
100
AcDbLine
 10
91.6674409328
 20
210.4094792863
 30
0.0
 11
127.6674423633
 21
210.4094792863
 31
0.0
  0
LINE
  5
207
330
1F
100
AcDbEntity
  8
0
  6
Continuous
 62
     7
370
    25
100
AcDbLine
 10
127.6674423633
 20
211.0094792915
 30
0.0
 11
127.6674423633
 21
210.4094792863
 31
0.0
  0
SPLINE
  5
208
330
1F
100
AcDbEntity
  8
0
  6
Continuous
 62
     7
370
    25
100
AcDbSpline
210
0.0
220
0.0
230
1.0
 70
     8
 71
     3
 72
    22
 73
    18
 74
     0
 42
0.000000001
 43
0.00000001
 40
0.0
 40
0.0
 40
0.0
 40
0.0
 40
0.125
 40
0.125
 40
0.25
 40
0.25
 40
0.375
 40
0.375
 40
0.5
 40
0.5
 40
0.625
 40
0.625
 40
0.75
 40
0.75
 40
0.875
 40
0.875
 40
1.0
 40
1.0
 40
1.0
 40
1.0
 10
78.33963638731794
 20
210.4094792810626
 30
0.0
 10
78.33963638731794
 20
210.3698570519651
 30
0.0
 10
78.3369017695979
 20
210.3308966656869
 30
0.0
 10
78.32618689831352
 20
210.2542454353977
 30
0.0
 10
78.31807688149992
 20
210.216158141518
 30
0.0
 10
78.29690164002191
 20
210.1435208541582
 30
0.0
 10
78.28394340986877
 20
210.1090690814263
 30
0.0
 10
78.25332823264247
 20
210.0438653894577
 30
0.0
 10
78.23550730620357
 20
210.0129902108021
 30
0.0
 10
78.19657638325731
 20
209.9576441208812
 30
0.0
 10
78.17533375114752
 20
209.9328069600214
 30
0.0
 10
78.1292093212875
 20
209.8889384277365
 30
0.0
 10
78.10464244409631
 20
209.8702881944238
 30
0.0
 10
78.05385777928984
 20
209.8403416724928
 30
0.0
 10
78.02731399344536
 20
209.828824150238
 30
0.0
 10
77.9727075320018
 20
209.8133421422039
 30
0.0
 10
77.944850051487
 20
209.8094792810626
 30
0.0
 10
77.91734272304477
 20
209.8094792810626
 30
0.0
  0
LINE
  5
209
330
1F
100
AcDbEntity
  8
0
  6
Continuous
 62
     7
370
    25
100
AcDbLine
 10
77.9173437772
 20
209.8094792811
 30
0.0
 11
76.0399345575
 21
209.8094792811
 31
0.0
  0
LINE
  5
20A
330
1F
100
AcDbEntity
  8
0
  6
Continuous
 62
     7
370
    25
100
AcDbLine
 10
143.2949487386
 20
209.8094792811
 30
0.0
 11
141.4472852168
 21
209.8094792811
 31
0.0
  0
ARC
  5
20B
330
1F
100
AcDbEntity
  8
0
  6
Continuous
 62
     7
370
    25
100
AcDbCircle
 10
141.5664507627
 20
210.3285931736
 30
0.0
 40
0.5326158659898682
100
AcDbArc
 50
171.2649344729
 51
257.0714161043
  0
LINE
  5
20C
330
1F
100
AcDbEntity
  8
0
  6
Continuous
 62
     7
370
    25
100
AcDbLine
 10
128.7674416123
 20
209.8094792811
 30
0.0
 11
127.6674423633
 21
209.8094792811
 31
0.0
  0
LINE
  5
20D
330
1F
100
AcDbEntity
  8
0
  6
Continuous
 62
     7
370
    25
100
AcDbLine
 10
127.6674423633
 20
209.8094792811
 30
0.0
 11
127.6674423633
 21
210.4094792863
 31
0.0
  0
LINE
  5
20E
330
1F
100
AcDbEntity
  8
0
  6
Continuous
 62
     7
370
    25
100
AcDbLine
 10
91.6674409328
 20
209.8094792811
 30
0.0
 11
91.6674409328
 21
210.4094792863
 31
0.0
  0
LINE
  5
20F
330
1F
100
AcDbEntity
  8
0
  6
Continuous
 62
     7
370
    25
100
AcDbLine
 10
91.6674409328
 20
209.8094792811
 30
0.0
 11
90.5674416838
 21
209.8094792811
 31
0.0
  0
LINE
  5
210
330
1F
100
AcDbEntity
  8
0
  6
Continuous
 62
     7
370
    25
100
AcDbLine
 10
127.6674423633
 20
209.8094792811
 30
0.0
 11
91.6674409328
 21
209.8094792811
 31
0.0
  0
LINE
  5
211
330
1F
100
AcDbEntity
  8
0
  6
Continuous
 62
     7
370
    25
100
AcDbLine
 10
141.0201076684
 20
210.4094792863
 30
0.0
 11
141.0400126395
 21
210.4094792863
 31
0.0
  0
ARC
  5
212
330
1F
100
AcDbEntity
  8
0
  6
Continuous
 62
     7
370
    25
100
AcDbCircle
 10
140.4890376178
 20
210.4834439859
 30
0.0
 40
0.5361960233809621
100
AcDbArc
 50
352.0711432154
 51
78.8281206722
  0
ARC
  5
213
330
1F
100
AcDbEntity
  8
0
  6
Continuous
 62
     7
370
    25
100
AcDbCircle
 10
141.5511708841
 20
210.3355092044
 30
0.0
 40
0.5361899962770675
100
AcDbArc
 50
172.0704728334
 51
258.8284133354
  0
LINE
  5
214
330
1F
100
AcDbEntity
  8
0
  6
Continuous
 62
     7
370
    25
100
AcDbLine
 10
90.5674416838
 20
209.8094792811
 30
0.0
 11
77.9173437772
 21
209.8094792811
 31
0.0
  0
LINE
  5
215
330
1F
100
AcDbEntity
  8
0
  6
Continuous
 62
     7
370
    25
100
AcDbLine
 10
141.4472852168
 20
209.8094792811
 30
0.0
 11
128.7674416123
 21
209.8094792811
 31
0.0
  0
LINE
  5
216
330
1F
100
AcDbEntity
  8
0
  6
Continuous
 62
     8
370
    25
100
AcDbLine
 10
75.4399363218
 20
210.4094792863
 30
0.0
 11
78.339636725
 21
210.4094792863
 31
0.0
  0
LINE
  5
217
330
1F
100
AcDbEntity
  8
0
  6
Continuous
 62
     8
370
    25
100
AcDbLine
 10
141.0400126395
 20
210.4094792863
 30
0.0
 11
143.8949469743
 21
210.4094792863
 31
0.0
  0
LINE
  5
218
330
1F
100
AcDbEntity
  8
0
  6
Continuous
 62
     8
370
    25
100
AcDbLine
 10
89.967441958
 20
210.4094792863
 30
0.0
 11
91.6674409328
 21
210.4094792863
 31
0.0
  0
LINE
  5
219
330
1F
100
AcDbEntity
  8
0
  6
Continuous
 62
     8
370
    25
100
AcDbLine
 10
127.6674423633
 20
210.4094792863
 30
0.0
 11
129.3674413381
 21
210.4094792863
 31
0.0
  0
LINE
  5
21A
330
1F
100
AcDbEntity
  8
0
  6
Continuous
 62
     8
370
    25
100
AcDbLine
 10
78.339636725
 20
210.4094792863
 30
0.0
 11
89.967441958
 21
210.4094792863
 31
0.0
  0
LINE
  5
21B
330
1F
100
AcDbEntity
  8
0
  6
Continuous
 62
     8
370
    25
100
AcDbLine
 10
129.3674413381
 20
210.4094792863
 30
0.0
 11
141.0201076684
 21
210.4094792863
 31
0.0
  0
ARC
  5
21C
330
1F
100
AcDbEntity
  8
0
  6
Continuous
 62
     7
370
    25
100
AcDbCircle
 10
141.4872468014
 20
102.1460186263
 30
0.0
 40
1.000000000000008
100
AcDbArc
 50
225.0
 51
45.0
  0
LWPOLYLINE
  5
21D
330
1F
100
AcDbEntity
  8
0
  6
Continuous
 62
     7
370
    25
100
AcDbPolyline
 90
        9
 70
   128
 43
0.0
 10
142.6186178146
 20
103.2773889404
 10
142.5358478246
 20
103.1946189504
 10
142.4562577424
 20
103.1150318485
 10
142.3829082666
 20
103.0416823727
 10
142.3186186967
 20
102.9773898226
 10
142.2658536849
 20
102.924627791
 10
142.2266487298
 20
102.8854198557
 10
142.2025058685
 20
102.8612769943
 10
142.1943549333
 20
102.8531260591
  0
ARC
  5
21E
330
1F
100
AcDbEntity
  8
0
  6
Continuous
 62
     7
370
    25
100
AcDbCircle
 10
141.4872468014
 20
102.1460186263
 30
0.0
 40
1.600000000000027
100
AcDbArc
 50
225.0
 51
45.0
  0
LWPOLYLINE
  5
21F
330
1F
100
AcDbEntity
  8
0
  6
Continuous
 62
     7
370
    25
100
AcDbPolyline
 90
        9
 70
   128
 43
0.0
 10
140.3558764873
 20
101.0146476131
 10
140.4386464772
 20
101.0974176031
 10
140.5182335792
 20
101.1770076853
 10
140.591583055
 20
101.2503571611
 10
140.6558756051
 20
101.314646731
 10
140.7086376367
 20
101.3674117428
 10
140.747845572
 20
101.4066166979
 10
140.7719884334
 20
101.4307595592
 10
140.7801393686
 20
101.4389104944
  0
LINE
  5
220
330
1F
100
AcDbEntity
  8
0
  6
Continuous
 62
     7
370
    25
100
AcDbLine
 10
142.1943549333
 20
102.8531260591
 30
0.0
 11
124.3566800175
 21
120.6907994848
 31
0.0
  0
LWPOLYLINE
  5
221
330
1F
100
AcDbEntity
  8
0
  6
Continuous
 62
     7
370
    25
100
AcDbPolyline
 90
        9
 70
   128
 43
0.0
 10
124.7809443889
 20
121.1150638562
 10
124.6981743989
 20
121.0322938662
 10
124.6185858069
 20
120.9527037841
 10
124.5452348409
 20
120.8793543082
 10
124.4809437809
 20
120.8150632482
 10
124.4281817494
 20
120.7623012167
 10
124.3889753041
 20
120.7230947715
 10
124.3648324428
 20
120.6989519101
 10
124.3566800175
 20
120.6907994848
  0
LINE
  5
222
330
1F
100
AcDbEntity
  8
0
  6
Continuous
 62
     7
370
    25
100
AcDbLine
 10
124.7809443889
 20
121.1150638562
 30
0.0
 11
142.6186178146
 21
103.2773889404
 31
0.0
  0
ARC
  5
223
330
1F
100
AcDbEntity
  8
0
  6
Continuous
 62
     7
370
    25
100
AcDbCircle
 10
125.7708934457
 20
122.1050126691
 30
0.0
 40
2.000000000000006
100
AcDbArc
 50
143.6269265587
 51
225.0
  0
LWPOLYLINE
  5
224
330
1F
100
AcDbEntity
  8
0
  6
Continuous
 62
     7
370
    25
100
AcDbPolyline
 90
        9
 70
   128
 43
0.0
 10
124.6436525402
 20
122.9352697533
 10
124.5494026957
 20
123.0046875578
 10
124.4587768135
 20
123.0714373093
 10
124.3752543149
 20
123.1329545182
 10
124.3020464001
 20
123.186875115
 10
124.2419664083
 20
123.2311263483
 10
124.1973225293
 20
123.2640079957
 10
124.169831377
 20
123.2842564386
 10
124.1605479536
 20
123.2910938364
  0
ARC
  5
225
330
1F
100
AcDbEntity
  8
0
  6
Continuous
 62
     7
370
    25
100
AcDbCircle
 10
125.7708934457
 20
122.1050126691
 30
0.0
 40
1.400000000000011
100
AcDbArc
 50
143.6269265587
 51
225.0
  0
ARC
  5
226
330
1F
100
AcDbEntity
  8
0
  6
Continuous
 62
     7
370
    25
100
AcDbCircle
 10
109.667441648
 20
133.9658237797
 30
0.0
 40
17.99999999999999
100
AcDbArc
 50
323.6269265587
 51
36.3730734413
  0
LWPOLYLINE
  5
227
330
1F
100
AcDbEntity
  8
0
  6
Continuous
 62
     7
370
    25
100
AcDbPolyline
 90
        9
 70
   128
 43
0.0
 10
124.6436525402
 20
144.996377806
 10
124.5494026957
 20
144.9269600015
 10
124.4587768135
 20
144.86021025
 10
124.3752543149
 20
144.7986930412
 10
124.3020464001
 20
144.7447724443
 10
124.2419664083
 20
144.700521211
 10
124.1973225293
 20
144.6676395636
 10
124.169831377
 20
144.6473911208
 10
124.1605479536
 20
144.6405537229
  0
ARC
  5
228
330
1F
100
AcDbEntity
  8
0
  6
Continuous
 62
     7
370
    25
100
AcDbCircle
 10
109.667441648
 20
133.9658237797
 30
0.0
 40
18.59999999999999
100
AcDbArc
 50
323.6269265587
 51
36.3730734413
  0
ARC
  5
229
330
1F
100
AcDbEntity
  8
0
  6
Continuous
 62
     7
370
    25
100
AcDbCircle
 10
125.7708934457
 20
145.8266348902
 30
0.0
 40
2.000000000000016
100
AcDbArc
 50
135.0
 51
216.3730734413
  0
LWPOLYLINE
  5
22A
330
1F
100
AcDbEntity
  8
0
  6
Continuous
 62
     7
370
    25
100
AcDbPolyline
 90
        9
 70
   128
 43
0.0
 10
124.7809443889
 20
146.8165837031
 10
124.6981743989
 20
146.8993536931
 10
124.6185858069
 20
146.9789437753
 10
124.5452348409
 20
147.0522932511
 10
124.4809437809
 20
147.1165843111
 10
124.4281817494
 20
147.1693463426
 10
124.3889753041
 20
147.2085527879
 10
124.3648324428
 20
147.2326956492
 10
124.3566800175
 20
147.2408480745
  0
ARC
  5
22B
330
1F
100
AcDbEntity
  8
0
  6
Continuous
 62
     7
370
    25
100
AcDbCircle
 10
125.7708934457
 20
145.8266348902
 30
0.0
 40
1.400000000000017
100
AcDbArc
 50
135.0
 51
216.3730734413
  0
ARC
  5
22C
330
1F
100
AcDbEntity
  8
0
  6
Continuous
 62
     7
370
    25
100
AcDbCircle
 10
141.4872468014
 20
165.7856289331
 30
0.0
 40
1.000000000000008
100
AcDbArc
 50
315.0
 51
135.0
  0
LWPOLYLINE
  5
22D
330
1F
100
AcDbEntity
  8
0
  6
Continuous
 62
     7
370
    25
100
AcDbPolyline
 90
        9
 70
   128
 43
0.0
 10
140.3558764873
 20
166.9169999462
 10
140.4386464772
 20
166.8342299562
 10
140.5182335792
 20
166.7546398741
 10
140.591583055
 20
166.6812903982
 10
140.6558756051
 20
166.6170008283
 10
140.7086376367
 20
166.5642358166
 10
140.747845572
 20
166.5250308615
 10
140.7719884334
 20
166.5008880001
 10
140.7801393686
 20
166.4927370649
  0
ARC
  5
22E
330
1F
100
AcDbEntity
  8
0
  6
Continuous
 62
     7
370
    25
100
AcDbCircle
 10
141.4872468014
 20
165.7856289331
 30
0.0
 40
1.599999999999997
100
AcDbArc
 50
315.0
 51
135.0
  0
LWPOLYLINE
  5
22F
330
1F
100
AcDbEntity
  8
0
  6
Continuous
 62
     7
370
    25
100
AcDbPolyline
 90
        9
 70
   128
 43
0.0
 10
142.6186178146
 20
164.6542586189
 10
142.5358478246
 20
164.7370286089
 10
142.4562577424
 20
164.8166157108
 10
142.3829082666
 20
164.8899651867
 10
142.3186186967
 20
164.9542577368
 10
142.2658536849
 20
165.0070197683
 10
142.2266487298
 20
165.0462277037
 10
142.2025058685
 20
165.070370565
 10
142.1943549333
 20
165.0785215002
  0
LINE
  5
230
330
1F
100
AcDbEntity
  8
0
  6
Continuous
 62
     7
370
    25
100
AcDbLine
 10
140.7801393686
 20
166.4927370649
 30
0.0
 11
122.9424659429
 21
148.6550621491
 31
0.0
  0
LWPOLYLINE
  5
231
330
1F
100
AcDbEntity
  8
0
  6
Continuous
 62
     7
370
    25
100
AcDbPolyline
 90
        9
 70
   128
 43
0.0
 10
122.5182015715
 20
149.0793265205
 10
122.6009715614
 20
148.9965565306
 10
122.6805616436
 20
148.9169679385
 10
122.7539111195
 20
148.8436169725
 10
122.8182021794
 20
148.7793259126
 10
122.870964211
 20
148.726563881
 10
122.9101706562
 20
148.6873574358
 10
122.9343135176
 20
148.6632145744
 10
122.9424659429
 20
148.6550621491
  0
LINE
  5
232
330
1F
100
AcDbEntity
  8
0
  6
Continuous
 62
     7
370
    25
100
AcDbLine
 10
122.5182015715
 20
149.0793265205
 30
0.0
 11
140.3558764873
 21
166.9169999462
 31
0.0
  0
LWPOLYLINE
  5
233
330
1F
100
AcDbEntity
  8
0
  6
Continuous
 62
     7
370
    25
100
AcDbPolyline
 90
        9
 70
   128
 43
0.0
 10
98.6368876217
 20
148.9420346719
 10
98.7063054261
 20
148.8477848273
 10
98.7730551777
 20
148.7571589452
 10
98.8345723865
 20
148.6736364466
 10
98.8884929834
 20
148.6004285317
 10
98.9327442167
 20
148.5403485399
 10
98.965625864
 20
148.495704661
 10
98.9858743069
 20
148.4682135087
 10
98.9927117047
 20
148.4589300853
  0
ARC
  5
234
330
1F
100
AcDbEntity
  8
0
  6
Continuous
 62
     7
370
    25
100
AcDbCircle
 10
97.8066305375
 20
150.0692755773
 30
0.0
 40
2.000000000000016
100
AcDbArc
 50
225.0
 51
306.3730734413
  0
LWPOLYLINE
  5
235
330
1F
100
AcDbEntity
  8
0
  6
Continuous
 62
     7
370
    25
100
AcDbPolyline
 90
        9
 70
   128
 43
0.0
 10
96.8166817246
 20
149.0793265205
 10
96.7339117346
 20
148.9965565306
 10
96.6543216524
 20
148.9169679385
 10
96.5809721766
 20
148.8436169725
 10
96.5166811166
 20
148.7793259126
 10
96.463919085
 20
148.726563881
 10
96.4247126398
 20
148.6873574358
 10
96.4005697785
 20
148.6632145744
 10
96.3924173532
 20
148.6550621491
  0
ARC
  5
236
330
1F
100
AcDbEntity
  8
0
  6
Continuous
 62
     7
370
    25
100
AcDbCircle
 10
97.8066305375
 20
150.0692755773
 30
0.0
 40
1.399999999999997
100
AcDbArc
 50
225.0
 51
306.3730734413
  0
ARC
  5
237
330
1F
100
AcDbEntity
  8
0
  6
Continuous
 62
     7
370
    25
100
AcDbCircle
 10
70.667441648
 20
94.9658237797
 30
0.0
 40
1.0
100
AcDbArc
 50
180.0
 51
270.0
  0
LINE
  5
238
330
1F
100
AcDbEntity
  8
0
  6
Continuous
 62
     7
370
    25
100
AcDbLine
 10
69.667441052
 20
172.9658223492
 30
0.0
 11
69.667441052
 21
94.9658252102
 31
0.0
  0
ARC
  5
239
330
1F
100
AcDbEntity
  8
0
  6
Continuous
 62
     7
370
    25
100
AcDbCircle
 10
70.667441648
 20
172.9658237797
 30
0.0
 40
1.0
100
AcDbArc
 50
90.0
 51
180.0
  0
LINE
  5
23A
330
1F
100
AcDbEntity
  8
0
  6
Continuous
 62
     7
370
    25
100
AcDbLine
 10
148.6674402175
 20
173.9658243757
 30
0.0
 11
70.6674430785
 21
173.9658243757
 31
0.0
  0
ARC
  5
23B
330
1F
100
AcDbEntity
  8
0
  6
Continuous
 62
     7
370
    25
100
AcDbCircle
 10
148.667441648
 20
172.9658237797
 30
0.0
 40
1.0
100
AcDbArc
 50
0.0
 51
90.0
  0
LINE
  5
23C
330
1F
100
AcDbEntity
  8
0
  6
Continuous
 62
     7
370
    25
100
AcDbLine
 10
149.6674422441
 20
94.9658252102
 30
0.0
 11
149.6674422441
 21
172.9658223492
 31
0.0
  0
ARC
  5
23D
330
1F
100
AcDbEntity
  8
0
  6
Continuous
 62
     7
370
    25
100
AcDbCircle
 10
148.667441648
 20
94.9658237797
 30
0.0
 40
1.0
100
AcDbArc
 50
270.0
 51
0.0
  0
LINE
  5
23E
330
1F
100
AcDbEntity
  8
0
  6
Continuous
 62
     7
370
    25
100
AcDbLine
 10
70.6674430785
 20
93.9658231836
 30
0.0
 11
148.6674402175
 21
93.9658231836
 31
0.0
  0
ARC
  5
23F
330
1F
100
AcDbEntity
  8
0
  6
Continuous
 62
     7
370
    25
100
AcDbCircle
 10
77.8476364946
 20
165.7856289331
 30
0.0
 40
1.599999999999997
100
AcDbArc
 50
45.0
 51
225.0
  0
LINE
  5
240
330
1F
100
AcDbEntity
  8
0
  6
Continuous
 62
     7
370
    25
100
AcDbLine
 10
94.5539389072
 20
146.8165837031
 30
0.0
 11
76.7162654815
 21
164.6542586189
 31
0.0
  0
ARC
  5
241
330
1F
100
AcDbEntity
  8
0
  6
Continuous
 62
     7
370
    25
100
AcDbCircle
 10
93.5639898504
 20
145.8266348902
 30
0.0
 40
1.400000000000138
100
AcDbArc
 50
323.6269265587
 51
45.0
  0
ARC
  5
242
330
1F
100
AcDbEntity
  8
0
  6
Continuous
 62
     7
370
    25
100
AcDbCircle
 10
109.667441648
 20
133.9658237797
 30
0.0
 40
18.60000000000002
100
AcDbArc
 50
143.6269265587
 51
216.3730734413
  0
ARC
  5
243
330
1F
100
AcDbEntity
  8
0
  6
Continuous
 62
     7
370
    25
100
AcDbCircle
 10
93.5639898504
 20
122.1050126691
 30
0.0
 40
1.400000000000006
100
AcDbArc
 50
315.0
 51
36.3730734413
  0
LINE
  5
244
330
1F
100
AcDbEntity
  8
0
  6
Continuous
 62
     7
370
    25
100
AcDbLine
 10
76.7162654815
 20
103.2773889404
 30
0.0
 11
94.5539389072
 21
121.1150638562
 31
0.0
  0
ARC
  5
245
330
1F
100
AcDbEntity
  8
0
  6
Continuous
 62
     7
370
    25
100
AcDbCircle
 10
77.8476364946
 20
102.1460186263
 30
0.0
 40
1.600000000000007
100
AcDbArc
 50
135.0
 51
315.0
  0
LINE
  5
246
330
1F
100
AcDbEntity
  8
0
  6
Continuous
 62
     7
370
    25
100
AcDbLine
 10
96.8166817246
 20
118.8523210388
 30
0.0
 11
78.9790068088
 21
101.0146476131
 31
0.0
  0
ARC
  5
247
330
1F
100
AcDbEntity
  8
0
  6
Continuous
 62
     7
370
    25
100
AcDbCircle
 10
97.8066305375
 20
117.862371982
 30
0.0
 40
1.400000000000007
100
AcDbArc
 50
53.6269265587
 51
135.0
  0
ARC
  5
248
330
1F
100
AcDbEntity
  8
0
  6
Continuous
 62
     7
370
    25
100
AcDbCircle
 10
109.667441648
 20
133.9658237797
 30
0.0
 40
18.60000000000001
100
AcDbArc
 50
233.6269265587
 51
306.3730734413
  0
ARC
  5
249
330
1F
100
AcDbEntity
  8
0
  6
Continuous
 62
     7
370
    25
100
AcDbCircle
 10
121.5282527586
 20
117.862371982
 30
0.0
 40
1.400000000000003
100
AcDbArc
 50
45.0
 51
126.3730734413
  0
LINE
  5
24A
330
1F
100
AcDbEntity
  8
0
  6
Continuous
 62
     7
370
    25
100
AcDbLine
 10
140.3558764873
 20
101.0146476131
 30
0.0
 11
122.5182015715
 21
118.8523210388
 31
0.0
  0
LINE
  5
24B
330
1F
100
AcDbEntity
  8
0
  6
Continuous
 62
     7
370
    25
100
AcDbLine
 10
142.6186178146
 20
164.6542586189
 30
0.0
 11
124.7809443889
 21
146.8165837031
 31
0.0
  0
ARC
  5
24C
330
1F
100
AcDbEntity
  8
0
  6
Continuous
 62
     7
370
    25
100
AcDbCircle
 10
121.5282527586
 20
150.0692755773
 30
0.0
 40
1.400000000000017
100
AcDbArc
 50
233.6269265587
 51
315.0
  0
ARC
  5
24D
330
1F
100
AcDbEntity
  8
0
  6
Continuous
 62
     7
370
    25
100
AcDbCircle
 10
109.667441648
 20
133.9658237797
 30
0.0
 40
18.60000000000002
100
AcDbArc
 50
53.6269265587
 51
126.3730734413
  0
LINE
  5
24E
330
1F
100
AcDbEntity
  8
0
  6
Continuous
 62
     7
370
    25
100
AcDbLine
 10
78.9790068088
 20
166.9169999462
 30
0.0
 11
96.8166817246
 21
149.0793265205
 31
0.0
  0
ARC
  5
24F
330
1F
100
AcDbEntity
  8
0
  6
Continuous
 62
     7
370
    25
100
AcDbCircle
 10
127.667441648
 20
166.4918237797
 30
0.0
 40
1.599999999999994
100
AcDbArc
 50
270.0
 51
90.0
  0
LINE
  5
250
330
1F
100
AcDbEntity
  8
0
  6
Continuous
 62
     7
370
    25
100
AcDbLine
 10
91.6674409328
 20
168.0918223959
 30
0.0
 11
127.6674423633
 21
168.0918223959
 31
0.0
  0
ARC
  5
251
330
1F
100
AcDbEntity
  8
0
  6
Continuous
 62
     7
370
    25
100
AcDbCircle
 10
91.667441648
 20
166.4918237797
 30
0.0
 40
1.599999999999994
100
AcDbArc
 50
90.0
 51
270.0
  0
LINE
  5
252
330
1F
100
AcDbEntity
  8
0
  6
Continuous
 62
     7
370
    25
100
AcDbLine
 10
127.6674423633
 20
164.8918248516
 30
0.0
 11
91.6674409328
 21
164.8918248516
 31
0.0
  0
ARC
  5
253
330
1F
100
AcDbEntity
  8
0
  6
Continuous
 62
     7
370
    25
100
AcDbCircle
 10
77.141441648
 20
115.9658237797
 30
0.0
 40
1.600000000000009
100
AcDbArc
 50
180.0
 51
0.0
  0
LINE
  5
254
330
1F
100
AcDbEntity
  8
0
  6
Continuous
 62
     7
370
    25
100
AcDbLine
 10
78.7414405761
 20
151.9658244949
 30
0.0
 11
78.7414405761
 21
115.9658230644
 31
0.0
  0
ARC
  5
255
330
1F
100
AcDbEntity
  8
0
  6
Continuous
 62
     7
370
    25
100
AcDbCircle
 10
77.141441648
 20
151.9658237797
 30
0.0
 40
1.600000000000009
100
AcDbArc
 50
0.0
 51
180.0
  0
LINE
  5
256
330
1F
100
AcDbEntity
  8
0
  6
Continuous
 62
     7
370
    25
100
AcDbLine
 10
75.5414430318
 20
115.9658230644
 30
0.0
 11
75.5414430318
 21
151.9658244949
 31
0.0
  0
ARC
  5
257
330
1F
100
AcDbEntity
  8
0
  6
Continuous
 62
     7
370
    25
100
AcDbCircle
 10
142.193441648
 20
115.9658237797
 30
0.0
 40
1.600000000000023
100
AcDbArc
 50
180.0
 51
0.0
  0
LINE
  5
258
330
1F
100
AcDbEntity
  8
0
  6
Continuous
 62
     7
370
    25
100
AcDbLine
 10
143.7934402642
 20
151.9658244949
 30
0.0
 11
143.7934402642
 21
115.9658230644
 31
0.0
  0
ARC
  5
259
330
1F
100
AcDbEntity
  8
0
  6
Continuous
 62
     7
370
    25
100
AcDbCircle
 10
142.193441648
 20
151.9658237797
 30
0.0
 40
1.600000000000023
100
AcDbArc
 50
0.0
 51
180.0
  0
LINE
  5
25A
330
1F
100
AcDbEntity
  8
0
  6
Continuous
 62
     7
370
    25
100
AcDbLine
 10
140.59344272
 20
115.9658230644
 30
0.0
 11
140.59344272
 21
151.9658244949
 31
0.0
  0
ARC
  5
25B
330
1F
100
AcDbEntity
  8
0
  6
Continuous
 62
     7
370
    25
100
AcDbCircle
 10
127.667441648
 20
101.4398237797
 30
0.0
 40
1.600000000000023
100
AcDbArc
 50
270.0
 51
90.0
  0
LINE
  5
25C
330
1F
100
AcDbEntity
  8
0
  6
Continuous
 62
     7
370
    25
100
AcDbLine
 10
91.6674409328
 20
103.0398227077
 30
0.0
 11
127.6674423633
 21
103.0398227077
 31
0.0
  0
ARC
  5
25D
330
1F
100
AcDbEntity
  8
0
  6
Continuous
 62
     7
370
    25
100
AcDbCircle
 10
91.667441648
 20
101.4398237797
 30
0.0
 40
1.600000000000009
100
AcDbArc
 50
90.0
 51
270.0
  0
LINE
  5
25E
330
1F
100
AcDbEntity
  8
0
  6
Continuous
 62
     7
370
    25
100
AcDbLine
 10
127.6674423633
 20
99.8398251634
 30
0.0
 11
91.6674409328
 21
99.8398251634
 31
0.0
  0
CIRCLE
  5
25F
330
1F
100
AcDbEntity
  8
0
  6
Continuous
 62
     7
370
    25
100
AcDbCircle
 10
109.667441648
 20
105.9658237797
 30
0.0
 40
0.6499999999999915
  0
CIRCLE
  5
260
330
1F
100
AcDbEntity
  8
0
  6
Continuous
 62
     7
370
    25
100
AcDbCircle
 10
109.667441648
 20
161.9658237797
 30
0.0
 40
0.6499999999999915
  0
CIRCLE
  5
261
330
1F
100
AcDbEntity
  8
0
  6
Continuous
 62
     7
370
    25
100
AcDbCircle
 10
81.667441648
 20
133.9658237797
 30
0.0
 40
0.6499999999999915
  0
CIRCLE
  5
262
330
1F
100
AcDbEntity
  8
0
  6
Continuous
 62
     7
370
    25
100
AcDbCircle
 10
75.667441648
 20
107.9658237797
 30
0.0
 40
0.6499999999999915
  0
CIRCLE
  5
263
330
1F
100
AcDbEntity
  8
0
  6
Continuous
 62
     7
370
    25
100
AcDbCircle
 10
143.667441648
 20
107.9658237797
 30
0.0
 40
0.6500000000000341
  0
CIRCLE
  5
264
330
1F
100
AcDbEntity
  8
0
  6
Continuous
 62
     7
370
    25
100
AcDbCircle
 10
143.667441648
 20
159.9658237797
 30
0.0
 40
0.6500000000000341
  0
CIRCLE
  5
265
330
1F
100
AcDbEntity
  8
0
  6
Continuous
 62
     7
370
    25
100
AcDbCircle
 10
135.667441648
 20
167.9658237797
 30
0.0
 40
0.6499999999999773
  0
CIRCLE
  5
266
330
1F
100
AcDbEntity
  8
0
  6
Continuous
 62
     7
370
    25
100
AcDbCircle
 10
83.667441648
 20
167.9658237797
 30
0.0
 40
0.6499999999999915
  0
CIRCLE
  5
267
330
1F
100
AcDbEntity
  8
0
  6
Continuous
 62
     7
370
    25
100
AcDbCircle
 10
75.667441648
 20
159.9658237797
 30
0.0
 40
0.6499999999999915
  0
CIRCLE
  5
268
330
1F
100
AcDbEntity
  8
0
  6
Continuous
 62
     7
370
    25
100
AcDbCircle
 10
135.667441648
 20
99.9658237797
 30
0.0
 40
0.6499999999999773
  0
CIRCLE
  5
269
330
1F
100
AcDbEntity
  8
0
  6
Continuous
 62
     7
370
    25
100
AcDbCircle
 10
83.667441648
 20
99.9658237797
 30
0.0
 40
0.6499999999999915
  0
CIRCLE
  5
26A
330
1F
100
AcDbEntity
  8
0
  6
Continuous
 62
     7
370
    25
100
AcDbCircle
 10
137.667441648
 20
133.9658237797
 30
0.0
 40
0.6500000000000057
  0
ARC
  5
26B
330
1F
100
AcDbEntity
  8
0
  6
Continuous
 62
     7
370
    25
100
AcDbCircle
 10
77.8476364946
 20
165.7856289331
 30
0.0
 40
0.999999999999998
100
AcDbArc
 50
45.0
 51
225.0
  0
LWPOLYLINE
  5
26C
330
1F
100
AcDbEntity
  8
0
  6
Continuous
 62
     7
370
    25
100
AcDbPolyline
 90
        9
 70
   128
 43
0.0
 10
76.7162654815
 20
164.6542586189
 10
76.7990354715
 20
164.7370286089
 10
76.8786255536
 20
164.8166157108
 10
76.9519750295
 20
164.8899651867
 10
77.0162645993
 20
164.9542577368
 10
77.0690296111
 20
165.0070197683
 10
77.1082345662
 20
165.0462277037
 10
77.1323774276
 20
165.070370565
 10
77.1405283628
 20
165.0785215002
  0
LWPOLYLINE
  5
26D
330
1F
100
AcDbEntity
  8
0
  6
Continuous
 62
     7
370
    25
100
AcDbPolyline
 90
        9
 70
   128
 43
0.0
 10
78.9790068088
 20
166.9169999462
 10
78.8962368188
 20
166.8342299562
 10
78.8166497169
 20
166.7546398741
 10
78.743300241
 20
166.6812903982
 10
78.6790076909
 20
166.6170008283
 10
78.6262456594
 20
166.5642358166
 10
78.587037724
 20
166.5250308615
 10
78.5628948627
 20
166.5008880001
 10
78.5547439275
 20
166.4927370649
  0
LINE
  5
26E
330
1F
100
AcDbEntity
  8
0
  6
Continuous
 62
     7
370
    25
100
AcDbLine
 10
77.1405283628
 20
165.0785215002
 30
0.0
 11
94.9782032786
 21
147.2408480745
 31
0.0
  0
LWPOLYLINE
  5
26F
330
1F
100
AcDbEntity
  8
0
  6
Continuous
 62
     7
370
    25
100
AcDbPolyline
 90
        9
 70
   128
 43
0.0
 10
94.5539389072
 20
146.8165837031
 10
94.6367088971
 20
146.8993536931
 10
94.7162974892
 20
146.9789437753
 10
94.7896484552
 20
147.0522932511
 10
94.8539395151
 20
147.1165843111
 10
94.9067015467
 20
147.1693463426
 10
94.9459079919
 20
147.2085527879
 10
94.9700508533
 20
147.2326956492
 10
94.9782032786
 20
147.2408480745
  0
ARC
  5
270
330
1F
100
AcDbEntity
  8
0
  6
Continuous
 62
     7
370
    25
100
AcDbCircle
 10
109.667441648
 20
133.9658237797
 30
0.0
 40
18.00000000000002
100
AcDbArc
 50
143.6269265587
 51
216.3730734413
  0
LWPOLYLINE
  5
271
330
1F
100
AcDbEntity
  8
0
  6
Continuous
 62
     7
370
    25
100
AcDbPolyline
 90
        9
 70
   128
 43
0.0
 10
94.6912307558
 20
122.9352697533
 10
94.7854806004
 20
123.0046875578
 10
94.8761064825
 20
123.0714373093
 10
94.9596289811
 20
123.1329545182
 10
95.032836896
 20
123.186875115
 10
95.0929168878
 20
123.2311263483
 10
95.1375607667
 20
123.2640079957
 10
95.165051919
 20
123.2842564386
 10
95.1743353424
 20
123.2910938364
  0
LWPOLYLINE
  5
272
330
1F
100
AcDbEntity
  8
0
  6
Continuous
 62
     7
370
    25
100
AcDbPolyline
 90
        9
 70
   128
 43
0.0
 10
94.6912307558
 20
144.996377806
 10
94.7854806004
 20
144.9269600015
 10
94.8761064825
 20
144.86021025
 10
94.9596289811
 20
144.7986930412
 10
95.032836896
 20
144.7447724443
 10
95.0929168878
 20
144.700521211
 10
95.1375607667
 20
144.6676395636
 10
95.165051919
 20
144.6473911208
 10
95.1743353424
 20
144.6405537229
  0
ARC
  5
273
330
1F
100
AcDbEntity
  8
0
  6
Continuous
 62
     7
370
    25
100
AcDbCircle
 10
93.5639898504
 20
122.1050126691
 30
0.0
 40
2.000000000000006
100
AcDbArc
 50
315.0
 51
36.3730734413
  0
LWPOLYLINE
  5
274
330
1F
100
AcDbEntity
  8
0
  6
Continuous
 62
     7
370
    25
100
AcDbPolyline
 90
        9
 70
   128
 43
0.0
 10
94.5539389072
 20
121.1150638562
 10
94.6367088971
 20
121.0322938662
 10
94.7162974892
 20
120.9527037841
 10
94.7896484552
 20
120.8793543082
 10
94.8539395151
 20
120.8150632482
 10
94.9067015467
 20
120.7623012167
 10
94.9459079919
 20
120.7230947715
 10
94.9700508533
 20
120.6989519101
 10
94.9782032786
 20
120.6907994848
  0
LINE
  5
275
330
1F
100
AcDbEntity
  8
0
  6
Continuous
 62
     7
370
    25
100
AcDbLine
 10
94.9782032786
 20
120.6907994848
 30
0.0
 11
77.1405283628
 21
102.8531260591
 31
0.0
  0
LWPOLYLINE
  5
276
330
1F
100
AcDbEntity
  8
0
  6
Continuous
 62
     7
370
    25
100
AcDbPolyline
 90
        9
 70
   128
 43
0.0
 10
76.7162654815
 20
103.2773889404
 10
76.7990354715
 20
103.1946189504
 10
76.8786255536
 20
103.1150318485
 10
76.9519750295
 20
103.0416823727
 10
77.0162645993
 20
102.9773898226
 10
77.0690296111
 20
102.924627791
 10
77.1082345662
 20
102.8854198557
 10
77.1323774276
 20
102.8612769943
 10
77.1405283628
 20
102.8531260591
  0
ARC
  5
277
330
1F
100
AcDbEntity
  8
0
  6
Continuous
 62
     7
370
    25
100
AcDbCircle
 10
77.8476364946
 20
102.1460186263
 30
0.0
 40
1.000000000000018
100
AcDbArc
 50
135.0
 51
315.0
  0
LWPOLYLINE
  5
278
330
1F
100
AcDbEntity
  8
0
  6
Continuous
 62
     7
370
    25
100
AcDbPolyline
 90
        9
 70
   128
 43
0.0
 10
78.9790068088
 20
101.0146476131
 10
78.8962368188
 20
101.0974176031
 10
78.8166497169
 20
101.1770076853
 10
78.743300241
 20
101.2503571611
 10
78.6790076909
 20
101.314646731
 10
78.6262456594
 20
101.3674117428
 10
78.587037724
 20
101.4066166979
 10
78.5628948627
 20
101.4307595592
 10
78.5547439275
 20
101.4389104944
  0
ARC
  5
279
330
1F
100
AcDbEntity
  8
0
  6
Continuous
 62
     7
370
    25
100
AcDbCircle
 10
121.5282527586
 20
117.862371982
 30
0.0
 40
2.0
100
AcDbArc
 50
45.0
 51
126.3730734413
  0
LWPOLYLINE
  5
27A
330
1F
100
AcDbEntity
  8
0
  6
Continuous
 62
     7
370
    25
100
AcDbPolyline
 90
        9
 70
   128
 43
0.0
 10
122.5182015715
 20
118.8523210388
 10
122.6009715614
 20
118.9350910288
 10
122.6805616436
 20
119.0146796208
 10
122.7539111195
 20
119.0880305868
 10
122.8182021794
 20
119.1523216468
 10
122.870964211
 20
119.2050836783
 10
122.9101706562
 20
119.2442901235
 10
122.9343135176
 20
119.2684329849
 10
122.9424659429
 20
119.2765854102
  0
LWPOLYLINE
  5
27B
330
1F
100
AcDbEntity
  8
0
  6
Continuous
 62
     7
370
    25
100
AcDbPolyline
 90
        9
 70
   128
 43
0.0
 10
120.6979956744
 20
118.9896128875
 10
120.6285778699
 20
119.083862732
 10
120.5618281183
 20
119.1744886142
 10
120.5003109095
 20
119.2580111128
 10
120.4463903127
 20
119.3312190276
 10
120.4021390794
 20
119.3912990194
 10
120.369257432
 20
119.4359428984
 10
120.3490089891
 20
119.4634340506
 10
120.3421715913
 20
119.4727174741
  0
ARC
  5
27C
330
1F
100
AcDbEntity
  8
0
  6
Continuous
 62
     7
370
    25
100
AcDbCircle
 10
109.667441648
 20
133.9658237797
 30
0.0
 40
18.0
100
AcDbArc
 50
233.6269265587
 51
306.3730734413
  0
LWPOLYLINE
  5
27D
330
1F
100
AcDbEntity
  8
0
  6
Continuous
 62
     7
370
    25
100
AcDbPolyline
 90
        9
 70
   128
 43
0.0
 10
98.6368876217
 20
118.9896128875
 10
98.7063054261
 20
119.083862732
 10
98.7730551777
 20
119.1744886142
 10
98.8345723865
 20
119.2580111128
 10
98.8884929834
 20
119.3312190276
 10
98.9327442167
 20
119.3912990194
 10
98.965625864
 20
119.4359428984
 10
98.9858743069
 20
119.4634340506
 10
98.9927117047
 20
119.4727174741
  0
LINE
  5
27E
330
1F
100
AcDbEntity
  8
0
  6
Continuous
 62
     7
370
    25
100
AcDbLine
 10
122.9424659429
 20
119.2765854102
 30
0.0
 11
140.7801393686
 21
101.4389104944
 31
0.0
  0
LINE
  5
27F
330
1F
100
AcDbEntity
  8
0
  6
Continuous
 62
     7
370
    25
100
AcDbLine
 10
96.3924173532
 20
148.6550621491
 30
0.0
 11
78.5547439275
 21
166.4927370649
 31
0.0
  0
LINE
  5
280
330
1F
100
AcDbEntity
  8
0
  6
Continuous
 62
     7
370
    25
100
AcDbLine
 10
91.6674409328
 20
100.4398233991
 30
0.0
 11
127.6674423633
 21
100.4398233991
 31
0.0
  0
LINE
  5
281
330
1F
100
AcDbEntity
  8
0
  6
Continuous
 62
     7
370
    25
100
AcDbLine
 10
127.6674423633
 20
99.8398251634
 30
0.0
 11
127.6674423633
 21
100.4398233991
 31
0.0
  0
LINE
  5
282
330
1F
100
AcDbEntity
  8
0
  6
Continuous
 62
     7
370
    25
100
AcDbLine
 10
91.6674409328
 20
99.8398251634
 30
0.0
 11
91.6674409328
 21
100.4398233991
 31
0.0
  0
LINE
  5
283
330
1F
100
AcDbEntity
  8
0
  6
Continuous
 62
     7
370
    25
100
AcDbLine
 10
143.1934420285
 20
115.9658230644
 30
0.0
 11
143.1934420285
 21
151.9658244949
 31
0.0
  0
LINE
  5
284
330
1F
100
AcDbEntity
  8
0
  6
Continuous
 62
     7
370
    25
100
AcDbLine
 10
143.7934402642
 20
151.9658244949
 30
0.0
 11
143.1934420285
 21
151.9658244949
 31
0.0
  0
LINE
  5
285
330
1F
100
AcDbEntity
  8
0
  6
Continuous
 62
     7
370
    25
100
AcDbLine
 10
143.7934402642
 20
115.9658230644
 30
0.0
 11
143.1934420285
 21
115.9658230644
 31
0.0
  0
ARC
  5
286
330
1F
100
AcDbEntity
  8
0
  6
Continuous
 62
     7
370
    25
100
AcDbCircle
 10
93.5639898504
 20
145.8266348902
 30
0.0
 40
2.000000000000157
100
AcDbArc
 50
323.6269265587
 51
45.0
  0
ARC
  5
287
330
1F
100
AcDbEntity
  8
0
  6
Continuous
 62
     7
370
    25
100
AcDbCircle
 10
121.5282527586
 20
150.0692755773
 30
0.0
 40
2.000000000000026
100
AcDbArc
 50
233.6269265587
 51
315.0
  0
LWPOLYLINE
  5
288
330
1F
100
AcDbEntity
  8
0
  6
Continuous
 62
     7
370
    25
100
AcDbPolyline
 90
        9
 70
   128
 43
0.0
 10
120.6979956744
 20
148.9420346719
 10
120.6285778699
 20
148.8477848273
 10
120.5618281183
 20
148.7571589452
 10
120.5003109095
 20
148.6736364466
 10
120.4463903127
 20
148.6004285317
 10
120.4021390794
 20
148.5403485399
 10
120.369257432
 20
148.495704661
 10
120.3490089891
 20
148.4682135087
 10
120.3421715913
 20
148.4589300853
  0
ARC
  5
289
330
1F
100
AcDbEntity
  8
0
  6
Continuous
 62
     7
370
    25
100
AcDbCircle
 10
109.667441648
 20
133.9658237797
 30
0.0
 40
18.00000000000001
100
AcDbArc
 50
53.6269265587
 51
126.3730734413
  0
LINE
  5
28A
330
1F
100
AcDbEntity
  8
0
  6
Continuous
 62
     7
370
    25
100
AcDbLine
 10
124.3566800175
 20
147.2408480745
 30
0.0
 11
142.1943549333
 21
165.0785215002
 31
0.0
  0
ARC
  5
28B
330
1F
100
AcDbEntity
  8
0
  6
Continuous
 62
     7
370
    25
100
AcDbCircle
 10
142.193441648
 20
115.9658237797
 30
0.0
 40
1.0
100
AcDbArc
 50
180.0
 51
0.0
  0
LINE
  5
28C
330
1F
100
AcDbEntity
  8
0
  6
Continuous
 62
     7
370
    25
100
AcDbLine
 10
140.59344272
 20
115.9658230644
 30
0.0
 11
141.1934409557
 21
115.9658230644
 31
0.0
  0
ARC
  5
28D
330
1F
100
AcDbEntity
  8
0
  6
Continuous
 62
     7
370
    25
100
AcDbCircle
 10
142.193441648
 20
151.9658237797
 30
0.0
 40
1.000000000000028
100
AcDbArc
 50
0.0
 51
180.0
  0
LINE
  5
28E
330
1F
100
AcDbEntity
  8
0
  6
Continuous
 62
     7
370
    25
100
AcDbLine
 10
140.59344272
 20
151.9658244949
 30
0.0
 11
141.1934409557
 21
151.9658244949
 31
0.0
  0
LINE
  5
28F
330
1F
100
AcDbEntity
  8
0
  6
Continuous
 62
     7
370
    25
100
AcDbLine
 10
76.1414412675
 20
151.9658244949
 30
0.0
 11
76.1414412675
 21
115.9658230644
 31
0.0
  0
LINE
  5
290
330
1F
100
AcDbEntity
  8
0
  6
Continuous
 62
     7
370
    25
100
AcDbLine
 10
75.5414430318
 20
115.9658230644
 30
0.0
 11
76.1414412675
 21
115.9658230644
 31
0.0
  0
LINE
  5
291
330
1F
100
AcDbEntity
  8
0
  6
Continuous
 62
     7
370
    25
100
AcDbLine
 10
75.5414430318
 20
151.9658244949
 30
0.0
 11
76.1414412675
 21
151.9658244949
 31
0.0
  0
ARC
  5
292
330
1F
100
AcDbEntity
  8
0
  6
Continuous
 62
     7
370
    25
100
AcDbCircle
 10
77.141441648
 20
115.9658237797
 30
0.0
 40
1.0
100
AcDbArc
 50
180.0
 51
0.0
  0
LINE
  5
293
330
1F
100
AcDbEntity
  8
0
  6
Continuous
 62
     7
370
    25
100
AcDbLine
 10
78.7414405761
 20
115.9658230644
 30
0.0
 11
78.1414423404
 21
115.9658230644
 31
0.0
  0
LINE
  5
294
330
1F
100
AcDbEntity
  8
0
  6
Continuous
 62
     7
370
    25
100
AcDbLine
 10
78.1414423404
 20
115.9658230644
 30
0.0
 11
78.1414423404
 21
151.9658244949
 31
0.0
  0
LINE
  5
295
330
1F
100
AcDbEntity
  8
0
  6
Continuous
 62
     7
370
    25
100
AcDbLine
 10
78.7414405761
 20
151.9658244949
 30
0.0
 11
78.1414423404
 21
151.9658244949
 31
0.0
  0
ARC
  5
296
330
1F
100
AcDbEntity
  8
0
  6
Continuous
 62
     7
370
    25
100
AcDbCircle
 10
77.141441648
 20
151.9658237797
 30
0.0
 40
1.0
100
AcDbArc
 50
0.0
 51
180.0
  0
LINE
  5
297
330
1F
100
AcDbEntity
  8
0
  6
Continuous
 62
     7
370
    25
100
AcDbLine
 10
91.6674409328
 20
165.4918230873
 30
0.0
 11
127.6674423633
 21
165.4918230873
 31
0.0
  0
LINE
  5
298
330
1F
100
AcDbEntity
  8
0
  6
Continuous
 62
     7
370
    25
100
AcDbLine
 10
127.6674423633
 20
164.8918248516
 30
0.0
 11
127.6674423633
 21
165.4918230873
 31
0.0
  0
LINE
  5
299
330
1F
100
AcDbEntity
  8
0
  6
Continuous
 62
     7
370
    25
100
AcDbLine
 10
91.6674409328
 20
164.8918248516
 30
0.0
 11
91.6674409328
 21
165.4918230873
 31
0.0
  0
LINE
  5
29A
330
1F
100
AcDbEntity
  8
0
  6
Continuous
 62
     7
370
    25
100
AcDbLine
 10
78.5547439275
 20
101.4389104944
 30
0.0
 11
96.3924173532
 21
119.2765854102
 31
0.0
  0
LWPOLYLINE
  5
29B
330
1F
100
AcDbEntity
  8
0
  6
Continuous
 62
     7
370
    25
100
AcDbPolyline
 90
        9
 70
   128
 43
0.0
 10
96.8166817246
 20
118.8523210388
 10
96.7339117346
 20
118.9350910288
 10
96.6543216524
 20
119.0146796208
 10
96.5809721766
 20
119.0880305868
 10
96.5166811166
 20
119.1523216468
 10
96.463919085
 20
119.2050836783
 10
96.4247126398
 20
119.2442901235
 10
96.4005697785
 20
119.2684329849
 10
96.3924173532
 20
119.2765854102
  0
ARC
  5
29C
330
1F
100
AcDbEntity
  8
0
  6
Continuous
 62
     7
370
    25
100
AcDbCircle
 10
127.667441648
 20
101.4398237797
 30
0.0
 40
1.000000000000014
100
AcDbArc
 50
270.0
 51
90.0
  0
LINE
  5
29D
330
1F
100
AcDbEntity
  8
0
  6
Continuous
 62
     7
370
    25
100
AcDbLine
 10
127.6674423633
 20
103.0398227077
 30
0.0
 11
127.6674423633
 21
102.439824472
 31
0.0
  0
LINE
  5
29E
330
1F
100
AcDbEntity
  8
0
  6
Continuous
 62
     7
370
    25
100
AcDbLine
 10
91.6674409328
 20
168.0918223959
 30
0.0
 11
91.6674409328
 21
167.4918241602
 31
0.0
  0
ARC
  5
29F
330
1F
100
AcDbEntity
  8
0
  6
Continuous
 62
     7
370
    25
100
AcDbCircle
 10
91.667441648
 20
166.4918237797
 30
0.0
 40
1.0
100
AcDbArc
 50
90.0
 51
270.0
  0
ARC
  5
2A0
330
1F
100
AcDbEntity
  8
0
  6
Continuous
 62
     7
370
    25
100
AcDbCircle
 10
127.667441648
 20
166.4918237797
 30
0.0
 40
1.0
100
AcDbArc
 50
270.0
 51
90.0
  0
LINE
  5
2A1
330
1F
100
AcDbEntity
  8
0
  6
Continuous
 62
     7
370
    25
100
AcDbLine
 10
127.6674423633
 20
168.0918223959
 30
0.0
 11
127.6674423633
 21
167.4918241602
 31
0.0
  0
LINE
  5
2A2
330
1F
100
AcDbEntity
  8
0
  6
Continuous
 62
     7
370
    25
100
AcDbLine
 10
127.6674423633
 20
167.4918241602
 30
0.0
 11
91.6674409328
 21
167.4918241602
 31
0.0
  0
ARC
  5
2A3
330
1F
100
AcDbEntity
  8
0
  6
Continuous
 62
     7
370
    25
100
AcDbCircle
 10
97.8066305375
 20
117.862371982
 30
0.0
 40
2.000000000000006
100
AcDbArc
 50
53.6269265587
 51
135.0
  0
LINE
  5
2A4
330
1F
100
AcDbEntity
  8
0
  6
Continuous
 62
     7
370
    25
100
AcDbLine
 10
91.6674409328
 20
103.0398227077
 30
0.0
 11
91.6674409328
 21
102.439824472
 31
0.0
  0
ARC
  5
2A5
330
1F
100
AcDbEntity
  8
0
  6
Continuous
 62
     7
370
    25
100
AcDbCircle
 10
91.667441648
 20
101.4398237797
 30
0.0
 40
1.0
100
AcDbArc
 50
90.0
 51
270.0
  0
LINE
  5
2A6
330
1F
100
AcDbEntity
  8
0
  6
Continuous
 62
     7
370
    25
100
AcDbLine
 10
141.1934409557
 20
151.9658244949
 30
0.0
 11
141.1934409557
 21
115.9658230644
 31
0.0
  0
LINE
  5
2A7
330
1F
100
AcDbEntity
  8
0
  6
Continuous
 62
     7
370
    25
100
AcDbLine
 10
127.6674423633
 20
102.439824472
 30
0.0
 11
91.6674409328
 21
102.439824472
 31
0.0
  0
LWPOLYLINE
  5
2A8
330
1F
100
AcDbEntity
  8
0
  6
Continuous
 62
     7
370
    25
100
AcDbPolyline
 90
        9
 70
   128
 43
0.0
 10
123.6774448571
 20
123.6469179195
 10
123.7716932116
 20
123.577500115
 10
123.8623205838
 20
123.5107503634
 10
123.9458430824
 20
123.4492324096
 10
124.0190509973
 20
123.3953125578
 10
124.0791309891
 20
123.3510613244
 10
124.123774868
 20
123.318178932
 10
124.1512660203
 20
123.2979304891
 10
124.1605479536
 20
123.2910938364
  0
ARC
  5
2A9
330
1F
100
AcDbEntity
  8
0
  6
Continuous
 62
     7
370
    25
100
AcDbCircle
 10
109.667441648
 20
133.9658237797
 30
0.0
 40
17.39999999999999
100
AcDbArc
 50
323.6269265587
 51
36.3730734413
  0
LWPOLYLINE
  5
2AA
330
1F
100
AcDbEntity
  8
0
  6
Continuous
 62
     7
370
    25
100
AcDbPolyline
 90
        9
 70
   128
 43
0.0
 10
123.6774448571
 20
144.2847296398
 10
123.7716932116
 20
144.3541474443
 10
123.8623205838
 20
144.4208971959
 10
123.9458430824
 20
144.4824151498
 10
124.0190509973
 20
144.5363350015
 10
124.0791309891
 20
144.5805862349
 10
124.123774868
 20
144.6134686273
 10
124.1512660203
 20
144.6337170702
 10
124.1605479536
 20
144.6405537229
  0
LINE
  5
2AB
330
1F
100
AcDbEntity
  8
0
  6
Continuous
 62
     7
370
    25
100
AcDbLine
 10
95.40246765
 20
147.6651124459
 30
0.0
 11
94.9782032786
 21
147.2408480745
 31
0.0
  0
ARC
  5
2AC
330
1F
100
AcDbEntity
  8
0
  6
Continuous
 62
     7
370
    25
100
AcDbCircle
 10
93.5639898504
 20
145.8266348902
 30
0.0
 40
2.600000000000136
100
AcDbArc
 50
323.6269265587
 51
45.0
  0
LWPOLYLINE
  5
2AD
330
1F
100
AcDbEntity
  8
0
  6
Continuous
 62
     7
370
    25
100
AcDbPolyline
 90
        9
 70
   128
 43
0.0
 10
95.6574384389
 20
144.2847296398
 10
95.5631900845
 20
144.3541474443
 10
95.4725627122
 20
144.4208971959
 10
95.3890402136
 20
144.4824151498
 10
95.3158322988
 20
144.5363350015
 10
95.255752307
 20
144.5805862349
 10
95.211108428
 20
144.6134686273
 10
95.1836172757
 20
144.6337170702
 10
95.1743353424
 20
144.6405537229
  0
LWPOLYLINE
  5
2AE
330
1F
100
AcDbEntity
  8
0
  6
Continuous
 62
     7
370
    25
100
AcDbPolyline
 90
        9
 70
   128
 43
0.0
 10
99.3485357878
 20
147.9758269888
 10
99.2791179834
 20
148.0700753432
 10
99.2123682318
 20
148.1607027155
 10
99.1508502779
 20
148.2442252141
 10
99.0969304261
 20
148.3174331289
 10
99.0526791928
 20
148.3775131207
 10
99.0197968004
 20
148.4221569997
 10
98.9995483575
 20
148.449648152
 10
98.9927117047
 20
148.4589300853
  0
ARC
  5
2AF
330
1F
100
AcDbEntity
  8
0
  6
Continuous
 62
     7
370
    25
100
AcDbCircle
 10
97.8066305375
 20
150.0692755773
 30
0.0
 40
2.600000000000015
100
AcDbArc
 50
225.0
 51
306.3730734413
  0
LINE
  5
2B0
330
1F
100
AcDbEntity
  8
0
  6
Continuous
 62
     7
370
    25
100
AcDbLine
 10
95.9681529818
 20
148.2307977777
 30
0.0
 11
96.3924173532
 21
148.6550621491
 31
0.0
  0
ARC
  5
2B1
330
1F
100
AcDbEntity
  8
0
  6
Continuous
 62
     7
370
    25
100
AcDbCircle
 10
109.667441648
 20
133.9658237797
 30
0.0
 40
17.40000000000001
100
AcDbArc
 50
143.6269265587
 51
216.3730734413
  0
LWPOLYLINE
  5
2B2
330
1F
100
AcDbEntity
  8
0
  6
Continuous
 62
     7
370
    25
100
AcDbPolyline
 90
        9
 70
   128
 43
0.0
 10
95.6574384389
 20
123.6469179195
 10
95.5631900845
 20
123.577500115
 10
95.4725627122
 20
123.5107503634
 10
95.3890402136
 20
123.4492324096
 10
95.3158322988
 20
123.3953125578
 10
95.255752307
 20
123.3510613244
 10
95.211108428
 20
123.318178932
 10
95.1836172757
 20
123.2979304891
 10
95.1743353424
 20
123.2910938364
  0
LINE
  5
2B3
330
1F
100
AcDbEntity
  8
0
  6
Continuous
 62
     7
370
    25
100
AcDbLine
 10
95.9681529818
 20
148.2307977777
 30
0.0
 11
78.130478066
 21
166.0684712034
 31
0.0
  0
LWPOLYLINE
  5
2B4
330
1F
100
AcDbEntity
  8
0
  6
Continuous
 62
     7
370
    25
100
AcDbPolyline
 90
        9
 70
   128
 43
0.0
 10
78.130478066
 20
166.0684712034
 10
78.213248056
 20
166.1512411934
 10
78.2928381381
 20
166.2308312755
 10
78.366187614
 20
166.3041807514
 10
78.4304801641
 20
166.3684703213
 10
78.4832421956
 20
166.421235333
 10
78.5224471507
 20
166.4604402881
 10
78.5465900121
 20
166.4845831495
 10
78.5547439275
 20
166.4927370649
  0
ARC
  5
2B5
330
1F
100
AcDbEntity
  8
0
  6
Continuous
 62
     7
370
    25
100
AcDbCircle
 10
125.7708934457
 20
145.8266348902
 30
0.0
 40
2.60000000000001
100
AcDbArc
 50
135.0
 51
216.3730734413
  0
LINE
  5
2B6
330
1F
100
AcDbEntity
  8
0
  6
Continuous
 62
     7
370
    25
100
AcDbLine
 10
123.9324156461
 20
147.6651124459
 30
0.0
 11
124.3566800175
 21
147.2408480745
 31
0.0
  0
LINE
  5
2B7
330
1F
100
AcDbEntity
  8
0
  6
Continuous
 62
     7
370
    25
100
AcDbLine
 10
91.6674409328
 20
166.0918243032
 30
0.0
 11
91.6674409328
 21
165.4918230873
 31
0.0
  0
LINE
  5
2B8
330
1F
100
AcDbEntity
  8
0
  6
Continuous
 62
     7
370
    25
100
AcDbLine
 10
91.6674409328
 20
166.8918229442
 30
0.0
 11
91.6674409328
 21
167.4918241602
 31
0.0
  0
ARC
  5
2B9
330
1F
100
AcDbEntity
  8
0
  6
Continuous
 62
     7
370
    25
100
AcDbCircle
 10
91.667441648
 20
166.4918237797
 30
0.0
 40
0.4000000000000057
100
AcDbArc
 50
90.0
 51
270.0
  0
LINE
  5
2BA
330
1F
100
AcDbEntity
  8
0
  6
Continuous
 62
     7
370
    25
100
AcDbLine
 10
123.9324156461
 20
120.2665351134
 30
0.0
 11
124.3566800175
 21
120.6907994848
 31
0.0
  0
ARC
  5
2BB
330
1F
100
AcDbEntity
  8
0
  6
Continuous
 62
     7
370
    25
100
AcDbCircle
 10
125.7708934457
 20
122.1050126691
 30
0.0
 40
2.600000000000005
100
AcDbArc
 50
143.6269265587
 51
225.0
  0
LWPOLYLINE
  5
2BC
330
1F
100
AcDbEntity
  8
0
  6
Continuous
 62
     7
370
    25
100
AcDbPolyline
 90
        9
 70
   128
 43
0.0
 10
77.5647942243
 20
165.5027873617
 10
77.4820242343
 20
165.4200173717
 10
77.4024341521
 20
165.3404272896
 10
77.3290846763
 20
165.2670778137
 10
77.2647951064
 20
165.2027852636
 10
77.2120300946
 20
165.1500232321
 10
77.1728251395
 20
165.110818277
 10
77.1486822782
 20
165.0866754156
 10
77.1405283628
 20
165.0785215002
  0
LINE
  5
2BD
330
1F
100
AcDbEntity
  8
0
  6
Continuous
 62
     7
370
    25
100
AcDbLine
 10
77.5647942243
 20
165.5027873617
 30
0.0
 11
95.40246765
 21
147.6651124459
 31
0.0
  0
ARC
  5
2BE
330
1F
100
AcDbEntity
  8
0
  6
Continuous
 62
     7
370
    25
100
AcDbCircle
 10
77.8476364946
 20
165.7856289331
 30
0.0
 40
0.3999999999999791
100
AcDbArc
 50
45.0
 51
225.0
  0
LINE
  5
2BF
330
1F
100
AcDbEntity
  8
0
  6
Continuous
 62
     7
370
    25
100
AcDbLine
 10
123.3667303143
 20
119.7008497816
 30
0.0
 11
122.9424659429
 21
119.2765854102
 31
0.0
  0
LINE
  5
2C0
330
1F
100
AcDbEntity
  8
0
  6
Continuous
 62
     7
370
    25
100
AcDbLine
 10
123.3667303143
 20
119.7008497816
 30
0.0
 11
141.2044052301
 21
101.8631763559
 31
0.0
  0
LWPOLYLINE
  5
2C1
330
1F
100
AcDbEntity
  8
0
  6
Continuous
 62
     7
370
    25
100
AcDbPolyline
 90
        9
 70
   128
 43
0.0
 10
141.2044052301
 20
101.8631763559
 10
141.1216352401
 20
101.780406366
 10
141.0420451579
 20
101.7008162838
 10
140.9686956821
 20
101.6274668079
 10
140.904403132
 20
101.5631772381
 10
140.8516411004
 20
101.5104122263
 10
140.8124361453
 20
101.4712072712
 10
140.788293284
 20
101.4470644098
 10
140.7801393686
 20
101.4389104944
  0
LWPOLYLINE
  5
2C2
330
1F
100
AcDbEntity
  8
0
  6
Continuous
 62
     7
370
    25
100
AcDbPolyline
 90
        9
 70
   128
 43
0.0
 10
119.9863475082
 20
119.9558205705
 10
120.0557653127
 20
119.8615722161
 10
120.1225150643
 20
119.7709448438
 10
120.1840330181
 20
119.6874223452
 10
120.2379528699
 20
119.6142144304
 10
120.2822041032
 20
119.5541344386
 10
120.3150864957
 20
119.5094905597
 10
120.3353349385
 20
119.4819994074
 10
120.3421715913
 20
119.4727174741
  0
ARC
  5
2C3
330
1F
100
AcDbEntity
  8
0
  6
Continuous
 62
     7
370
    25
100
AcDbCircle
 10
121.5282527586
 20
117.862371982
 30
0.0
 40
2.599999999999999
100
AcDbArc
 50
45.0
 51
126.3730734413
  0
LWPOLYLINE
  5
2C4
330
1F
100
AcDbEntity
  8
0
  6
Continuous
 62
     7
370
    25
100
AcDbPolyline
 90
        9
 70
   128
 43
0.0
 10
99.3485357878
 20
119.9558205705
 10
99.2791179834
 20
119.8615722161
 10
99.2123682318
 20
119.7709448438
 10
99.1508502779
 20
119.6874223452
 10
99.0969304261
 20
119.6142144304
 10
99.0526791928
 20
119.5541344386
 10
99.0197968004
 20
119.5094905597
 10
98.9995483575
 20
119.4819994074
 10
98.9927117047
 20
119.4727174741
  0
ARC
  5
2C5
330
1F
100
AcDbEntity
  8
0
  6
Continuous
 62
     7
370
    25
100
AcDbCircle
 10
109.667441648
 20
133.9658237797
 30
0.0
 40
17.4
100
AcDbArc
 50
233.6269265587
 51
306.3730734413
  0
LWPOLYLINE
  5
2C6
330
1F
100
AcDbEntity
  8
0
  6
Continuous
 62
     7
370
    25
100
AcDbPolyline
 90
        9
 70
   128
 43
0.0
 10
119.9863475082
 20
147.9758269888
 10
120.0557653127
 20
148.0700753432
 10
120.1225150643
 20
148.1607027155
 10
120.1840330181
 20
148.2442252141
 10
120.2379528699
 20
148.3174331289
 10
120.2822041032
 20
148.3775131207
 10
120.3150864957
 20
148.4221569997
 10
120.3353349385
 20
148.449648152
 10
120.3421715913
 20
148.4589300853
  0
ARC
  5
2C7
330
1F
100
AcDbEntity
  8
0
  6
Continuous
 62
     7
370
    25
100
AcDbCircle
 10
109.667441648
 20
133.9658237797
 30
0.0
 40
17.40000000000001
100
AcDbArc
 50
53.6269265587
 51
126.3730734413
  0
LWPOLYLINE
  5
2C8
330
1F
100
AcDbEntity
  8
0
  6
Continuous
 62
     7
370
    25
100
AcDbPolyline
 90
        9
 70
   128
 43
0.0
 10
141.7700890718
 20
102.4288601976
 10
141.8528590617
 20
102.5116301876
 10
141.9324491439
 20
102.5912202698
 10
142.0057986198
 20
102.6645697456
 10
142.0700881896
 20
102.7288622957
 10
142.1228532014
 20
102.7816243273
 10
142.1620581565
 20
102.8208292824
 10
142.1862010179
 20
102.8449721437
 10
142.1943549333
 20
102.8531260591
  0
LINE
  5
2C9
330
1F
100
AcDbEntity
  8
0
  6
Continuous
 62
     7
370
    25
100
AcDbLine
 10
141.7700890718
 20
102.4288601976
 30
0.0
 11
123.9324156461
 21
120.2665351134
 31
0.0
  0
ARC
  5
2CA
330
1F
100
AcDbEntity
  8
0
  6
Continuous
 62
     7
370
    25
100
AcDbCircle
 10
141.4872468014
 20
102.1460186263
 30
0.0
 40
0.4000000000000193
100
AcDbArc
 50
225.0
 51
45.0
  0
LINE
  5
2CB
330
1F
100
AcDbEntity
  8
0
  6
Continuous
 62
     7
370
    25
100
AcDbLine
 10
127.6674423633
 20
166.8918229442
 30
0.0
 11
127.6674423633
 21
167.4918241602
 31
0.0
  0
LINE
  5
2CC
330
1F
100
AcDbEntity
  8
0
  6
Continuous
 62
     7
370
    25
100
AcDbLine
 10
127.6674423633
 20
166.8918229442
 30
0.0
 11
91.6674409328
 21
166.8918229442
 31
0.0
  0
LINE
  5
2CD
330
1F
100
AcDbEntity
  8
0
  6
Continuous
 62
     7
370
    25
100
AcDbLine
 10
127.6674423633
 20
166.0918243032
 30
0.0
 11
127.6674423633
 21
165.4918230873
 31
0.0
  0
ARC
  5
2CE
330
1F
100
AcDbEntity
  8
0
  6
Continuous
 62
     7
370
    25
100
AcDbCircle
 10
127.667441648
 20
166.4918237797
 30
0.0
 40
0.4000000000000057
100
AcDbArc
 50
270.0
 51
90.0
  0
LINE
  5
2CF
330
1F
100
AcDbEntity
  8
0
  6
Continuous
 62
     7
370
    25
100
AcDbLine
 10
127.6674423633
 20
101.8398232561
 30
0.0
 11
127.6674423633
 21
102.439824472
 31
0.0
  0
LINE
  5
2D0
330
1F
100
AcDbEntity
  8
0
  6
Continuous
 62
     7
370
    25
100
AcDbLine
 10
127.6674423633
 20
101.8398232561
 30
0.0
 11
91.6674409328
 21
101.8398232561
 31
0.0
  0
LINE
  5
2D1
330
1F
100
AcDbEntity
  8
0
  6
Continuous
 62
     7
370
    25
100
AcDbLine
 10
91.6674409328
 20
101.8398232561
 30
0.0
 11
91.6674409328
 21
102.439824472
 31
0.0
  0
LINE
  5
2D2
330
1F
100
AcDbEntity
  8
0
  6
Continuous
 62
     7
370
    25
100
AcDbLine
 10
127.6674423633
 20
101.0398246151
 30
0.0
 11
127.6674423633
 21
100.4398233991
 31
0.0
  0
ARC
  5
2D3
330
1F
100
AcDbEntity
  8
0
  6
Continuous
 62
     7
370
    25
100
AcDbCircle
 10
127.667441648
 20
101.4398237797
 30
0.0
 40
0.4000000000000057
100
AcDbArc
 50
270.0
 51
90.0
  0
LINE
  5
2D4
330
1F
100
AcDbEntity
  8
0
  6
Continuous
 62
     7
370
    25
100
AcDbLine
 10
91.6674409328
 20
101.0398246151
 30
0.0
 11
91.6674409328
 21
100.4398233991
 31
0.0
  0
LINE
  5
2D5
330
1F
100
AcDbEntity
  8
0
  6
Continuous
 62
     7
370
    25
100
AcDbLine
 10
91.6674409328
 20
101.0398246151
 30
0.0
 11
127.6674423633
 21
101.0398246151
 31
0.0
  0
ARC
  5
2D6
330
1F
100
AcDbEntity
  8
0
  6
Continuous
 62
     7
370
    25
100
AcDbCircle
 10
91.667441648
 20
101.4398237797
 30
0.0
 40
0.3999999999999915
100
AcDbArc
 50
90.0
 51
270.0
  0
LINE
  5
2D7
330
1F
100
AcDbEntity
  8
0
  6
Continuous
 62
     7
370
    25
100
AcDbLine
 10
141.7934421716
 20
151.9658244949
 30
0.0
 11
141.1934409557
 21
151.9658244949
 31
0.0
  0
LINE
  5
2D8
330
1F
100
AcDbEntity
  8
0
  6
Continuous
 62
     7
370
    25
100
AcDbLine
 10
141.7934421716
 20
151.9658244949
 30
0.0
 11
141.7934421716
 21
115.9658230644
 31
0.0
  0
LINE
  5
2D9
330
1F
100
AcDbEntity
  8
0
  6
Continuous
 62
     7
370
    25
100
AcDbLine
 10
141.7934421716
 20
115.9658230644
 30
0.0
 11
141.1934409557
 21
115.9658230644
 31
0.0
  0
LINE
  5
2DA
330
1F
100
AcDbEntity
  8
0
  6
Continuous
 62
     7
370
    25
100
AcDbLine
 10
142.5934408126
 20
151.9658244949
 30
0.0
 11
143.1934420285
 21
151.9658244949
 31
0.0
  0
ARC
  5
2DB
330
1F
100
AcDbEntity
  8
0
  6
Continuous
 62
     7
370
    25
100
AcDbCircle
 10
142.193441648
 20
151.9658237797
 30
0.0
 40
0.4000000000000341
100
AcDbArc
 50
0.0
 51
180.0
  0
LINE
  5
2DC
330
1F
100
AcDbEntity
  8
0
  6
Continuous
 62
     7
370
    25
100
AcDbLine
 10
142.5934408126
 20
115.9658230644
 30
0.0
 11
143.1934420285
 21
115.9658230644
 31
0.0
  0
LINE
  5
2DD
330
1F
100
AcDbEntity
  8
0
  6
Continuous
 62
     7
370
    25
100
AcDbLine
 10
142.5934408126
 20
115.9658230644
 30
0.0
 11
142.5934408126
 21
151.9658244949
 31
0.0
  0
ARC
  5
2DE
330
1F
100
AcDbEntity
  8
0
  6
Continuous
 62
     7
370
    25
100
AcDbCircle
 10
142.193441648
 20
115.9658237797
 30
0.0
 40
0.4000000000000057
100
AcDbArc
 50
180.0
 51
0.0
  0
LINE
  5
2DF
330
1F
100
AcDbEntity
  8
0
  6
Continuous
 62
     7
370
    25
100
AcDbLine
 10
95.9681529818
 20
119.7008497816
 30
0.0
 11
96.3924173532
 21
119.2765854102
 31
0.0
  0
ARC
  5
2E0
330
1F
100
AcDbEntity
  8
0
  6
Continuous
 62
     7
370
    25
100
AcDbCircle
 10
97.8066305375
 20
117.862371982
 30
0.0
 40
2.600000000000013
100
AcDbArc
 50
53.6269265587
 51
135.0
  0
LWPOLYLINE
  5
2E1
330
1F
100
AcDbEntity
  8
0
  6
Continuous
 62
     7
370
    25
100
AcDbPolyline
 90
        9
 70
   128
 43
0.0
 10
78.130478066
 20
101.8631763559
 10
78.213248056
 20
101.780406366
 10
78.2928381381
 20
101.7008162838
 10
78.366187614
 20
101.6274668079
 10
78.4304801641
 20
101.5631772381
 10
78.4832421956
 20
101.5104122263
 10
78.5224471507
 20
101.4712072712
 10
78.5465900121
 20
101.4470644098
 10
78.5547439275
 20
101.4389104944
  0
LINE
  5
2E2
330
1F
100
AcDbEntity
  8
0
  6
Continuous
 62
     7
370
    25
100
AcDbLine
 10
78.130478066
 20
101.8631763559
 30
0.0
 11
95.9681529818
 21
119.7008497816
 31
0.0
  0
LWPOLYLINE
  5
2E3
330
1F
100
AcDbEntity
  8
0
  6
Continuous
 62
     7
370
    25
100
AcDbPolyline
 90
        9
 70
   128
 43
0.0
 10
77.5647942243
 20
102.4288601976
 10
77.4820242343
 20
102.5116301876
 10
77.4024341521
 20
102.5912202698
 10
77.3290846763
 20
102.6645697456
 10
77.2647951064
 20
102.7288622957
 10
77.2120300946
 20
102.7816243273
 10
77.1728251395
 20
102.8208292824
 10
77.1486822782
 20
102.8449721437
 10
77.1405283628
 20
102.8531260591
  0
ARC
  5
2E4
330
1F
100
AcDbEntity
  8
0
  6
Continuous
 62
     7
370
    25
100
AcDbCircle
 10
77.8476364946
 20
102.1460186263
 30
0.0
 40
0.4000000000000093
100
AcDbArc
 50
135.0
 51
315.0
  0
LINE
  5
2E5
330
1F
100
AcDbEntity
  8
0
  6
Continuous
 62
     7
370
    25
100
AcDbLine
 10
95.40246765
 20
120.2665351134
 30
0.0
 11
94.9782032786
 21
120.6907994848
 31
0.0
  0
LINE
  5
2E6
330
1F
100
AcDbEntity
  8
0
  6
Continuous
 62
     7
370
    25
100
AcDbLine
 10
95.40246765
 20
120.2665351134
 30
0.0
 11
77.5647942243
 21
102.4288601976
 31
0.0
  0
ARC
  5
2E7
330
1F
100
AcDbEntity
  8
0
  6
Continuous
 62
     7
370
    25
100
AcDbCircle
 10
93.5639898504
 20
122.1050126691
 30
0.0
 40
2.600000000000021
100
AcDbArc
 50
315.0
 51
36.3730734413
  0
LINE
  5
2E8
330
1F
100
AcDbEntity
  8
0
  6
Continuous
 62
     7
370
    25
100
AcDbLine
 10
91.6674409328
 20
166.0918243032
 30
0.0
 11
127.6674423633
 21
166.0918243032
 31
0.0
  0
LWPOLYLINE
  5
2E9
330
1F
100
AcDbEntity
  8
0
  6
Continuous
 62
     7
370
    25
100
AcDbPolyline
 90
        9
 70
   128
 43
0.0
 10
141.2044052301
 20
166.0684712034
 10
141.1216352401
 20
166.1512411934
 10
141.0420451579
 20
166.2308312755
 10
140.9686956821
 20
166.3041807514
 10
140.904403132
 20
166.3684703213
 10
140.8516411004
 20
166.421235333
 10
140.8124361453
 20
166.4604402881
 10
140.788293284
 20
166.4845831495
 10
140.7801393686
 20
166.4927370649
  0
LINE
  5
2EA
330
1F
100
AcDbEntity
  8
0
  6
Continuous
 62
     7
370
    25
100
AcDbLine
 10
141.2044052301
 20
166.0684712034
 30
0.0
 11
123.3667303143
 21
148.2307977777
 31
0.0
  0
LINE
  5
2EB
330
1F
100
AcDbEntity
  8
0
  6
Continuous
 62
     7
370
    25
100
AcDbLine
 10
123.3667303143
 20
148.2307977777
 30
0.0
 11
122.9424659429
 21
148.6550621491
 31
0.0
  0
LINE
  5
2EC
330
1F
100
AcDbEntity
  8
0
  6
Continuous
 62
     7
370
    25
100
AcDbLine
 10
77.5414411245
 20
151.9658244949
 30
0.0
 11
78.1414423404
 21
151.9658244949
 31
0.0
  0
ARC
  5
2ED
330
1F
100
AcDbEntity
  8
0
  6
Continuous
 62
     7
370
    25
100
AcDbCircle
 10
77.141441648
 20
151.9658237797
 30
0.0
 40
0.4000000000000199
100
AcDbArc
 50
0.0
 51
180.0
  0
LINE
  5
2EE
330
1F
100
AcDbEntity
  8
0
  6
Continuous
 62
     7
370
    25
100
AcDbLine
 10
76.7414424834
 20
151.9658244949
 30
0.0
 11
76.1414412675
 21
151.9658244949
 31
0.0
  0
ARC
  5
2EF
330
1F
100
AcDbEntity
  8
0
  6
Continuous
 62
     7
370
    25
100
AcDbCircle
 10
121.5282527586
 20
150.0692755773
 30
0.0
 40
2.600000000000025
100
AcDbArc
 50
233.6269265587
 51
315.0
  0
LINE
  5
2F0
330
1F
100
AcDbEntity
  8
0
  6
Continuous
 62
     7
370
    25
100
AcDbLine
 10
77.5414411245
 20
115.9658230644
 30
0.0
 11
78.1414423404
 21
115.9658230644
 31
0.0
  0
LINE
  5
2F1
330
1F
100
AcDbEntity
  8
0
  6
Continuous
 62
     7
370
    25
100
AcDbLine
 10
77.5414411245
 20
115.9658230644
 30
0.0
 11
77.5414411245
 21
151.9658244949
 31
0.0
  0
LWPOLYLINE
  5
2F2
330
1F
100
AcDbEntity
  8
0
  6
Continuous
 62
     7
370
    25
100
AcDbPolyline
 90
        9
 70
   128
 43
0.0
 10
141.7700890718
 20
165.5027873617
 10
141.8528590617
 20
165.4200173717
 10
141.9324491439
 20
165.3404272896
 10
142.0057986198
 20
165.2670778137
 10
142.0700881896
 20
165.2027852636
 10
142.1228532014
 20
165.1500232321
 10
142.1620581565
 20
165.110818277
 10
142.1862010179
 20
165.0866754156
 10
142.1943549333
 20
165.0785215002
  0
ARC
  5
2F3
330
1F
100
AcDbEntity
  8
0
  6
Continuous
 62
     7
370
    25
100
AcDbCircle
 10
141.4872468014
 20
165.7856289331
 30
0.0
 40
0.3999999999999791
100
AcDbArc
 50
315.0
 51
135.0
  0
LINE
  5
2F4
330
1F
100
AcDbEntity
  8
0
  6
Continuous
 62
     7
370
    25
100
AcDbLine
 10
123.9324156461
 20
147.6651124459
 30
0.0
 11
141.7700890718
 21
165.5027873617
 31
0.0
  0
LINE
  5
2F5
330
1F
100
AcDbEntity
  8
0
  6
Continuous
 62
     7
370
    25
100
AcDbLine
 10
76.7414424834
 20
115.9658230644
 30
0.0
 11
76.1414412675
 21
115.9658230644
 31
0.0
  0
ARC
  5
2F6
330
1F
100
AcDbEntity
  8
0
  6
Continuous
 62
     7
370
    25
100
AcDbCircle
 10
77.141441648
 20
115.9658237797
 30
0.0
 40
0.4000000000000057
100
AcDbArc
 50
180.0
 51
0.0
  0
LINE
  5
2F7
330
1F
100
AcDbEntity
  8
0
  6
Continuous
 62
     7
370
    25
100
AcDbLine
 10
76.7414424834
 20
151.9658244949
 30
0.0
 11
76.7414424834
 21
115.9658230644
 31
0.0
  0
LINE
  5
2F8
330
1F
100
AcDbEntity
  8
0
  6
Continuous
 62
     7
370
    25
100
AcDbLine
 10
114.6674417225
 20
133.1158237335
 30
0.0
 11
113.2674414931
 21
133.1158237335
 31
0.0
  0
ARC
  5
2F9
330
1F
100
AcDbEntity
  8
0
  6
Continuous
 62
     7
370
    25
100
AcDbCircle
 10
114.667441648
 20
133.9658237797
 30
0.0
 40
0.8499999999999943
100
AcDbArc
 50
270.0
 51
90.0
  0
LINE
  5
2FA
330
1F
100
AcDbEntity
  8
0
  6
Continuous
 62
     7
370
    25
100
AcDbLine
 10
113.2674414931
 20
134.8158238259
 30
0.0
 11
114.6674417225
 21
134.8158238259
 31
0.0
  0
ARC
  5
2FB
330
1F
100
AcDbEntity
  8
0
  6
Continuous
 62
     7
370
    25
100
AcDbCircle
 10
113.267441648
 20
133.9658237797
 30
0.0
 40
0.8499999999999943
100
AcDbArc
 50
90.0
 51
270.0
  0
LINE
  5
2FC
330
1F
100
AcDbEntity
  8
0
  6
Continuous
 62
     7
370
    25
100
AcDbLine
 10
104.6674415735
 20
134.8158238259
 30
0.0
 11
106.067441803
 21
134.8158238259
 31
0.0
  0
ARC
  5
2FD
330
1F
100
AcDbEntity
  8
0
  6
Continuous
 62
     7
370
    25
100
AcDbCircle
 10
104.667441648
 20
133.9658237797
 30
0.0
 40
0.8499999999999943
100
AcDbArc
 50
90.0
 51
270.0
  0
LINE
  5
2FE
330
1F
100
AcDbEntity
  8
0
  6
Continuous
 62
     7
370
    25
100
AcDbLine
 10
106.067441803
 20
133.1158237335
 30
0.0
 11
104.6674415735
 21
133.1158237335
 31
0.0
  0
ARC
  5
2FF
330
1F
100
AcDbEntity
  8
0
  6
Continuous
 62
     7
370
    25
100
AcDbCircle
 10
106.067441648
 20
133.9658237797
 30
0.0
 40
0.8499999999999943
100
AcDbArc
 50
270.0
 51
90.0
  0
CIRCLE
  5
300
330
1F
100
AcDbEntity
  8
0
  6
Continuous
 62
     7
370
    25
100
AcDbCircle
 10
109.667441648
 20
138.9658237797
 30
0.0
 40
0.8499999999999801
  0
CIRCLE
  5
301
330
1F
100
AcDbEntity
  8
0
  6
Continuous
 62
     7
370
    25
100
AcDbCircle
 10
109.667441648
 20
128.9658237797
 30
0.0
 40
0.8499999999999801
  0
INSERT
  5
30D
330
1F
100
AcDbEntity
  8
0
100
AcDbBlockReference
  2
SW_CENTERMARKSYMBOL_0
 10
109.667441648
 20
138.9658237797
 30
0.0
  0
INSERT
  5
319
330
1F
100
AcDbEntity
  8
0
100
AcDbBlockReference
  2
SW_CENTERMARKSYMBOL_1
 10
109.667441648
 20
128.9658237797
 30
0.0
  0
INSERT
  5
325
330
1F
100
AcDbEntity
  8
0
100
AcDbBlockReference
  2
SW_CENTERMARKSYMBOL_2
 10
109.667441648
 20
105.9658237797
 30
0.0
  0
INSERT
  5
331
330
1F
100
AcDbEntity
  8
0
100
AcDbBlockReference
  2
SW_CENTERMARKSYMBOL_3
 10
109.667441648
 20
161.9658237797
 30
0.0
  0
INSERT
  5
33D
330
1F
100
AcDbEntity
  8
0
100
AcDbBlockReference
  2
SW_CENTERMARKSYMBOL_4
 10
137.667441648
 20
133.9658237797
 30
0.0
  0
INSERT
  5
349
330
1F
100
AcDbEntity
  8
0
100
AcDbBlockReference
  2
SW_CENTERMARKSYMBOL_5
 10
81.667441648
 20
133.9658237797
 30
0.0
  0
INSERT
  5
355
330
1F
100
AcDbEntity
  8
0
100
AcDbBlockReference
  2
SW_CENTERMARKSYMBOL_6
 10
75.667441648
 20
107.9658237797
 30
0.0
  0
INSERT
  5
361
330
1F
100
AcDbEntity
  8
0
100
AcDbBlockReference
  2
SW_CENTERMARKSYMBOL_7
 10
83.667441648
 20
99.9658237797
 30
0.0
  0
INSERT
  5
36D
330
1F
100
AcDbEntity
  8
0
100
AcDbBlockReference
  2
SW_CENTERMARKSYMBOL_8
 10
135.667441648
 20
99.9658237797
 30
0.0
  0
INSERT
  5
379
330
1F
100
AcDbEntity
  8
0
100
AcDbBlockReference
  2
SW_CENTERMARKSYMBOL_9
 10
143.667441648
 20
107.9658237797
 30
0.0
  0
INSERT
  5
385
330
1F
100
AcDbEntity
  8
0
100
AcDbBlockReference
  2
SW_CENTERMARKSYMBOL_10
 10
143.667441648
 20
159.9658237797
 30
0.0
  0
INSERT
  5
391
330
1F
100
AcDbEntity
  8
0
100
AcDbBlockReference
  2
SW_CENTERMARKSYMBOL_11
 10
135.667441648
 20
167.9658237797
 30
0.0
  0
INSERT
  5
39D
330
1F
100
AcDbEntity
  8
0
100
AcDbBlockReference
  2
SW_CENTERMARKSYMBOL_12
 10
83.667441648
 20
167.9658237797
 30
0.0
  0
INSERT
  5
3A9
330
1F
100
AcDbEntity
  8
0
100
AcDbBlockReference
  2
SW_CENTERMARKSYMBOL_13
 10
75.667441648
 20
159.9658237797
 30
0.0
  0
ARC
  5
3AA
330
1F
100
AcDbEntity
  8
0
  6
Continuous
 62
     7
370
    25
100
AcDbCircle
 10
184.8893526473
 20
210.4094792811
 30
0.0
 40
0.5999999999999943
100
AcDbArc
 50
0.0
 51
90.0
  0
ARC
  5
3AB
330
1F
100
AcDbEntity
  8
0
  6
Continuous
 62
     7
370
    25
100
AcDbCircle
 10
254.5443641979
 20
210.4094792811
 30
0.0
 40
0.6000000000000227
100
AcDbArc
 50
90.0
 51
180.0
  0
ARC
  5
3AC
330
1F
100
AcDbEntity
  8
0
  6
Continuous
 62
     7
370
    25
100
AcDbCircle
 10
199.416946488
 20
210.4094792811
 30
0.0
 40
0.6000000000000227
100
AcDbArc
 50
0.0
 51
90.0
  0
ARC
  5
3AD
330
1F
100
AcDbEntity
  8
0
  6
Continuous
 62
     7
370
    25
100
AcDbCircle
 10
240.016946488
 20
210.4094792811
 30
0.0
 40
0.5999999999999943
100
AcDbArc
 50
90.0
 51
180.0
  0
ARC
  5
3AE
330
1F
100
AcDbEntity
  8
0
  6
Continuous
 62
     7
370
    25
100
AcDbCircle
 10
186.0893526473
 20
210.4094792811
 30
0.0
 40
0.6000000000000227
100
AcDbArc
 50
180.0
 51
270.0
  0
ARC
  5
3AF
330
1F
100
AcDbEntity
  8
0
  6
Continuous
 62
     7
370
    25
100
AcDbCircle
 10
253.3443641979
 20
210.4094792811
 30
0.0
 40
0.5999999999999943
100
AcDbArc
 50
270.0
 51
0.0
  0
ARC
  5
3B0
330
1F
100
AcDbEntity
  8
0
  6
Continuous
 62
     7
370
    25
100
AcDbCircle
 10
200.616946488
 20
210.4094792811
 30
0.0
 40
0.5999999999999943
100
AcDbArc
 50
180.0
 51
270.0
  0
ARC
  5
3B1
330
1F
100
AcDbEntity
  8
0
  6
Continuous
 62
     7
370
    25
100
AcDbCircle
 10
238.816946488
 20
210.4094792811
 30
0.0
 40
0.5999999999999943
100
AcDbArc
 50
270.0
 51
0.0
  0
LINE
  5
3B2
330
1F
100
AcDbEntity
  8
0
  6
Continuous
 62
     7
370
    25
100
AcDbLine
 10
180.7168598531
 20
212.2094793019
 30
0.0
 11
180.7168598531
 21
211.0094792915
 31
0.0
  0
LINE
  5
3B3
330
1F
100
AcDbEntity
  8
0
  6
Continuous
 62
     7
370
    25
100
AcDbLine
 10
180.7168598531
 20
211.0094792915
 30
0.0
 11
179.7168578266
 21
211.0094792915
 31
0.0
  0
LINE
  5
3B4
330
1F
100
AcDbEntity
  8
0
  6
Continuous
 62
     7
370
    25
100
AcDbLine
 10
179.7168578266
 20
211.0094792915
 30
0.0
 11
179.7168578266
 21
212.2094793019
 31
0.0
  0
LINE
  5
3B5
330
1F
100
AcDbEntity
  8
0
  6
Continuous
 62
     7
370
    25
100
AcDbLine
 10
179.7168578266
 20
212.2094793019
 30
0.0
 11
180.7168598531
 21
212.2094793019
 31
0.0
  0
LINE
  5
3B6
330
1F
100
AcDbEntity
  8
0
  6
Continuous
 62
     7
370
    25
100
AcDbLine
 10
180.7168598531
 20
212.2094793019
 30
0.0
 11
258.7168569921
 21
212.2094793019
 31
0.0
  0
LINE
  5
3B7
330
1F
100
AcDbEntity
  8
0
  6
Continuous
 62
     7
370
    25
100
AcDbLine
 10
258.7168569921
 20
211.0094792915
 30
0.0
 11
258.7168569921
 21
212.2094793019
 31
0.0
  0
LINE
  5
3B8
330
1F
100
AcDbEntity
  8
0
  6
Continuous
 62
     7
370
    25
100
AcDbLine
 10
258.7168569921
 20
211.0094792915
 30
0.0
 11
180.7168598531
 21
211.0094792915
 31
0.0
  0
LINE
  5
3B9
330
1F
100
AcDbEntity
  8
0
  6
Continuous
 62
     7
370
    25
100
AcDbLine
 10
259.7168590187
 20
212.2094793019
 30
0.0
 11
259.7168590187
 21
211.0094792915
 31
0.0
  0
LINE
  5
3BA
330
1F
100
AcDbEntity
  8
0
  6
Continuous
 62
     7
370
    25
100
AcDbLine
 10
259.7168590187
 20
211.0094792915
 30
0.0
 11
258.7168569921
 21
211.0094792915
 31
0.0
  0
LINE
  5
3BB
330
1F
100
AcDbEntity
  8
0
  6
Continuous
 62
     7
370
    25
100
AcDbLine
 10
258.7168569921
 20
212.2094793019
 30
0.0
 11
259.7168590187
 21
212.2094793019
 31
0.0
  0
SPLINE
  5
3BC
330
1F
100
AcDbEntity
  8
0
  6
Continuous
 62
     7
370
    25
100
AcDbSpline
210
0.0
220
0.0
230
1.0
 70
     8
 71
     3
 72
    22
 73
    18
 74
     0
 42
0.000000001
 43
0.00000001
 40
0.0
 40
0.0
 40
0.0
 40
0.0
 40
0.125
 40
0.125
 40
0.25
 40
0.25
 40
0.375
 40
0.375
 40
0.5
 40
0.5
 40
0.625
 40
0.625
 40
0.75
 40
0.75
 40
0.875
 40
0.875
 40
1.0
 40
1.0
 40
1.0
 40
1.0
 10
188.3890531619162
 20
210.4094792810625
 30
0.0
 10
188.3890531619162
 20
210.4491033564671
 30
0.0
 10
188.3917880504387
 20
210.4880655278729
 30
0.0
 10
188.4025037652855
 20
210.5647202102284
 30
0.0
 10
188.4106143844801
 20
210.6028092330976
 30
0.0
 10
188.4317903318888
 20
210.6754492041943
 30
0.0
 10
188.4447487123035
 20
210.7099021585492
 30
0.0
 10
188.4753628912507
 20
210.7751078486032
 30
0.0
 10
188.4931825257809
 20
210.8059836132244
 30
0.0
 10
188.5321082644952
 20
210.8613301573525
 30
0.0
 10
188.5533470928815
 20
210.8861673032522
 30
0.0
 10
188.5994602857291
 20
210.9300351603332
 30
0.0
 10
188.6240191604809
 20
210.9486842479308
 30
0.0
 10
188.6747839001572
 20
210.978628227395
 30
0.0
 10
188.7013129143172
 20
210.9901434692053
 30
0.0
 10
188.7558957984
 20
211.0056229729031
 30
0.0
 10
188.7836952120964
 20
211.0094792810625
 30
0.0
 10
188.8111868632429
 20
211.0094792810625
 30
0.0
  0
ARC
  5
3BD
330
1F
100
AcDbEntity
  8
0
  6
Continuous
 62
     7
370
    25
100
AcDbCircle
 10
250.5629943327
 20
210.4903680555
 30
0.0
 40
0.5326132630303146
100
AcDbArc
 50
351.2646023174
 51
77.0713586088
  0
LINE
  5
3BE
330
1F
100
AcDbEntity
  8
0
  6
Continuous
 62
     7
370
    25
100
AcDbLine
 10
201.7169471143
 20
211.0094792915
 30
0.0
 11
201.7169471143
 21
210.4094792863
 31
0.0
  0
LINE
  5
3BF
330
1F
100
AcDbEntity
  8
0
  6
Continuous
 62
     7
370
    25
100
AcDbLine
 10
201.7169471143
 20
210.4094792863
 30
0.0
 11
237.7169470547
 21
210.4094792863
 31
0.0
  0
LINE
  5
3C0
330
1F
100
AcDbEntity
  8
0
  6
Continuous
 62
     7
370
    25
100
AcDbLine
 10
237.7169470547
 20
211.0094792915
 30
0.0
 11
237.7169470547
 21
210.4094792863
 31
0.0
  0
SPLINE
  5
3C1
330
1F
100
AcDbEntity
  8
0
  6
Continuous
 62
     7
370
    25
100
AcDbSpline
210
0.0
220
0.0
230
1.0
 70
     8
 71
     3
 72
    22
 73
    18
 74
     0
 42
0.000000001
 43
0.00000001
 40
0.0
 40
0.0
 40
0.0
 40
0.0
 40
0.125
 40
0.125
 40
0.25
 40
0.25
 40
0.375
 40
0.375
 40
0.5
 40
0.5
 40
0.625
 40
0.625
 40
0.75
 40
0.75
 40
0.875
 40
0.875
 40
1.0
 40
1.0
 40
1.0
 40
1.0
 10
188.3890531619162
 20
210.4094792810625
 30
0.0
 10
188.3890531619162
 20
210.369857051965
 30
0.0
 10
188.3863185441675
 20
210.3308966656866
 30
0.0
 10
188.3756036728832
 20
210.2542454353971
 30
0.0
 10
188.3674936560698
 20
210.2161581415172
 30
0.0
 10
188.346318414592
 20
210.1435208541573
 30
0.0
 10
188.3333601844392
 20
210.1090690814252
 30
0.0
 10
188.302745007213
 20
210.0438653894565
 30
0.0
 10
188.2849240807734
 20
210.0129902108009
 30
0.0
 10
188.2459931578273
 20
209.95764412088
 30
0.0
 10
188.2247505257192
 20
209.9328069600201
 30
0.0
 10
188.1786260958594
 20
209.8889384277353
 30
0.0
 10
188.1540592186677
 20
209.8702881944226
 30
0.0
 10
188.1032745538612
 20
209.8403416724919
 30
0.0
 10
188.0767307680175
 20
209.8288241502372
 30
0.0
 10
188.0221243065742
 20
209.8133421422034
 30
0.0
 10
187.9942668260599
 20
209.8094792810624
 30
0.0
 10
187.9667594976199
 20
209.8094792810626
 30
0.0
  0
LINE
  5
3C2
330
1F
100
AcDbEntity
  8
0
  6
Continuous
 62
     7
370
    25
100
AcDbLine
 10
187.9667605518
 20
209.8094792811
 30
0.0
 11
186.0893513321
 21
209.8094792811
 31
0.0
  0
LINE
  5
3C3
330
1F
100
AcDbEntity
  8
0
  6
Continuous
 62
     7
370
    25
100
AcDbLine
 10
253.3443655132
 20
209.8094792811
 30
0.0
 11
251.4967019914
 21
209.8094792811
 31
0.0
  0
ARC
  5
3C4
330
1F
100
AcDbEntity
  8
0
  6
Continuous
 62
     7
370
    25
100
AcDbCircle
 10
251.6158675373
 20
210.3285931736
 30
0.0
 40
0.5326158659897449
100
AcDbArc
 50
171.2649344729
 51
257.0714161043
  0
LINE
  5
3C5
330
1F
100
AcDbEntity
  8
0
  6
Continuous
 62
     7
370
    25
100
AcDbLine
 10
201.7169471143
 20
209.8094792811
 30
0.0
 11
201.7169471143
 21
210.4094792863
 31
0.0
  0
LINE
  5
3C6
330
1F
100
AcDbEntity
  8
0
  6
Continuous
 62
     7
370
    25
100
AcDbLine
 10
201.7169471143
 20
209.8094792811
 30
0.0
 11
200.6169463752
 21
209.8094792811
 31
0.0
  0
LINE
  5
3C7
330
1F
100
AcDbEntity
  8
0
  6
Continuous
 62
     7
370
    25
100
AcDbLine
 10
237.7169470547
 20
209.8094792811
 30
0.0
 11
237.7169470547
 21
210.4094792863
 31
0.0
  0
LINE
  5
3C8
330
1F
100
AcDbEntity
  8
0
  6
Continuous
 62
     7
370
    25
100
AcDbLine
 10
237.7169470547
 20
209.8094792811
 30
0.0
 11
201.7169471143
 21
209.8094792811
 31
0.0
  0
LINE
  5
3C9
330
1F
100
AcDbEntity
  8
0
  6
Continuous
 62
     7
370
    25
100
AcDbLine
 10
238.8169463037
 20
209.8094792811
 30
0.0
 11
237.7169470547
 21
209.8094792811
 31
0.0
  0
LINE
  5
3CA
330
1F
100
AcDbEntity
  8
0
  6
Continuous
 62
     7
370
    25
100
AcDbLine
 10
251.069524443
 20
210.4094792863
 30
0.0
 11
251.0894294141
 21
210.4094792863
 31
0.0
  0
ARC
  5
3CB
330
1F
100
AcDbEntity
  8
0
  6
Continuous
 62
     7
370
    25
100
AcDbCircle
 10
250.5384543924
 20
210.4834439859
 30
0.0
 40
0.5361960233808508
100
AcDbArc
 50
352.0711432154
 51
78.8281206722
  0
ARC
  5
3CC
330
1F
100
AcDbEntity
  8
0
  6
Continuous
 62
     7
370
    25
100
AcDbCircle
 10
251.6005876587
 20
210.3355092044
 30
0.0
 40
0.5361899962770433
100
AcDbArc
 50
172.0704728334
 51
258.8284133354
  0
LINE
  5
3CD
330
1F
100
AcDbEntity
  8
0
  6
Continuous
 62
     7
370
    25
100
AcDbLine
 10
200.6169463752
 20
209.8094792811
 30
0.0
 11
187.9667605518
 21
209.8094792811
 31
0.0
  0
LINE
  5
3CE
330
1F
100
AcDbEntity
  8
0
  6
Continuous
 62
     7
370
    25
100
AcDbLine
 10
251.4967019914
 20
209.8094792811
 30
0.0
 11
238.8169463037
 21
209.8094792811
 31
0.0
  0
LINE
  5
3CF
330
1F
100
AcDbEntity
  8
0
  6
Continuous
 62
     8
370
    25
100
AcDbLine
 10
185.4893530964
 20
210.4094792863
 30
0.0
 11
188.3890534996
 21
210.4094792863
 31
0.0
  0
LINE
  5
3D0
330
1F
100
AcDbEntity
  8
0
  6
Continuous
 62
     8
370
    25
100
AcDbLine
 10
251.0894294141
 20
210.4094792863
 30
0.0
 11
253.9443637489
 21
210.4094792863
 31
0.0
  0
LINE
  5
3D1
330
1F
100
AcDbEntity
  8
0
  6
Continuous
 62
     8
370
    25
100
AcDbLine
 10
200.0169466494
 20
210.4094792863
 30
0.0
 11
201.7169471143
 21
210.4094792863
 31
0.0
  0
LINE
  5
3D2
330
1F
100
AcDbEntity
  8
0
  6
Continuous
 62
     8
370
    25
100
AcDbLine
 10
237.7169470547
 20
210.4094792863
 30
0.0
 11
239.4169460295
 21
210.4094792863
 31
0.0
  0
LINE
  5
3D3
330
1F
100
AcDbEntity
  8
0
  6
Continuous
 62
     8
370
    25
100
AcDbLine
 10
188.3890534996
 20
210.4094792863
 30
0.0
 11
200.0169466494
 21
210.4094792863
 31
0.0
  0
LINE
  5
3D4
330
1F
100
AcDbEntity
  8
0
  6
Continuous
 62
     8
370
    25
100
AcDbLine
 10
239.4169460295
 20
210.4094792863
 30
0.0
 11
251.069524443
 21
210.4094792863
 31
0.0
  0
ENDSEC
  0
SECTION
  2
OBJECTS
  0
DICTIONARY
  5
C
330
0
100
AcDbDictionary
281
     1
  3
ACAD_GROUP
350
D
  3
ACAD_LAYOUT
350
1A
  3
ACAD_MLINESTYLE
350
17
  3
ACAD_PLOTSETTINGS
350
19
  3
ACAD_PLOTSTYLENAME
350
E
  3
ACAD_SCALELIST
350
47
  0
DICTIONARY
  5
D
102
{ACAD_REACTORS
330
C
102
}
330
C
100
AcDbDictionary
281
     1
  0
DICTIONARY
  5
1A
102
{ACAD_REACTORS
330
C
102
}
330
C
100
AcDbDictionary
281
     1
  3
Layout1
350
1E
  3
Layout2
350
26
  3
Model
350
22
  0
DICTIONARY
  5
17
102
{ACAD_REACTORS
330
C
102
}
330
C
100
AcDbDictionary
281
     1
  3
Standard
350
18
  0
DICTIONARY
  5
19
102
{ACAD_REACTORS
330
C
102
}
330
C
100
AcDbDictionary
281
     1
  0
ACDBDICTIONARYWDFLT
  5
E
102
{ACAD_REACTORS
330
C
102
}
330
C
100
AcDbDictionary
281
     1
  3
Normal
350
F
100
AcDbDictionaryWithDefault
340
F
  0
DICTIONARY
  5
47
102
{ACAD_REACTORS
330
C
102
}
330
C
100
AcDbDictionary
281
     1
  3
A0
350
48
  3
A1
350
49
  3
A2
350
4A
  3
A3
350
4B
  3
A4
350
4C
  3
A5
350
4D
  3
A6
350
4E
  3
A7
350
4F
  3
A8
350
50
  3
A9
350
51
  3
B0
350
52
  3
B1
350
53
  3
B2
350
54
  3
B3
350
55
  3
B4
350
56
  3
B5
350
57
  3
B6
350
58
  3
B7
350
59
  3
B8
350
5A
  3
B9
350
5B
  3
C0
350
5C
  3
C1
350
5D
  3
C2
350
5E
  3
C3
350
5F
  3
C4
350
60
  3
C5
350
61
  3
C6
350
62
  3
C7
350
63
  3
C8
350
64
  3
C9
350
65
  3
D0
350
66
  3
D1
350
67
  3
D2
350
68
  0
LAYOUT
  5
1E
102
{ACAD_REACTORS
330
1A
102
}
330
1A
100
AcDbPlotSettings
  1

  2
none_device
  4

  6

 40
0.0
 41
0.0
 42
0.0
 43
0.0
 44
0.0
 45
0.0
 46
0.0
 47
0.0
 48
0.0
 49
0.0
140
0.0
141
0.0
142
1.0
143
1.0
 70
   688
 72
     1
 73
     0
 74
     5
  7

 75
    16
147
1.0
148
0.0
149
0.0
100
AcDbLayout
  1
Layout1
 70
     1
 71
     1
 10
0.0
 20
0.0
 11
420.0
 21
297.0
 12
0.0
 22
0.0
 32
0.0
 14
1.0000000000E+20
 24
1.0000000000E+20
 34
1.0000000000E+20
 15
-1.0000000000E+20
 25
-1.0000000000E+20
 35
-1.0000000000E+20
146
0.0
 13
0.0
 23
0.0
 33
0.0
 16
1.0
 26
0.0
 36
0.0
 17
0.0
 27
1.0
 37
0.0
 76
     0
330
1B
  0
LAYOUT
  5
26
102
{ACAD_REACTORS
330
1A
102
}
330
1A
100
AcDbPlotSettings
  1

  2
none_device
  4

  6

 40
0.0
 41
0.0
 42
0.0
 43
0.0
 44
0.0
 45
0.0
 46
0.0
 47
0.0
 48
0.0
 49
0.0
140
0.0
141
0.0
142
1.0
143
1.0
 70
   688
 72
     1
 73
     0
 74
     5
  7

 75
    16
147
1.0
148
0.0
149
0.0
100
AcDbLayout
  1
Layout2
 70
     1
 71
     2
 10
0.0
 20
0.0
 11
0.0
 21
0.0
 12
0.0
 22
0.0
 32
0.0
 14
0.0
 24
0.0
 34
0.0
 15
0.0
 25
0.0
 35
0.0
146
0.0
 13
0.0
 23
0.0
 33
0.0
 16
1.0
 26
0.0
 36
0.0
 17
0.0
 27
1.0
 37
0.0
 76
     0
330
23
  0
LAYOUT
  5
22
102
{ACAD_REACTORS
330
1A
102
}
330
1A
100
AcDbPlotSettings
  1

  2
none_device
  4
Letter_(8.50_x_11.00_Inches)
  6

 40
6.35
 41
6.35
 42
6.35000508
 43
6.35000508
 44
215.9
 45
279.4
 46
0.0
 47
0.0
 48
0.0
 49
0.0
140
0.0
141
0.0
142
1.0
143
1.0
 70
  1712
 72
     1
 73
     0
 74
     0
  7

 75
     0
147
1.0
148
0.0
149
0.0
100
AcDbLayout
  1
Model
 70
     1
 71
     0
 10
0.0
 20
0.0
 11
431.8
 21
279.4
 12
0.0
 22
0.0
 32
0.0
 14
0.0
 24
0.0
 34
0.0
 15
431.8
 25
279.4
 35
0.0
146
0.0
 13
0.0
 23
0.0
 33
0.0
 16
1.0
 26
0.0
 36
0.0
 17
0.0
 27
1.0
 37
0.0
 76
     0
330
1F
331
29
  0
MLINESTYLE
  5
18
102
{ACAD_REACTORS
330
17
102
}
330
17
100
AcDbMlineStyle
  2
Standard
 70
     0
  3

 62
   256
 51
90.0
 52
90.0
 71
     2
 49
0.5
 62
   256
  6
BYLAYER
 49
-0.5
 62
   256
  6
BYLAYER
  0
ACDBPLACEHOLDER
  5
F
102
{ACAD_REACTORS
330
E
102
}
330
E
  0
SCALE
  5
48
102
{ACAD_REACTORS
330
47
102
}
330
47
100
AcDbScale
 70
     0
300
1:1
140
1.0
141
1.0
290
     1
  0
SCALE
  5
49
102
{ACAD_REACTORS
330
47
102
}
330
47
100
AcDbScale
 70
     0
300
1:2
140
1.0
141
2.0
290
     0
  0
SCALE
  5
4A
102
{ACAD_REACTORS
330
47
102
}
330
47
100
AcDbScale
 70
     0
300
1:4
140
1.0
141
4.0
290
     0
  0
SCALE
  5
4B
102
{ACAD_REACTORS
330
47
102
}
330
47
100
AcDbScale
 70
     0
300
1:5
140
1.0
141
5.0
290
     0
  0
SCALE
  5
4C
102
{ACAD_REACTORS
330
47
102
}
330
47
100
AcDbScale
 70
     0
300
1:8
140
1.0
141
8.0
290
     0
  0
SCALE
  5
4D
102
{ACAD_REACTORS
330
47
102
}
330
47
100
AcDbScale
 70
     0
300
1:10
140
1.0
141
10.0
290
     0
  0
SCALE
  5
4E
102
{ACAD_REACTORS
330
47
102
}
330
47
100
AcDbScale
 70
     0
300
1:16
140
1.0
141
16.0
290
     0
  0
SCALE
  5
4F
102
{ACAD_REACTORS
330
47
102
}
330
47
100
AcDbScale
 70
     0
300
1:20
140
1.0
141
20.0
290
     0
  0
SCALE
  5
50
102
{ACAD_REACTORS
330
47
102
}
330
47
100
AcDbScale
 70
     0
300
1:30
140
1.0
141
30.0
290
     0
  0
SCALE
  5
51
102
{ACAD_REACTORS
330
47
102
}
330
47
100
AcDbScale
 70
     0
300
1:40
140
1.0
141
40.0
290
     0
  0
SCALE
  5
52
102
{ACAD_REACTORS
330
47
102
}
330
47
100
AcDbScale
 70
     0
300
1:50
140
1.0
141
50.0
290
     0
  0
SCALE
  5
53
102
{ACAD_REACTORS
330
47
102
}
330
47
100
AcDbScale
 70
     0
300
1:100
140
1.0
141
100.0
290
     0
  0
SCALE
  5
54
102
{ACAD_REACTORS
330
47
102
}
330
47
100
AcDbScale
 70
     0
300
2:1
140
2.0
141
1.0
290
     0
  0
SCALE
  5
55
102
{ACAD_REACTORS
330
47
102
}
330
47
100
AcDbScale
 70
     0
300
4:1
140
4.0
141
1.0
290
     0
  0
SCALE
  5
56
102
{ACAD_REACTORS
330
47
102
}
330
47
100
AcDbScale
 70
     0
300
8:1
140
8.0
141
1.0
290
     0
  0
SCALE
  5
57
102
{ACAD_REACTORS
330
47
102
}
330
47
100
AcDbScale
 70
     0
300
10:1
140
10.0
141
1.0
290
     0
  0
SCALE
  5
58
102
{ACAD_REACTORS
330
47
102
}
330
47
100
AcDbScale
 70
     0
300
100:1
140
100.0
141
1.0
290
     0
  0
SCALE
  5
59
102
{ACAD_REACTORS
330
47
102
}
330
47
100
AcDbScale
 70
     0
300
1/128" = 1'-0"
140
0.0078125
141
12.0
290
     0
  0
SCALE
  5
5A
102
{ACAD_REACTORS
330
47
102
}
330
47
100
AcDbScale
 70
     0
300
1/64" = 1'-0"
140
0.015625
141
12.0
290
     0
  0
SCALE
  5
5B
102
{ACAD_REACTORS
330
47
102
}
330
47
100
AcDbScale
 70
     0
300
1/32" = 1'-0"
140
0.03125
141
12.0
290
     0
  0
SCALE
  5
5C
102
{ACAD_REACTORS
330
47
102
}
330
47
100
AcDbScale
 70
     0
300
1/16" = 1'-0"
140
0.0625
141
12.0
290
     0
  0
SCALE
  5
5D
102
{ACAD_REACTORS
330
47
102
}
330
47
100
AcDbScale
 70
     0
300
3/32" = 1'-0"
140
0.09375
141
12.0
290
     0
  0
SCALE
  5
5E
102
{ACAD_REACTORS
330
47
102
}
330
47
100
AcDbScale
 70
     0
300
1/8" = 1'-0"
140
0.125
141
12.0
290
     0
  0
SCALE
  5
5F
102
{ACAD_REACTORS
330
47
102
}
330
47
100
AcDbScale
 70
     0
300
3/16" = 1'-0"
140
0.1875
141
12.0
290
     0
  0
SCALE
  5
60
102
{ACAD_REACTORS
330
47
102
}
330
47
100
AcDbScale
 70
     0
300
1/4" = 1'-0"
140
0.25
141
12.0
290
     0
  0
SCALE
  5
61
102
{ACAD_REACTORS
330
47
102
}
330
47
100
AcDbScale
 70
     0
300
3/8" = 1'-0"
140
0.375
141
12.0
290
     0
  0
SCALE
  5
62
102
{ACAD_REACTORS
330
47
102
}
330
47
100
AcDbScale
 70
     0
300
1/2" = 1'-0"
140
0.5
141
12.0
290
     0
  0
SCALE
  5
63
102
{ACAD_REACTORS
330
47
102
}
330
47
100
AcDbScale
 70
     0
300
3/4" = 1'-0"
140
0.75
141
12.0
290
     0
  0
SCALE
  5
64
102
{ACAD_REACTORS
330
47
102
}
330
47
100
AcDbScale
 70
     0
300
1" = 1'-0"
140
1.0
141
12.0
290
     0
  0
SCALE
  5
65
102
{ACAD_REACTORS
330
47
102
}
330
47
100
AcDbScale
 70
     0
300
1-1/2" = 1'-0"
140
1.5
141
12.0
290
     0
  0
SCALE
  5
66
102
{ACAD_REACTORS
330
47
102
}
330
47
100
AcDbScale
 70
     0
300
3" = 1'-0"
140
3.0
141
12.0
290
     0
  0
SCALE
  5
67
102
{ACAD_REACTORS
330
47
102
}
330
47
100
AcDbScale
 70
     0
300
6" = 1'-0"
140
6.0
141
12.0
290
     0
  0
SCALE
  5
68
102
{ACAD_REACTORS
330
47
102
}
330
47
100
AcDbScale
 70
     0
300
1'-0" = 1'-0"
140
12.0
141
12.0
290
     0
  0
ENDSEC
  0
EOF
