  0
SECTION
  2
HEADER
  9
$ACADVER
  1
AC1015
  9
$ACADMAINTVER
 70
     6
  9
$DWGCODEPAGE
  3
ANSI_1252
  9
$INSBASE
 10
0.0
 20
0.0
 30
0.0
  9
$EXTMIN
 10
0.0
 20
0.0
 30
0.0
  9
$EXTMAX
 10
841.0
 20
594.0
 30
0.0
  9
$LIMMIN
 10
0.0
 20
0.0
  9
$LIMMAX
 10
841.0
 20
594.0
  9
$ORTHOMODE
 70
     0
  9
$REGENMODE
 70
     1
  9
$FILLMODE
 70
     1
  9
$QTEXTMODE
 70
     0
  9
$MIRRTEXT
 70
     1
  9
$LTSCALE
 40
1.0
  9
$ATTMODE
 70
     1
  9
$TEXTSIZE
 40
3.5
  9
$TRACEWID
 40
1.0
  9
$TEXTSTYLE
  7
Standard
  9
$CLAYER
  8
0
  9
$CELTYPE
  6
ByLayer
  9
$CECOLOR
 62
   256
  9
$CELTSCALE
 40
1.0
  9
$DISPSILH
 70
     0
  9
$DIMSCALE
 40
1.0
  9
$DIMASZ
 40
6.0
  9
$DIMEXO
 40
1.0
  9
$DIMDLI
 40
3.75
  9
$DIMRND
 40
0.0
  9
$DIMDLE
 40
0.0
  9
$DIMEXE
 40
1.0
  9
$DIMTP
 40
0.0
  9
$DIMTM
 40
0.0
  9
$DIMTXT
 40
3.5
  9
$DIMCEN
 40
2.5
  9
$DIMTSZ
 40
0.0
  9
$DIMTOL
 70
     0
  9
$DIMLIM
 70
     0
  9
$DIMTIH
 70
     1
  9
$DIMTOH
 70
     1
  9
$DIMSE1
 70
     0
  9
$DIMSE2
 70
     0
  9
$DIMTAD
 70
     1
  9
$DIMZIN
 70
     0
  9
$DIMBLK
  1

  9
$DIMASO
 70
     1
  9
$DIMSHO
 70
     1
  9
$DIMPOST
  1

  9
$DIMAPOST
  1

  9
$DIMALT
 70
     0
  9
$DIMALTD
 70
     3
  9
$DIMALTF
 40
0.0393700787
  9
$DIMLFAC
 40
1.0
  9
$DIMTOFL
 70
     1
  9
$DIMTVP
 40
0.0
  9
$DIMTIX
 70
     0
  9
$DIMSOXD
 70
     0
  9
$DIMSAH
 70
     0
  9
$DIMBLK1
  1

  9
$DIMBLK2
  1

  9
$DIMSTYLE
  2
ISO-25
  9
$DIMCLRD
 70
     0
  9
$DIMCLRE
 70
     0
  9
$DIMCLRT
 70
     0
  9
$DIMTFAC
 40
1.0
  9
$DIMGAP
 40
1.524
  9
$DIMJUST
 70
     0
  9
$DIMSD1
 70
     0
  9
$DIMSD2
 70
     0
  9
$DIMTOLJ
 70
     0
  9
$DIMTZIN
 70
     0
  9
$DIMALTZ
 70
     0
  9
$DIMALTTZ
 70
     0
  9
$DIMUPT
 70
     0
  9
$DIMDEC
 70
     3
  9
$DIMTDEC
 70
     3
  9
$DIMALTU
 70
     2
  9
$DIMALTTD
 70
     3
  9
$DIMTXSTY
  7
Standard
  9
$DIMAUNIT
 70
     0
  9
$DIMADEC
 70
     2
  9
$DIMALTRND
 40
0.0
  9
$DIMAZIN
 70
     0
  9
$DIMDSEP
 70
    44
  9
$DIMATFIT
 70
     3
  9
$DIMFRAC
 70
     0
  9
$DIMLDRBLK
  1

  9
$DIMLUNIT
 70
     2
  9
$DIMLWD
 70
    -2
  9
$DIMLWE
 70
    -2
  9
$DIMTMOVE
 70
     0
  9
$LUNITS
 70
     2
  9
$LUPREC
 70
     2
  9
$SKETCHINC
 40
1.0
  9
$FILLETRAD
 40
10.0
  9
$AUNITS
 70
     0
  9
$AUPREC
 70
     2
  9
$MENU
  1
.
  9
$ELEVATION
 40
0.0
  9
$PELEVATION
 40
0.0
  9
$THICKNESS
 40
0.0
  9
$LIMCHECK
 70
     0
  9
$CHAMFERA
 40
10.0
  9
$CHAMFERB
 40
10.0
  9
$CHAMFERC
 40
20.0
  9
$CHAMFERD
 40
0.0
  9
$SKPOLY
 70
     0
  9
$TDCREATE
 40
2455413.460010509
  9
$TDUCREATE
 40
2455413.376677176
  9
$TDUPDATE
 40
2455413.460010521
  9
$TDUUPDATE
 40
2455413.376677188
  9
$TDINDWG
 40
0.0000000116
  9
$TDUSRTIMER
 40
0.0000000116
  9
$USRTIMER
 70
     1
  9
$ANGBASE
 50
0.0
  9
$ANGDIR
 70
     0
  9
$PDMODE
 70
     0
  9
$PDSIZE
 40
-1.0
  9
$PLINEWID
 40
0.0
  9
$SPLFRAME
 70
     0
  9
$SPLINETYPE
 70
     6
  9
$SPLINESEGS
 70
     8
  9
$HANDSEED
  5
3BF
  9
$SURFTAB1
 70
     6
  9
$SURFTAB2
 70
     6
  9
$SURFTYPE
 70
     6
  9
$SURFU
 70
     6
  9
$SURFV
 70
     6
  9
$UCSBASE
  2

  9
$UCSNAME
  2

  9
$UCSORG
 10
0.0
 20
0.0
 30
0.0
  9
$UCSXDIR
 10
1.0
 20
0.0
 30
0.0
  9
$UCSYDIR
 10
0.0
 20
1.0
 30
0.0
  9
$UCSORTHOREF
  2

  9
$UCSORTHOVIEW
 70
     0
  9
$UCSORGTOP
 10
0.0
 20
0.0
 30
0.0
  9
$UCSORGBOTTOM
 10
0.0
 20
0.0
 30
0.0
  9
$UCSORGLEFT
 10
0.0
 20
0.0
 30
0.0
  9
$UCSORGRIGHT
 10
0.0
 20
0.0
 30
0.0
  9
$UCSORGFRONT
 10
0.0
 20
0.0
 30
0.0
  9
$UCSORGBACK
 10
0.0
 20
0.0
 30
0.0
  9
$PUCSBASE
  2

  9
$PUCSNAME
  2

  9
$PUCSORG
 10
0.0
 20
0.0
 30
0.0
  9
$PUCSXDIR
 10
1.0
 20
0.0
 30
0.0
  9
$PUCSYDIR
 10
0.0
 20
1.0
 30
0.0
  9
$PUCSORTHOREF
  2

  9
$PUCSORTHOVIEW
 70
     0
  9
$PUCSORGTOP
 10
0.0
 20
0.0
 30
0.0
  9
$PUCSORGBOTTOM
 10
0.0
 20
0.0
 30
0.0
  9
$PUCSORGLEFT
 10
0.0
 20
0.0
 30
0.0
  9
$PUCSORGRIGHT
 10
0.0
 20
0.0
 30
0.0
  9
$PUCSORGFRONT
 10
0.0
 20
0.0
 30
0.0
  9
$PUCSORGBACK
 10
0.0
 20
0.0
 30
0.0
  9
$USERI1
 70
     0
  9
$USERI2
 70
     0
  9
$USERI3
 70
     0
  9
$USERI4
 70
     0
  9
$USERI5
 70
     0
  9
$USERR1
 40
0.0
  9
$USERR2
 40
0.0
  9
$USERR3
 40
0.0
  9
$USERR4
 40
0.0
  9
$USERR5
 40
0.0
  9
$WORLDVIEW
 70
     1
  9
$SHADEDGE
 70
     3
  9
$SHADEDIF
 70
    70
  9
$TILEMODE
 70
     1
  9
$MAXACTVP
 70
    64
  9
$PINSBASE
 10
0.0
 20
0.0
 30
0.0
  9
$PLIMCHECK
 70
     0
  9
$PEXTMIN
 10
1.0000000000E+20
 20
1.0000000000E+20
 30
1.0000000000E+20
  9
$PEXTMAX
 10
-1.0000000000E+20
 20
-1.0000000000E+20
 30
-1.0000000000E+20
  9
$PLIMMIN
 10
0.0
 20
0.0
  9
$PLIMMAX
 10
420.0
 20
297.0
  9
$UNITMODE
 70
     0
  9
$VISRETAIN
 70
     1
  9
$PLINEGEN
 70
     0
  9
$PSLTSCALE
 70
     1
  9
$TREEDEPTH
 70
  3020
  9
$CMLSTYLE
  2
Standard
  9
$CMLJUST
 70
     0
  9
$CMLSCALE
 40
20.0
  9
$PROXYGRAPHICS
 70
     1
  9
$MEASUREMENT
 70
     1
  9
$CELWEIGHT
370
    -1
  9
$ENDCAPS
280
     0
  9
$JOINSTYLE
280
     0
  9
$LWDISPLAY
290
     1
  9
$INSUNITS
 70
     4
  9
$HYPERLINKBASE
  1

  9
$STYLESHEET
  1

  9
$XEDIT
290
     1
  9
$CEPSNTYPE
380
     0
  9
$PSTYLEMODE
290
     1
  9
$FINGERPRINTGUID
  2
{B5254355-5CD3-4810-8A7C-E3C3B575872B}
  9
$VERSIONGUID
  2
{FAEB1C32-E019-11D5-929B-00C0DF256EC4}
  9
$EXTNAMES
290
     1
  9
$PSVPSCALE
 40
0.0
  9
$OLESTARTUP
290
     0
  0
ENDSEC
  0
SECTION
  2
CLASSES
  0
CLASS
  1
ACDBDICTIONARYWDFLT
  2
AcDbDictionaryWithDefault
  3
ObjectDBX Classes
 90
        0
280
     0
281
     0
  0
CLASS
  1
VISUALSTYLE
  2
AcDbVisualStyle
  3
ObjectDBX Classes
 90
     4095
280
     0
281
     0
  0
CLASS
  1
DICTIONARYVAR
  2
AcDbDictionaryVar
  3
ObjectDBX Classes
 90
        0
280
     0
281
     0
  0
CLASS
  1
ACDBPLACEHOLDER
  2
AcDbPlaceHolder
  3
ObjectDBX Classes
 90
        0
280
     0
281
     0
  0
CLASS
  1
LAYOUT
  2
AcDbLayout
  3
ObjectDBX Classes
 90
        0
280
     0
281
     0
  0
ENDSEC
  0
SECTION
  2
TABLES
  0
TABLE
  2
VPORT
  5
8
330
0
100
AcDbSymbolTable
 70
     1
  0
VPORT
  5
29
330
8
100
AcDbSymbolTableRecord
100
AcDbViewportTableRecord
  2
*Active
 70
     0
 10
0.0
 20
0.0
 11
1.0
 21
1.0
 12
420.5
 22
297.0
 13
0.0
 23
0.0
 14
10.0
 24
10.0
 15
10.0
 25
10.0
 16
0.0
 26
0.0
 36
1.0
 17
0.0
 27
0.0
 37
0.0
 40
594.0
 41
1.4158249158
 42
50.0
 43
0.0
 44
0.0
 50
0.0
 51
0.0
 71
     0
 72
  2000
 73
     1
 74
     3
 75
     0
 76
     0
 77
     0
 78
     0
281
     0
 65
     1
110
0.0
120
0.0
130
0.0
111
1.0
121
0.0
131
0.0
112
0.0
122
1.0
132
0.0
 79
     0
146
0.0
  0
ENDTAB
  0
TABLE
  2
LTYPE
  5
5
330
0
100
AcDbSymbolTable
 70
     6
  0
LTYPE
  5
14
330
5
100
AcDbSymbolTableRecord
100
AcDbLinetypeTableRecord
  2
ByBlock
 70
     0
  3

 72
    65
 73
     0
 40
0.0
  0
LTYPE
  5
15
330
5
100
AcDbSymbolTableRecord
100
AcDbLinetypeTableRecord
  2
ByLayer
 70
     0
  3

 72
    65
 73
     0
 40
0.0
  0
LTYPE
  5
16
330
5
100
AcDbSymbolTableRecord
100
AcDbLinetypeTableRecord
  2
Continuous
 70
     0
  3
Solid line
 72
    65
 73
     0
 40
0.0
  0
LTYPE
  5
3B
330
5
100
AcDbSymbolTableRecord
100
AcDbLinetypeTableRecord
  2
HIDDEN
 70
     0
  3
Hidden __ __ __ __ __ __ __ __ __ __ __ __ __ __
 72
    65
 73
     2
 40
1.905
 49
1.27
 74
     0
 49
-0.635
 74
     0
  0
LTYPE
  5
3C
330
5
100
AcDbSymbolTableRecord
100
AcDbLinetypeTableRecord
  2
PHANTOM
 70
     0
  3
Phantom ______  __  __  ______  __  __  ______
 72
    65
 73
     6
 40
12.7
 49
6.35
 74
     0
 49
-1.27
 74
     0
 49
1.27
 74
     0
 49
-1.27
 74
     0
 49
1.27
 74
     0
 49
-1.27
 74
     0
  0
LTYPE
  5
3D
330
5
100
AcDbSymbolTableRecord
100
AcDbLinetypeTableRecord
  2
CENTER
 70
     0
  3
Center ____ _ ____ _ ____ _ ____ _ ____ _ ____
 72
    65
 73
     4
 40
10.16
 49
6.35
 74
     0
 49
-1.27
 74
     0
 49
1.27
 74
     0
 49
-1.27
 74
     0
  0
LTYPE
  5
3E
330
5
100
AcDbSymbolTableRecord
100
AcDbLinetypeTableRecord
  2
CENTERX2
 70
     0
  3
Center (2x) ________  __  ________  __  _____
 72
    65
 73
     4
 40
20.32
 49
12.7
 74
     0
 49
-2.54
 74
     0
 49
2.54
 74
     0
 49
-2.54
 74
     0
  0
LTYPE
  5
3F
330
5
100
AcDbSymbolTableRecord
100
AcDbLinetypeTableRecord
  2
DOT2
 70
     0
  3
Dot (.5x) ........................................
 72
    65
 73
     2
 40
0.635
 49
0.0
 74
     0
 49
-0.635
 74
     0
  0
ENDTAB
  0
TABLE
  2
LAYER
  5
2
330
0
100
AcDbSymbolTable
 70
     1
  0
LAYER
  5
10
330
2
100
AcDbSymbolTableRecord
100
AcDbLayerTableRecord
  2
0
 70
     0
 62
     7
  6
Continuous
370
    -3
390
F
  0
ENDTAB
  0
TABLE
  2
STYLE
  5
3
330
0
100
AcDbSymbolTable
 70
     1
  0
STYLE
  5
11
330
3
100
AcDbSymbolTableRecord
100
AcDbTextStyleTableRecord
  2
Standard
 70
     0
 40
0.0
 41
1.0
 50
0.0
 71
     0
 42
2.5
  3
txt
  4

  0
ENDTAB
  0
TABLE
  2
VIEW
  5
6
330
0
100
AcDbSymbolTable
 70
     0
  0
ENDTAB
  0
TABLE
  2
UCS
  5
7
330
0
100
AcDbSymbolTable
 70
     0
  0
ENDTAB
  0
TABLE
  2
APPID
  5
9
330
0
100
AcDbSymbolTable
 70
     1
  0
APPID
  5
12
330
9
100
AcDbSymbolTableRecord
100
AcDbRegAppTableRecord
  2
ACAD
 70
     0
  0
ENDTAB
  0
TABLE
  2
DIMSTYLE
  5
A
330
0
100
AcDbSymbolTable
 70
     1
100
AcDbDimStyleTable
  0
DIMSTYLE
105
27
330
A
100
AcDbSymbolTableRecord
100
AcDbDimStyleTableRecord
  2
ISO-25
 70
     0
 41
2.5
 42
0.625
 43
3.75
 44
1.25
 73
     0
 74
     0
 77
     1
 78
     8
140
2.5
141
2.5
143
0.0393700787
147
0.625
171
     3
172
     1
271
     2
272
     2
274
     3
278
    44
283
     0
284
     8
340
11
  0
ENDTAB
  0
TABLE
  2
BLOCK_RECORD
  5
1
330
0
100
AcDbSymbolTable
 70
     1
  0
BLOCK_RECORD
  5
1F
330
1
100
AcDbSymbolTableRecord
100
AcDbBlockTableRecord
  2
*Model_Space
340
22
  0
BLOCK_RECORD
  5
1B
330
1
100
AcDbSymbolTableRecord
100
AcDbBlockTableRecord
  2
*Paper_Space
340
1E
  0
BLOCK_RECORD
  5
23
330
1
100
AcDbSymbolTableRecord
100
AcDbBlockTableRecord
  2
*Paper_Space0
340
26
  0
ENDTAB
  0
ENDSEC
  0
SECTION
  2
BLOCKS
  0
BLOCK
  5
20
330
1F
100
AcDbEntity
  8
0
100
AcDbBlockBegin
  2
*Model_Space
 70
     0
 10
0.0
 20
0.0
 30
0.0
  3
*Model_Space
  1

  0
ENDBLK
  5
21
330
1F
100
AcDbEntity
  8
0
100
AcDbBlockEnd
  0
BLOCK
  5
1C
330
1B
100
AcDbEntity
 67
     1
  8
0
100
AcDbBlockBegin
  2
*Paper_Space
 70
     0
 10
0.0
 20
0.0
 30
0.0
  3
*Paper_Space
  1

  0
ENDBLK
  5
1D
330
1B
100
AcDbEntity
 67
     1
  8
0
100
AcDbBlockEnd
  0
BLOCK
  5
24
330
23
100
AcDbEntity
  8
0
100
AcDbBlockBegin
  2
*Paper_Space0
 70
     0
 10
0.0
 20
0.0
 30
0.0
  3
*Paper_Space0
  1

  0
ENDBLK
  5
25
330
23
100
AcDbEntity
  8
0
100
AcDbBlockEnd
  0
ENDSEC
  0
SECTION
  2
ENTITIES
  0
LINE
  5
40
330
1F
100
AcDbEntity
  8
0
  6
Continuous
 62
     7
370
    15
100
AcDbLine
 10
1579.0339577521
 20
1455.5989096973
 30
0.0
 11
1530.6464302863
 21
1455.5989096973
 31
0.0
  0
LINE
  5
41
330
1F
100
AcDbEntity
  8
0
  6
Continuous
 62
     7
370
    15
100
AcDbLine
 10
1499.4214642371
 20
1455.5989096973
 30
0.0
 11
-147.9660999452
 21
1455.5989096973
 31
0.0
  0
LINE
  5
42
330
1F
100
AcDbEntity
  8
0
  6
Continuous
 62
     7
370
    15
100
AcDbLine
 10
-177.9660713349
 20
1455.5989096973
 30
0.0
 11
-847.9660954748
 21
1455.5989096973
 31
0.0
  0
LINE
  5
43
330
1F
100
AcDbEntity
  8
0
  6
Continuous
 62
     7
370
    15
100
AcDbLine
 10
-877.9660966669
 20
1455.5989096973
 30
0.0
 11
-881.3535999928
 21
1455.5989096973
 31
0.0
  0
LINE
  5
44
330
1F
100
AcDbEntity
  8
0
  6
Continuous
 62
     7
370
    15
100
AcDbLine
 10
-912.5785921191
 20
1455.5989096973
 30
0.0
 11
-960.966097466
 21
1455.5989096973
 31
0.0
  0
LINE
  5
45
330
1F
100
AcDbEntity
  8
0
  6
Continuous
 62
     7
370
    15
100
AcDbLine
 10
-960.966097466
 20
1430.5989074621
 30
0.0
 11
-912.5785921191
 21
1430.5989074621
 31
0.0
  0
LINE
  5
46
330
1F
100
AcDbEntity
  8
0
  6
Continuous
 62
     7
370
    15
100
AcDbLine
 10
-881.3535999928
 20
1430.5989074621
 30
0.0
 11
-877.9660966669
 21
1430.5989074621
 31
0.0
  0
LINE
  5
47
330
1F
100
AcDbEntity
  8
0
  6
Continuous
 62
     7
370
    15
100
AcDbLine
 10
-847.9660954748
 20
1430.5989074621
 30
0.0
 11
-177.9660713349
 21
1430.5989074621
 31
0.0
  0
LINE
  5
48
330
1F
100
AcDbEntity
  8
0
  6
Continuous
 62
     7
370
    15
100
AcDbLine
 10
-147.9660999452
 20
1430.5989074621
 30
0.0
 11
1499.4214642371
 21
1430.5989074621
 31
0.0
  0
LINE
  5
49
330
1F
100
AcDbEntity
  8
0
  6
Continuous
 62
     7
370
    15
100
AcDbLine
 10
1530.6464302863
 20
1430.5989074621
 30
0.0
 11
1579.0339577521
 21
1430.5989074621
 31
0.0
  0
LINE
  5
4A
330
1F
100
AcDbEntity
  8
0
  6
Continuous
 62
     7
370
    15
100
AcDbLine
 10
-134.396268097
 20
-647.3010440257
 30
0.0
 11
-134.4661247407
 21
-651.3009925273
 31
0.0
  0
LINE
  5
4B
330
1F
100
AcDbEntity
  8
0
  6
Continuous
 62
     7
370
    15
100
AcDbLine
 10
-106.4660679971
 20
-651.3009925273
 30
0.0
 11
-106.5359246407
 21
-647.3010440257
 31
0.0
  0
LINE
  5
4C
330
1F
100
AcDbEntity
  8
0
  6
Continuous
 62
     7
370
    15
100
AcDbLine
 10
-961.1660975919
 20
1430.5989074621
 30
0.0
 11
-960.966097466
 21
1430.798908985
 31
0.0
  0
LINE
  5
4D
330
1F
100
AcDbEntity
  8
0
  6
Continuous
 62
     7
370
    15
100
AcDbLine
 10
-960.966097466
 20
1455.398910037
 30
0.0
 11
-961.1660975919
 21
1455.5989096973
 31
0.0
  0
LINE
  5
4E
330
1F
100
AcDbEntity
  8
0
  6
Continuous
 62
     7
370
    15
100
AcDbLine
 10
-962.766097566
 20
1455.5989096973
 30
0.0
 11
-962.966097561
 21
1455.398910037
 31
0.0
  0
LINE
  5
4F
330
1F
100
AcDbEntity
  8
0
  6
Continuous
 62
     7
370
    15
100
AcDbLine
 10
-962.966097561
 20
1430.798908985
 30
0.0
 11
-962.766097566
 21
1430.5989074621
 31
0.0
  0
LINE
  5
50
330
1F
100
AcDbEntity
  8
0
  6
Continuous
 62
     7
370
    15
100
AcDbLine
 10
-962.766097566
 20
1430.5989074621
 30
0.0
 11
-961.1660975919
 21
1430.5989074621
 31
0.0
  0
LINE
  5
51
330
1F
100
AcDbEntity
  8
0
  6
Continuous
 62
     7
370
    15
100
AcDbLine
 10
-961.1660975919
 20
1455.5989096973
 30
0.0
 11
-962.766097566
 21
1455.5989096973
 31
0.0
  0
LINE
  5
52
330
1F
100
AcDbEntity
  8
0
  6
Continuous
 62
     7
370
    15
100
AcDbLine
 10
1579.23399094
 20
1455.5989096973
 30
0.0
 11
1579.0339577521
 21
1455.398910037
 31
0.0
  0
LINE
  5
53
330
1F
100
AcDbEntity
  8
0
  6
Continuous
 62
     7
370
    15
100
AcDbLine
 10
1579.0339577521
 20
1430.798908985
 30
0.0
 11
1579.23399094
 21
1430.5989074621
 31
0.0
  0
LINE
  5
54
330
1F
100
AcDbEntity
  8
0
  6
Continuous
 62
     7
370
    15
100
AcDbLine
 10
1580.8340180244
 20
1455.5989096973
 30
0.0
 11
1579.23399094
 21
1455.5989096973
 31
0.0
  0
LINE
  5
55
330
1F
100
AcDbEntity
  8
0
  6
Continuous
 62
     7
370
    15
100
AcDbLine
 10
1579.23399094
 20
1430.5989074621
 30
0.0
 11
1580.8340180244
 21
1430.5989074621
 31
0.0
  0
LINE
  5
56
330
1F
100
AcDbEntity
  8
0
  6
Continuous
 62
     7
370
    15
100
AcDbLine
 10
1580.8340180244
 20
1430.5989074621
 30
0.0
 11
1581.0338127936
 21
1430.798908985
 31
0.0
  0
LINE
  5
57
330
1F
100
AcDbEntity
  8
0
  6
Continuous
 62
     7
370
    15
100
AcDbLine
 10
1581.0338127936
 20
1455.398910037
 30
0.0
 11
1580.8340180244
 21
1455.5989096973
 31
0.0
  0
LINE
  5
58
330
1F
100
AcDbEntity
  8
0
  6
Continuous
 62
     7
370
    15
100
AcDbLine
 10
1579.0339577521
 20
1443.098906717
 30
0.0
 11
1579.0339577521
 21
1455.5989096973
 31
0.0
  0
LINE
  5
59
330
1F
100
AcDbEntity
  8
0
  6
Continuous
 62
     7
370
    15
100
AcDbLine
 10
1579.0339577521
 20
1430.5989074621
 30
0.0
 11
1579.0339577521
 21
1443.098906717
 31
0.0
  0
LINE
  5
5A
330
1F
100
AcDbEntity
  8
0
  6
Continuous
 62
     7
370
    15
100
AcDbLine
 10
-960.966097466
 20
1443.098906717
 30
0.0
 11
-960.966097466
 21
1455.5989096973
 31
0.0
  0
LINE
  5
5B
330
1F
100
AcDbEntity
  8
0
  6
Continuous
 62
     7
370
    15
100
AcDbLine
 10
-960.966097466
 20
1430.5989074621
 30
0.0
 11
-960.966097466
 21
1443.098906717
 31
0.0
  0
SPLINE
  5
5C
330
1F
100
AcDbEntity
  8
0
  6
Continuous
 62
     7
370
    15
100
AcDbSpline
210
0.0
220
0.0
230
1.0
 70
    11
 71
     3
 72
    28
 73
    24
 74
     0
 42
0.00000001
 43
0.00000001
 40
0.0
 40
0.0
 40
0.0
 40
0.0
 40
0.047554998855648
 40
0.0949663729075508
 40
0.1460688031890612
 40
0.203457131643988
 40
0.2467859917871444
 40
0.2901846772352684
 40
0.3330335353404942
 40
0.3834822094247314
 40
0.4410917530078252
 40
0.4950480732326987
 40
0.5415898516679792
 40
0.5869404100884075
 40
0.6370238693535313
 40
0.6937077578323025
 40
0.7381345469657137
 40
0.7826957483874977
 40
0.8249697966993171
 40
0.8737311731463089
 40
0.9306925188310963
 40
0.9860188427474528
 40
1.0
 40
1.0
 40
1.0
 40
1.0
 10
316.5838587607414
 20
1443.098906717019
 30
0.0
 10
316.51390316113
 20
1442.326107464648
 30
0.0
 10
316.3742032406266
 20
1440.782842955145
 30
0.0
 10
315.3012414372732
 20
1438.69716493634
 30
0.0
 10
313.6469278836237
 20
1436.945835496556
 30
0.0
 10
311.5188171347542
 20
1435.832295404621
 30
0.0
 10
309.1933633726619
 20
1435.449812744277
 30
0.0
 10
307.07862613494
 20
1435.707711590061
 30
0.0
 10
305.0834514185457
 20
1436.543496813426
 30
0.0
 10
303.2674543455606
 20
1438.014816043332
 30
0.0
 10
301.8969072662067
 20
1440.184449127216
 30
0.0
 10
301.356664663556
 20
1442.73416953696
 30
0.0
 10
301.6454462279729
 20
1445.118163608389
 30
0.0
 10
302.5610472581662
 20
1447.195748194934
 30
0.0
 10
304.1015429503568
 20
1448.990552099855
 30
0.0
 10
306.135927412969
 20
1450.209249886563
 30
0.0
 10
308.4447140526353
 20
1450.732028105639
 30
0.0
 10
310.6083389276525
 20
1450.583233556964
 30
0.0
 10
312.6384508360754
 20
1449.846162563779
 30
0.0
 10
314.4976329182968
 20
1448.498475043843
 30
0.0
 10
315.9732841373601
 20
1446.446832677785
 30
0.0
 10
316.5463963208149
 20
1444.446105757637
 30
0.0
 10
316.5775701687602
 20
1443.325052827633
 30
0.0
 10
316.5838587607416
 20
1443.098906717019
 30
0.0
  0
SPLINE
  5
5D
330
1F
100
AcDbEntity
  8
0
  6
Continuous
 62
     7
370
    15
100
AcDbSpline
210
0.0
220
0.0
230
1.0
 70
    11
 71
     3
 72
    28
 73
    24
 74
     0
 42
0.00000001
 43
0.00000001
 40
0.0
 40
0.0
 40
0.0
 40
0.0
 40
0.0475550797092037
 40
0.0949654876921755
 40
0.1460712191710061
 40
0.2034554475634932
 40
0.2467867906205342
 40
0.290187979976949
 40
0.3330325098005759
 40
0.3834848964470262
 40
0.4410932885530109
 40
0.4950497005150403
 40
0.5415918469232749
 40
0.5869424824492439
 40
0.6370245074995372
 40
0.6937084923529073
 40
0.7381353570212561
 40
0.782696634206507
 40
0.8249707543931495
 40
0.873732213744794
 40
0.9306922907044771
 40
0.9860187086872856
 40
1.0
 40
1.0
 40
1.0
 40
1.0
 10
1456.583844455627
 20
1443.098906717019
 30
0.0
 10
1456.513874695438
 20
1442.326115402088
 30
0.0
 10
1456.374148036569
 20
1440.782883752482
 30
0.0
 10
1455.301396850999
 20
1438.697049926475
 30
0.0
 10
1453.646793104493
 20
1436.945989988174
 30
0.0
 10
1451.518853326062
 20
1435.832213310228
 30
0.0
 10
1449.193347978239
 20
1435.44984152546
 30
0.0
 10
1447.078572225378
 20
1435.707636845081
 30
0.0
 10
1445.083508866569
 20
1436.543631577945
 30
0.0
 10
1443.267285116023
 20
1438.014687313622
 30
0.0
 10
1441.896945266976
 20
1440.184497581847
 30
0.0
 10
1441.356592033395
 20
1442.734172232605
 30
0.0
 10
1441.645586928043
 20
1445.118160221941
 30
0.0
 10
1442.561151743112
 20
1447.195711030569
 30
0.0
 10
1444.101519987895
 20
1448.99058865474
 30
0.0
 10
1446.13591943997
 20
1450.209244744479
 30
0.0
 10
1448.444698023956
 20
1450.732029105113
 30
0.0
 10
1450.608325796357
 20
1450.583234209047
 30
0.0
 10
1452.638433438109
 20
1449.846159026251
 30
0.0
 10
1454.497615486749
 20
1448.498504526875
 30
0.0
 10
1455.973186233576
 20
1446.446795603958
 30
0.0
 10
1456.546120615849
 20
1444.446098428941
 30
0.0
 10
1456.57751195086
 20
1443.325052782417
 30
0.0
 10
1456.583844455627
 20
1443.098906717019
 30
0.0
  0
SPLINE
  5
5E
330
1F
100
AcDbEntity
  8
0
  6
Continuous
 62
     7
370
    15
100
AcDbSpline
210
0.0
220
0.0
230
1.0
 70
    11
 71
     3
 72
    28
 73
    24
 74
     0
 42
0.00000001
 43
0.00000001
 40
0.0
 40
0.0
 40
0.0
 40
0.0
 40
0.0475552008131599
 40
0.0949665905848558
 40
0.146069037809972
 40
0.2034573852926674
 40
0.246785055182828
 40
0.2901849700789284
 40
0.3330338423911921
 40
0.3834834398778161
 40
0.4410923778404134
 40
0.4950487159551331
 40
0.5415905098218822
 40
0.5869410832788161
 40
0.637024559149694
 40
0.6937084664226686
 40
0.7381340853172581
 40
0.7826953015138272
 40
0.8249693638420996
 40
0.8737307564564935
 40
0.9306921210274783
 40
0.9860187830211401
 40
1.0
 40
1.0
 40
1.0
 40
1.0
 10
-253.4160744820565
 20
1443.098906717019
 30
0.0
 10
-253.4860548726324
 20
1442.326108165135
 30
0.0
 10
-253.6258040270288
 20
1440.782848071045
 30
0.0
 10
-254.6987468808343
 20
1438.697164258173
 30
0.0
 10
-256.3530661886824
 20
1436.945835564068
 30
0.0
 10
-258.481159393335
 20
1435.832304797526
 30
0.0
 10
-260.8066068201621
 20
1435.449811849741
 30
0.0
 10
-262.9213522270444
 20
1435.70770190909
 30
0.0
 10
-264.9165425614538
 20
1436.543512885302
 30
0.0
 10
-266.7326085753003
 20
1438.014779018361
 30
0.0
 10
-268.1030703341486
 20
1440.184470005464
 30
0.0
 10
-268.6433320206759
 20
1442.734167131446
 30
0.0
 10
-268.3545457026416
 20
1445.118164247689
 30
0.0
 10
-267.4389458008897
 20
1447.195747797954
 30
0.0
 10
-265.8984500895882
 20
1448.990553150848
 30
0.0
 10
-263.8640803080812
 20
1450.209236465985
 30
0.0
 10
-261.5553206962924
 20
1450.732032891038
 30
0.0
 10
-259.391713120704
 20
1450.583232079798
 30
0.0
 10
-257.3616015305075
 20
1449.846162774534
 30
0.0
 10
-255.5024205550145
 20
1448.4984761168
 30
0.0
 10
-254.0267607367519
 20
1446.446823274444
 30
0.0
 10
-253.4536646335876
 20
1444.446107854567
 30
0.0
 10
-253.4223845045007
 20
1443.325052903421
 30
0.0
 10
-253.4160744820564
 20
1443.098906717019
 30
0.0
  0
SPLINE
  5
5F
330
1F
100
AcDbEntity
  8
0
  6
Continuous
 62
     7
370
    15
100
AcDbSpline
210
0.0
220
0.0
230
1.0
 70
    11
 71
     3
 72
    28
 73
    24
 74
     0
 42
0.00000001
 43
0.00000001
 40
0.0
 40
0.0
 40
0.0
 40
0.0
 40
0.0475550651793
 40
0.0949665053545452
 40
0.1460706140291362
 40
0.2034569236910605
 40
0.2467858442637893
 40
0.2901870203594734
 40
0.3330337376447206
 40
0.3834842954549618
 40
0.4410926699593697
 40
0.4950490654356425
 40
0.5415909087814643
 40
0.5869405742133221
 40
0.6370256227697187
 40
0.6937095903039538
 40
0.7381340714599427
 40
0.7826953350300114
 40
0.8249694423002862
 40
0.8737308867534317
 40
0.9306923118806448
 40
0.9860187129591071
 40
0.9999999999999999
 40
0.9999999999999999
 40
0.9999999999999999
 40
0.9999999999999999
 10
886.5839112128288
 20
1443.098906717019
 30
0.0
 10
886.513953750879
 20
1442.326109048468
 30
0.0
 10
886.3742501113231
 20
1440.782847701821
 30
0.0
 10
885.301305052783
 20
1438.697122455072
 30
0.0
 10
883.6468668771548
 20
1436.945909642101
 30
0.0
 10
881.5188501947388
 20
1435.832264611291
 30
0.0
 10
879.1933780926205
 20
1435.449825488203
 30
0.0
 10
877.0786158560417
 20
1435.707666828748
 30
0.0
 10
875.0834832224891
 20
1436.543565797834
 30
0.0
 10
873.2673630485705
 20
1438.014737293751
 30
0.0
 10
871.8969950041902
 20
1440.18449039166
 30
0.0
 10
871.3566959521114
 20
1442.734170449486
 30
0.0
 10
871.6455405002223
 20
1445.118130429711
 30
0.0
 10
872.5609352392528
 20
1447.195814417368
 30
0.0
 10
874.1016213898059
 20
1448.990511639034
 30
0.0
 10
876.1359399892372
 20
1450.209229550751
 30
0.0
 10
878.4446853027762
 20
1450.732036151253
 30
0.0
 10
880.6082717256235
 20
1450.583230824016
 30
0.0
 10
882.6383868407687
 20
1449.846163517632
 30
0.0
 10
884.4975527576032
 20
1448.498474160318
 30
0.0
 10
885.9732759543339
 20
1446.446835392767
 30
0.0
 10
886.5461859172282
 20
1444.446097522713
 30
0.0
 10
886.5775784636805
 20
1443.325052630293
 30
0.0
 10
886.5839112128288
 20
1443.098906717019
 30
0.0
  0
SPLINE
  5
60
330
1F
100
AcDbEntity
  8
0
  6
Continuous
 62
     7
370
    15
100
AcDbSpline
210
0.0
220
0.0
230
1.0
 70
    11
 71
     3
 72
    28
 73
    24
 74
     0
 42
0.00000001
 43
0.00000001
 40
0.0
 40
0.0
 40
0.0
 40
0.0
 40
0.0475551080025482
 40
0.0949663672213787
 40
0.1460694174184811
 40
0.203457240539264
 40
0.2467855130015363
 40
0.2901854281607572
 40
0.3330337505857465
 40
0.3834831217080682
 40
0.4410923723783117
 40
0.4950486798373283
 40
0.5415905100844646
 40
0.5869407849802347
 40
0.6370246410076884
 40
0.6937085486243202
 40
0.7381338715463547
 40
0.7826953940275508
 40
0.8249694566121181
 40
0.8737310862609505
 40
0.9306922804770736
 40
0.9860187829363762
 40
1.0
 40
1.0
 40
1.0
 40
1.0
 10
-823.4160971318215
 20
1443.098906717019
 30
0.0
 10
-823.4860671096563
 20
1442.3261089705
 30
0.0
 10
-823.6257954141145
 20
1440.7828511026
 30
0.0
 10
-824.6987196308405
 20
1438.69714533727
 30
0.0
 10
-826.3530893844286
 20
1436.945859333938
 30
0.0
 10
-828.481164045496
 20
1435.832291696289
 30
0.0
 10
-830.8066209478417
 20
1435.449815454877
 30
0.0
 10
-832.9213669617718
 20
1435.707696311131
 30
0.0
 10
-834.9165405533536
 20
1436.543517557662
 30
0.0
 10
-836.7325827548196
 20
1438.014791004498
 30
0.0
 10
-838.1030843309414
 20
1440.184458774138
 30
0.0
 10
-838.6433387806547
 20
1442.734172175238
 30
0.0
 10
-838.354515008409
 20
1445.118152237762
 30
0.0
 10
-837.438982904852
 20
1447.195766610471
 30
0.0
 10
-835.8984351859763
 20
1448.990542220626
 30
0.0
 10
-833.864079591076
 20
1450.209235186993
 30
0.0
 10
-831.5553186792046
 20
1450.732033785477
 30
0.0
 10
-829.3917100896945
 20
1450.583234065086
 30
0.0
 10
-827.3615929584105
 20
1449.846159075288
 30
0.0
 10
-825.5023998149205
 20
1448.498484620156
 30
0.0
 10
-824.0267462910754
 20
1446.446822978654
 30
0.0
 10
-823.4536889252654
 20
1444.446104897639
 30
0.0
 10
-823.4224074419959
 20
1443.325052841137
 30
0.0
 10
-823.4160971318215
 20
1443.098906717019
 30
0.0
  0
LINE
  5
61
330
1F
100
AcDbEntity
  8
0
  6
Continuous
 62
     7
370
    15
100
AcDbLine
 10
-147.4660765801
 20
-651.3009925273
 30
0.0
 11
-147.4660765801
 21
-655.3011794475
 31
0.0
  0
LINE
  5
62
330
1F
100
AcDbEntity
  8
0
  6
Continuous
 62
     7
370
    15
100
AcDbLine
 10
-82.9661023293
 20
-651.3009925273
 30
0.0
 11
-82.9661023293
 21
-655.3011794475
 31
0.0
  0
LINE
  5
63
330
1F
100
AcDbEntity
  8
0
  6
Continuous
 62
     7
370
    15
100
AcDbLine
 10
-147.4660765801
 20
-655.3011794475
 30
0.0
 11
-82.9661023293
 21
-655.3011794475
 31
0.0
  0
LINE
  5
64
330
1F
100
AcDbEntity
  8
0
  6
Continuous
 62
     7
370
    15
100
AcDbLine
 10
-147.4660765801
 20
-651.3009925273
 30
0.0
 11
-82.9661023293
 21
-651.3009925273
 31
0.0
  0
LINE
  5
65
330
1F
100
AcDbEntity
  8
0
  6
Continuous
 62
     7
370
    15
100
AcDbLine
 10
-894.8079031383
 20
1443.9208249661
 30
0.0
 11
-895.1752018605
 21
1441.6408169183
 31
0.0
  0
LINE
  5
66
330
1F
100
AcDbEntity
  8
0
  6
Continuous
 62
     7
370
    15
100
AcDbLine
 10
-894.8079031383
 20
1443.9208249661
 30
0.0
 11
-896.5987991963
 21
1445.3789147648
 31
0.0
  0
LINE
  5
67
330
1F
100
AcDbEntity
  8
0
  6
Continuous
 62
     7
370
    15
100
AcDbLine
 10
-899.1242852484
 20
1442.2769921932
 30
0.0
 11
-897.3333966409
 21
1440.8189023945
 31
0.0
  0
LINE
  5
68
330
1F
100
AcDbEntity
  8
0
  6
Continuous
 62
     7
370
    15
100
AcDbLine
 10
-898.7569939767
 20
1444.557000241
 30
0.0
 11
-899.1242852484
 21
1442.2769921932
 31
0.0
  0
LINE
  5
69
330
1F
100
AcDbEntity
  8
0
  6
Continuous
 62
     7
370
    15
100
AcDbLine
 10
-895.1752018605
 20
1441.6408169183
 30
0.0
 11
-897.3333966409
 21
1440.8189023945
 31
0.0
  0
LINE
  5
6A
330
1F
100
AcDbEntity
  8
0
  6
Continuous
 62
     7
370
    15
100
AcDbLine
 10
-898.7569939767
 20
1444.557000241
 30
0.0
 11
-896.5987991963
 21
1445.3789147648
 31
0.0
  0
LINE
  5
6B
330
1F
100
AcDbEntity
  8
0
  6
Continuous
 62
     7
370
    15
100
AcDbLine
 10
1516.8248284186
 20
1441.6408169183
 30
0.0
 11
1514.6666634406
 21
1440.8189023945
 31
0.0
  0
LINE
  5
6C
330
1F
100
AcDbEntity
  8
0
  6
Continuous
 62
     7
370
    15
100
AcDbLine
 10
1513.2430661048
 20
1444.557000241
 30
0.0
 11
1515.4012310828
 21
1445.3789147648
 31
0.0
  0
LINE
  5
6D
330
1F
100
AcDbEntity
  8
0
  6
Continuous
 62
     7
370
    15
100
AcDbLine
 10
1512.8756630744
 20
1442.2769921932
 30
0.0
 11
1514.6666634406
 21
1440.8189023945
 31
0.0
  0
LINE
  5
6E
330
1F
100
AcDbEntity
  8
0
  6
Continuous
 62
     7
370
    15
100
AcDbLine
 10
1513.2430661048
 20
1444.557000241
 30
0.0
 11
1512.8756630744
 21
1442.2769921932
 31
0.0
  0
LINE
  5
6F
330
1F
100
AcDbEntity
  8
0
  6
Continuous
 62
     7
370
    15
100
AcDbLine
 10
1517.1919930305
 20
1443.9208249661
 30
0.0
 11
1515.4012310828
 21
1445.3789147648
 31
0.0
  0
LINE
  5
70
330
1F
100
AcDbEntity
  8
0
  6
Continuous
 62
     7
370
    15
100
AcDbLine
 10
1517.1919930305
 20
1443.9208249661
 30
0.0
 11
1516.8248284186
 21
1441.6408169183
 31
0.0
  0
CIRCLE
  5
71
330
1F
100
AcDbEntity
  8
0
  6
Continuous
 62
     7
370
    15
100
AcDbCircle
 10
1515.033902439
 20
1443.0989082906
 30
0.0
 40
20.00000000000004
  0
ARC
  5
72
330
1F
100
AcDbEntity
  8
0
  6
Continuous
 62
     7
370
    15
100
AcDbCircle
 10
-896.966097561
 20
1443.0989082906
 30
0.0
 40
19.99999999999993
100
AcDbArc
 50
18.1948723388
 51
341.8051276612
  0
LINE
  5
73
330
1F
100
AcDbEntity
  8
0
  6
Continuous
 62
     7
370
    15
100
AcDbLine
 10
-961.1660975919
 20
1430.5989074621
 30
0.0
 11
-961.1660975919
 21
1455.5989096973
 31
0.0
  0
LINE
  5
74
330
1F
100
AcDbEntity
  8
0
  6
Continuous
 62
     7
370
    15
100
AcDbLine
 10
-962.766097566
 20
1455.5989096973
 30
0.0
 11
-962.766097566
 21
1430.5989074621
 31
0.0
  0
LINE
  5
75
330
1F
100
AcDbEntity
  8
0
  6
Continuous
 62
     7
370
    15
100
AcDbLine
 10
-962.966097561
 20
1430.798908985
 30
0.0
 11
-962.966097561
 21
1455.398910037
 31
0.0
  0
LINE
  5
76
330
1F
100
AcDbEntity
  8
0
  6
Continuous
 62
     7
370
    15
100
AcDbLine
 10
1579.23399094
 20
1442.9962786946
 30
0.0
 11
1579.23399094
 21
1430.5989074621
 31
0.0
  0
LINE
  5
77
330
1F
100
AcDbEntity
  8
0
  6
Continuous
 62
     7
370
    15
100
AcDbLine
 10
1579.23399094
 20
1455.5989096973
 30
0.0
 11
1579.23399094
 21
1442.9962786946
 31
0.0
  0
LINE
  5
78
330
1F
100
AcDbEntity
  8
0
  6
Continuous
 62
     7
370
    15
100
AcDbLine
 10
1580.8340180244
 20
1442.9962786946
 30
0.0
 11
1580.8340180244
 21
1455.5989096973
 31
0.0
  0
LINE
  5
79
330
1F
100
AcDbEntity
  8
0
  6
Continuous
 62
     7
370
    15
100
AcDbLine
 10
1580.8340180244
 20
1430.5989074621
 30
0.0
 11
1580.8340180244
 21
1442.9962786946
 31
0.0
  0
LINE
  5
7A
330
1F
100
AcDbEntity
  8
0
  6
Continuous
 62
     7
370
    15
100
AcDbLine
 10
1581.0338127936
 20
1442.9979215476
 30
0.0
 11
1581.0338127936
 21
1430.798908985
 31
0.0
  0
LINE
  5
7B
330
1F
100
AcDbEntity
  8
0
  6
Continuous
 62
     7
370
    15
100
AcDbLine
 10
1581.0338127936
 20
1455.398910037
 30
0.0
 11
1581.0338127936
 21
1442.9979215476
 31
0.0
  0
LINE
  5
7C
330
1F
100
AcDbEntity
  8
0
  6
Continuous
 62
     7
370
    15
100
AcDbLine
 10
-160.5243217622
 20
1294.2603121612
 30
0.0
 11
-160.3930127297
 21
1291.3649941895
 31
0.0
  0
LINE
  5
7D
330
1F
100
AcDbEntity
  8
0
  6
Continuous
 62
     7
370
    15
100
AcDbLine
 10
-163.0974542771
 20
1295.5942268583
 30
0.0
 11
-160.5243217622
 21
1294.2603121612
 31
0.0
  0
LINE
  5
7E
330
1F
100
AcDbEntity
  8
0
  6
Continuous
 62
     7
370
    15
100
AcDbLine
 10
-165.539218155
 20
1294.0328235838
 30
0.0
 11
-163.0974542771
 21
1295.5942268583
 31
0.0
  0
LINE
  5
7F
330
1F
100
AcDbEntity
  8
0
  6
Continuous
 62
     7
370
    15
100
AcDbLine
 10
-165.4078495179
 20
1291.1375056121
 30
0.0
 11
-165.539218155
 21
1294.0328235838
 31
0.0
  0
LINE
  5
80
330
1F
100
AcDbEntity
  8
0
  6
Continuous
 62
     7
370
    15
100
AcDbLine
 10
-162.8347766076
 20
1289.8035909149
 30
0.0
 11
-165.4078495179
 21
1291.1375056121
 31
0.0
  0
CIRCLE
  5
81
330
1F
100
AcDbEntity
  8
0
  6
Continuous
 62
     7
370
    15
100
AcDbCircle
 10
-162.966097561
 20
1292.6989082906
 30
0.0
 40
7.785000000000005
  0
LINE
  5
82
330
1F
100
AcDbEntity
  8
0
  6
Continuous
 62
     7
370
    15
100
AcDbLine
 10
-160.3930127297
 20
1291.3649941895
 30
0.0
 11
-162.8347766076
 21
1289.8035909149
 31
0.0
  0
ARC
  5
83
330
1F
100
AcDbEntity
  8
0
  6
Continuous
 62
     7
370
    15
100
AcDbCircle
 10
-162.966097561
 20
1292.6989082906
 30
0.0
 40
2.510000000000034
100
AcDbArc
 50
182.5973255621
 51
242.5973255621
  0
ARC
  5
84
330
1F
100
AcDbEntity
  8
0
  6
Continuous
 62
     7
370
    15
100
AcDbCircle
 10
-162.966097561
 20
1292.6989082906
 30
0.0
 40
2.510000000000005
100
AcDbArc
 50
302.5973255621
 51
2.5973255621
  0
ARC
  5
85
330
1F
100
AcDbEntity
  8
0
  6
Continuous
 62
     7
370
    15
100
AcDbCircle
 10
-162.966097561
 20
1292.6989082906
 30
0.0
 40
2.510000000000006
100
AcDbArc
 50
242.5973255621
 51
302.5973255621
  0
ARC
  5
86
330
1F
100
AcDbEntity
  8
0
  6
Continuous
 62
     7
370
    15
100
AcDbCircle
 10
-162.966097561
 20
1292.6989082906
 30
0.0
 40
2.510000000000034
100
AcDbArc
 50
122.5973255621
 51
182.5973255621
  0
ARC
  5
87
330
1F
100
AcDbEntity
  8
0
  6
Continuous
 62
     7
370
    15
100
AcDbCircle
 10
-162.966097561
 20
1292.6989082906
 30
0.0
 40
2.509999999999994
100
AcDbArc
 50
62.5973255621
 51
122.5973255621
  0
ARC
  5
88
330
1F
100
AcDbEntity
  8
0
  6
Continuous
 62
     7
370
    15
100
AcDbCircle
 10
-162.966097561
 20
1292.6989082906
 30
0.0
 40
2.510000000000005
100
AcDbArc
 50
2.5973255621
 51
62.5973255621
  0
LINE
  5
89
330
1F
100
AcDbEntity
  8
0
  6
Continuous
 62
     7
370
    15
100
AcDbLine
 10
-865.4078524981
 20
1346.1375053141
 30
0.0
 11
-865.5391913329
 21
1349.0328232858
 31
0.0
  0
LINE
  5
8A
330
1F
100
AcDbEntity
  8
0
  6
Continuous
 62
     7
370
    15
100
AcDbLine
 10
-862.8347572361
 20
1344.8035868916
 30
0.0
 11
-865.4078524981
 21
1346.1375053141
 31
0.0
  0
CIRCLE
  5
8B
330
1F
100
AcDbEntity
  8
0
  6
Continuous
 62
     7
370
    15
100
AcDbCircle
 10
-862.966097561
 20
1347.6989082906
 30
0.0
 40
7.785000000000108
  0
LINE
  5
8C
330
1F
100
AcDbEntity
  8
0
  6
Continuous
 62
     7
370
    15
100
AcDbLine
 10
-860.5243470942
 20
1349.2603118631
 30
0.0
 11
-860.3930082594
 21
1346.3649901661
 31
0.0
  0
LINE
  5
8D
330
1F
100
AcDbEntity
  8
0
  6
Continuous
 62
     7
370
    15
100
AcDbLine
 10
-865.5391913329
 20
1349.0328232858
 30
0.0
 11
-863.0974349056
 21
1350.5942302856
 31
0.0
  0
LINE
  5
8E
330
1F
100
AcDbEntity
  8
0
  6
Continuous
 62
     7
370
    15
100
AcDbLine
 10
-860.3930082594
 20
1346.3649901661
 30
0.0
 11
-862.8347572361
 21
1344.8035868916
 31
0.0
  0
LINE
  5
8F
330
1F
100
AcDbEntity
  8
0
  6
Continuous
 62
     7
370
    15
100
AcDbLine
 10
-863.0974349056
 20
1350.5942302856
 30
0.0
 11
-860.5243470942
 21
1349.2603118631
 31
0.0
  0
ARC
  5
90
330
1F
100
AcDbEntity
  8
0
  6
Continuous
 62
     7
370
    15
100
AcDbCircle
 10
-862.966097561
 20
1347.6989082906
 30
0.0
 40
2.510000000000034
100
AcDbArc
 50
2.5973255621
 51
62.5973255621
  0
ARC
  5
91
330
1F
100
AcDbEntity
  8
0
  6
Continuous
 62
     7
370
    15
100
AcDbCircle
 10
-862.966097561
 20
1347.6989082906
 30
0.0
 40
2.510000000000034
100
AcDbArc
 50
242.5973255621
 51
302.5973255621
  0
ARC
  5
92
330
1F
100
AcDbEntity
  8
0
  6
Continuous
 62
     7
370
    15
100
AcDbCircle
 10
-862.966097561
 20
1347.6989082906
 30
0.0
 40
2.510000000000034
100
AcDbArc
 50
302.5973255621
 51
2.5973255621
  0
ARC
  5
93
330
1F
100
AcDbEntity
  8
0
  6
Continuous
 62
     7
370
    15
100
AcDbCircle
 10
-862.966097561
 20
1347.6989082906
 30
0.0
 40
2.510000000000034
100
AcDbArc
 50
182.5973255621
 51
242.5973255621
  0
ARC
  5
94
330
1F
100
AcDbEntity
  8
0
  6
Continuous
 62
     7
370
    15
100
AcDbCircle
 10
-862.966097561
 20
1347.6989082906
 30
0.0
 40
2.510000000000034
100
AcDbArc
 50
122.5973255621
 51
182.5973255621
  0
ARC
  5
95
330
1F
100
AcDbEntity
  8
0
  6
Continuous
 62
     7
370
    15
100
AcDbCircle
 10
-862.966097561
 20
1347.6989082906
 30
0.0
 40
2.510000000000034
100
AcDbArc
 50
62.5973255621
 51
122.5973255621
  0
LINE
  5
96
330
1F
100
AcDbEntity
  8
0
  6
Continuous
 62
     7
370
    15
100
AcDbLine
 10
-160.5243217622
 20
1349.2603118631
 30
0.0
 11
-160.3930127297
 21
1346.3649901661
 31
0.0
  0
LINE
  5
97
330
1F
100
AcDbEntity
  8
0
  6
Continuous
 62
     7
370
    15
100
AcDbLine
 10
-165.539218155
 20
1349.0328232858
 30
0.0
 11
-163.0974542771
 21
1350.5942302856
 31
0.0
  0
LINE
  5
98
330
1F
100
AcDbEntity
  8
0
  6
Continuous
 62
     7
370
    15
100
AcDbLine
 10
-160.3930127297
 20
1346.3649901661
 30
0.0
 11
-162.8347766076
 21
1344.8035868916
 31
0.0
  0
LINE
  5
99
330
1F
100
AcDbEntity
  8
0
  6
Continuous
 62
     7
370
    15
100
AcDbLine
 10
-165.4078495179
 20
1346.1375053141
 30
0.0
 11
-165.539218155
 21
1349.0328232858
 31
0.0
  0
LINE
  5
9A
330
1F
100
AcDbEntity
  8
0
  6
Continuous
 62
     7
370
    15
100
AcDbLine
 10
-163.0974542771
 20
1350.5942302856
 30
0.0
 11
-160.5243217622
 21
1349.2603118631
 31
0.0
  0
CIRCLE
  5
9B
330
1F
100
AcDbEntity
  8
0
  6
Continuous
 62
     7
370
    15
100
AcDbCircle
 10
-162.966097561
 20
1347.6989082906
 30
0.0
 40
7.785000000000033
  0
LINE
  5
9C
330
1F
100
AcDbEntity
  8
0
  6
Continuous
 62
     7
370
    15
100
AcDbLine
 10
-162.8347766076
 20
1344.8035868916
 30
0.0
 11
-165.4078495179
 21
1346.1375053141
 31
0.0
  0
ARC
  5
9D
330
1F
100
AcDbEntity
  8
0
  6
Continuous
 62
     7
370
    15
100
AcDbCircle
 10
-162.966097561
 20
1347.6989082906
 30
0.0
 40
2.510000000000005
100
AcDbArc
 50
182.5973255621
 51
242.5973255621
  0
ARC
  5
9E
330
1F
100
AcDbEntity
  8
0
  6
Continuous
 62
     7
370
    15
100
AcDbCircle
 10
-162.966097561
 20
1347.6989082906
 30
0.0
 40
2.509999999999994
100
AcDbArc
 50
242.5973255621
 51
302.5973255621
  0
ARC
  5
9F
330
1F
100
AcDbEntity
  8
0
  6
Continuous
 62
     7
370
    15
100
AcDbCircle
 10
-162.966097561
 20
1347.6989082906
 30
0.0
 40
2.510000000000044
100
AcDbArc
 50
302.5973255621
 51
2.5973255621
  0
ARC
  5
A0
330
1F
100
AcDbEntity
  8
0
  6
Continuous
 62
     7
370
    15
100
AcDbCircle
 10
-162.966097561
 20
1347.6989082906
 30
0.0
 40
2.510000000000006
100
AcDbArc
 50
62.5973255621
 51
122.5973255621
  0
ARC
  5
A1
330
1F
100
AcDbEntity
  8
0
  6
Continuous
 62
     7
370
    15
100
AcDbCircle
 10
-162.966097561
 20
1347.6989082906
 30
0.0
 40
2.510000000000044
100
AcDbArc
 50
2.5973255621
 51
62.5973255621
  0
ARC
  5
A2
330
1F
100
AcDbEntity
  8
0
  6
Continuous
 62
     7
370
    15
100
AcDbCircle
 10
-162.966097561
 20
1347.6989082906
 30
0.0
 40
2.510000000000005
100
AcDbArc
 50
122.5973255621
 51
182.5973255621
  0
LINE
  5
A3
330
1F
100
AcDbEntity
  8
0
  6
Continuous
 62
     7
370
    15
100
AcDbLine
 10
-860.5243470942
 20
1294.2603121612
 30
0.0
 11
-860.3930082594
 21
1291.3649941895
 31
0.0
  0
LINE
  5
A4
330
1F
100
AcDbEntity
  8
0
  6
Continuous
 62
     7
370
    15
100
AcDbLine
 10
-865.4078524981
 20
1291.1375056121
 30
0.0
 11
-865.5391913329
 21
1294.0328235838
 31
0.0
  0
LINE
  5
A5
330
1F
100
AcDbEntity
  8
0
  6
Continuous
 62
     7
370
    15
100
AcDbLine
 10
-862.8347572361
 20
1289.8035909149
 30
0.0
 11
-865.4078524981
 21
1291.1375056121
 31
0.0
  0
LINE
  5
A6
330
1F
100
AcDbEntity
  8
0
  6
Continuous
 62
     7
370
    15
100
AcDbLine
 10
-860.3930082594
 20
1291.3649941895
 30
0.0
 11
-862.8347572361
 21
1289.8035909149
 31
0.0
  0
CIRCLE
  5
A7
330
1F
100
AcDbEntity
  8
0
  6
Continuous
 62
     7
370
    15
100
AcDbCircle
 10
-862.966097561
 20
1292.6989082906
 30
0.0
 40
7.785000000000118
  0
LINE
  5
A8
330
1F
100
AcDbEntity
  8
0
  6
Continuous
 62
     7
370
    15
100
AcDbLine
 10
-863.0974349056
 20
1295.5942268583
 30
0.0
 11
-860.5243470942
 21
1294.2603121612
 31
0.0
  0
LINE
  5
A9
330
1F
100
AcDbEntity
  8
0
  6
Continuous
 62
     7
370
    15
100
AcDbLine
 10
-865.5391913329
 20
1294.0328235838
 30
0.0
 11
-863.0974349056
 21
1295.5942268583
 31
0.0
  0
ARC
  5
AA
330
1F
100
AcDbEntity
  8
0
  6
Continuous
 62
     7
370
    15
100
AcDbCircle
 10
-862.966097561
 20
1292.6989082906
 30
0.0
 40
2.510000000000034
100
AcDbArc
 50
2.5973255621
 51
62.5973255621
  0
ARC
  5
AB
330
1F
100
AcDbEntity
  8
0
  6
Continuous
 62
     7
370
    15
100
AcDbCircle
 10
-862.966097561
 20
1292.6989082906
 30
0.0
 40
2.510000000000034
100
AcDbArc
 50
302.5973255621
 51
2.5973255621
  0
ARC
  5
AC
330
1F
100
AcDbEntity
  8
0
  6
Continuous
 62
     7
370
    15
100
AcDbCircle
 10
-862.966097561
 20
1292.6989082906
 30
0.0
 40
2.510000000000034
100
AcDbArc
 50
242.5973255621
 51
302.5973255621
  0
ARC
  5
AD
330
1F
100
AcDbEntity
  8
0
  6
Continuous
 62
     7
370
    15
100
AcDbCircle
 10
-862.966097561
 20
1292.6989082906
 30
0.0
 40
2.510000000000023
100
AcDbArc
 50
182.5973255621
 51
242.5973255621
  0
ARC
  5
AE
330
1F
100
AcDbEntity
  8
0
  6
Continuous
 62
     7
370
    15
100
AcDbCircle
 10
-862.966097561
 20
1292.6989082906
 30
0.0
 40
2.510000000000226
100
AcDbArc
 50
122.5973255621
 51
182.5973255621
  0
ARC
  5
AF
330
1F
100
AcDbEntity
  8
0
  6
Continuous
 62
     7
370
    15
100
AcDbCircle
 10
-862.966097561
 20
1292.6989082906
 30
0.0
 40
2.510000000000226
100
AcDbArc
 50
62.5973255621
 51
122.5973255621
  0
LINE
  5
B0
330
1F
100
AcDbEntity
  8
0
  6
Continuous
 62
     7
370
    15
100
AcDbLine
 10
-865.5391913329
 20
1483.0328266236
 30
0.0
 11
-863.0974349056
 21
1484.5942298982
 31
0.0
  0
LINE
  5
B1
330
1F
100
AcDbEntity
  8
0
  6
Continuous
 62
     7
370
    15
100
AcDbLine
 10
-862.8347572361
 20
1478.8035865042
 30
0.0
 11
-865.4078524981
 21
1480.1375012013
 31
0.0
  0
LINE
  5
B2
330
1F
100
AcDbEntity
  8
0
  6
Continuous
 62
     7
370
    15
100
AcDbLine
 10
-865.4078524981
 20
1480.1375012013
 30
0.0
 11
-865.5391913329
 21
1483.0328266236
 31
0.0
  0
LINE
  5
B3
330
1F
100
AcDbEntity
  8
0
  6
Continuous
 62
     7
370
    15
100
AcDbLine
 10
-863.0974349056
 20
1484.5942298982
 30
0.0
 11
-860.5243470942
 21
1483.260315201
 31
0.0
  0
CIRCLE
  5
B4
330
1F
100
AcDbEntity
  8
0
  6
Continuous
 62
     7
370
    15
100
AcDbCircle
 10
-862.966097561
 20
1481.6989082906
 30
0.0
 40
7.784999999999891
  0
LINE
  5
B5
330
1F
100
AcDbEntity
  8
0
  6
Continuous
 62
     7
370
    15
100
AcDbLine
 10
-860.5243470942
 20
1483.260315201
 30
0.0
 11
-860.3930082594
 21
1480.3649897787
 31
0.0
  0
LINE
  5
B6
330
1F
100
AcDbEntity
  8
0
  6
Continuous
 62
     7
370
    15
100
AcDbLine
 10
-860.3930082594
 20
1480.3649897787
 30
0.0
 11
-862.8347572361
 21
1478.8035865042
 31
0.0
  0
ARC
  5
B7
330
1F
100
AcDbEntity
  8
0
  6
Continuous
 62
     7
370
    15
100
AcDbCircle
 10
-862.966097561
 20
1481.6989082906
 30
0.0
 40
2.510000000000034
100
AcDbArc
 50
122.5973255621
 51
182.5973255621
  0
ARC
  5
B8
330
1F
100
AcDbEntity
  8
0
  6
Continuous
 62
     7
370
    15
100
AcDbCircle
 10
-862.966097561
 20
1481.6989082906
 30
0.0
 40
2.510000000000034
100
AcDbArc
 50
2.5973255621
 51
62.5973255621
  0
ARC
  5
B9
330
1F
100
AcDbEntity
  8
0
  6
Continuous
 62
     7
370
    15
100
AcDbCircle
 10
-862.966097561
 20
1481.6989082906
 30
0.0
 40
2.510000000000034
100
AcDbArc
 50
242.5973255621
 51
302.5973255621
  0
ARC
  5
BA
330
1F
100
AcDbEntity
  8
0
  6
Continuous
 62
     7
370
    15
100
AcDbCircle
 10
-862.966097561
 20
1481.6989082906
 30
0.0
 40
2.510000000000034
100
AcDbArc
 50
302.5973255621
 51
2.5973255621
  0
ARC
  5
BB
330
1F
100
AcDbEntity
  8
0
  6
Continuous
 62
     7
370
    15
100
AcDbCircle
 10
-862.966097561
 20
1481.6989082906
 30
0.0
 40
2.510000000000034
100
AcDbArc
 50
182.5973255621
 51
242.5973255621
  0
ARC
  5
BC
330
1F
100
AcDbEntity
  8
0
  6
Continuous
 62
     7
370
    15
100
AcDbCircle
 10
-862.966097561
 20
1481.6989082906
 30
0.0
 40
2.510000000000034
100
AcDbArc
 50
62.5973255621
 51
122.5973255621
  0
LINE
  5
BD
330
1F
100
AcDbEntity
  8
0
  6
Continuous
 62
     7
370
    15
100
AcDbLine
 10
-860.5243470942
 20
1423.2603128168
 30
0.0
 11
-860.3930082594
 21
1420.3649911198
 31
0.0
  0
LINE
  5
BE
330
1F
100
AcDbEntity
  8
0
  6
Continuous
 62
     7
370
    15
100
AcDbLine
 10
-863.0974349056
 20
1424.5942293766
 30
0.0
 11
-860.5243470942
 21
1423.2603128168
 31
0.0
  0
LINE
  5
BF
330
1F
100
AcDbEntity
  8
0
  6
Continuous
 62
     7
370
    15
100
AcDbLine
 10
-865.5391913329
 20
1423.0328242394
 30
0.0
 11
-863.0974349056
 21
1424.5942293766
 31
0.0
  0
LINE
  5
C0
330
1F
100
AcDbEntity
  8
0
  6
Continuous
 62
     7
370
    15
100
AcDbLine
 10
-865.4078524981
 20
1420.1375044051
 30
0.0
 11
-865.5391913329
 21
1423.0328242394
 31
0.0
  0
LINE
  5
C1
330
1F
100
AcDbEntity
  8
0
  6
Continuous
 62
     7
370
    15
100
AcDbLine
 10
-862.8347572361
 20
1418.8035878453
 30
0.0
 11
-865.4078524981
 21
1420.1375044051
 31
0.0
  0
LINE
  5
C2
330
1F
100
AcDbEntity
  8
0
  6
Continuous
 62
     7
370
    15
100
AcDbLine
 10
-860.3930082594
 20
1420.3649911198
 30
0.0
 11
-862.8347572361
 21
1418.8035878453
 31
0.0
  0
CIRCLE
  5
C3
330
1F
100
AcDbEntity
  8
0
  6
Continuous
 62
     7
370
    15
100
AcDbCircle
 10
-862.966097561
 20
1421.6989082906
 30
0.0
 40
7.785000000000118
  0
ARC
  5
C4
330
1F
100
AcDbEntity
  8
0
  6
Continuous
 62
     7
370
    15
100
AcDbCircle
 10
-862.966097561
 20
1421.6989082906
 30
0.0
 40
2.510000000000034
100
AcDbArc
 50
62.5973255621
 51
122.5973255621
  0
ARC
  5
C5
330
1F
100
AcDbEntity
  8
0
  6
Continuous
 62
     7
370
    15
100
AcDbCircle
 10
-862.966097561
 20
1421.6989082906
 30
0.0
 40
2.510000000000034
100
AcDbArc
 50
122.5973255621
 51
182.5973255621
  0
ARC
  5
C6
330
1F
100
AcDbEntity
  8
0
  6
Continuous
 62
     7
370
    15
100
AcDbCircle
 10
-862.966097561
 20
1421.6989082906
 30
0.0
 40
2.510000000000034
100
AcDbArc
 50
242.5973255621
 51
302.5973255621
  0
ARC
  5
C7
330
1F
100
AcDbEntity
  8
0
  6
Continuous
 62
     7
370
    15
100
AcDbCircle
 10
-862.966097561
 20
1421.6989082906
 30
0.0
 40
2.510000000000034
100
AcDbArc
 50
302.5973255621
 51
2.5973255621
  0
ARC
  5
C8
330
1F
100
AcDbEntity
  8
0
  6
Continuous
 62
     7
370
    15
100
AcDbCircle
 10
-862.966097561
 20
1421.6989082906
 30
0.0
 40
2.510000000000023
100
AcDbArc
 50
182.5973255621
 51
242.5973255621
  0
ARC
  5
C9
330
1F
100
AcDbEntity
  8
0
  6
Continuous
 62
     7
370
    15
100
AcDbCircle
 10
-862.966097561
 20
1421.6989082906
 30
0.0
 40
2.510000000000034
100
AcDbArc
 50
2.5973255621
 51
62.5973255621
  0
LINE
  5
CA
330
1F
100
AcDbEntity
  8
0
  6
Continuous
 62
     7
370
    15
100
AcDbLine
 10
-165.4078495179
 20
1480.1375012013
 30
0.0
 11
-165.539218155
 21
1483.0328266236
 31
0.0
  0
CIRCLE
  5
CB
330
1F
100
AcDbEntity
  8
0
  6
Continuous
 62
     7
370
    15
100
AcDbCircle
 10
-162.966097561
 20
1481.6989082906
 30
0.0
 40
7.785000000000023
  0
LINE
  5
CC
330
1F
100
AcDbEntity
  8
0
  6
Continuous
 62
     7
370
    15
100
AcDbLine
 10
-163.0974542771
 20
1484.5942298982
 30
0.0
 11
-160.5243217622
 21
1483.260315201
 31
0.0
  0
LINE
  5
CD
330
1F
100
AcDbEntity
  8
0
  6
Continuous
 62
     7
370
    15
100
AcDbLine
 10
-162.8347766076
 20
1478.8035865042
 30
0.0
 11
-165.4078495179
 21
1480.1375012013
 31
0.0
  0
LINE
  5
CE
330
1F
100
AcDbEntity
  8
0
  6
Continuous
 62
     7
370
    15
100
AcDbLine
 10
-165.539218155
 20
1483.0328266236
 30
0.0
 11
-163.0974542771
 21
1484.5942298982
 31
0.0
  0
LINE
  5
CF
330
1F
100
AcDbEntity
  8
0
  6
Continuous
 62
     7
370
    15
100
AcDbLine
 10
-160.3930127297
 20
1480.3649897787
 30
0.0
 11
-162.8347766076
 21
1478.8035865042
 31
0.0
  0
LINE
  5
D0
330
1F
100
AcDbEntity
  8
0
  6
Continuous
 62
     7
370
    15
100
AcDbLine
 10
-160.5243217622
 20
1483.260315201
 30
0.0
 11
-160.3930127297
 21
1480.3649897787
 31
0.0
  0
ARC
  5
D1
330
1F
100
AcDbEntity
  8
0
  6
Continuous
 62
     7
370
    15
100
AcDbCircle
 10
-162.966097561
 20
1481.6989082906
 30
0.0
 40
2.510000000000165
100
AcDbArc
 50
302.5973255621
 51
2.5973255621
  0
ARC
  5
D2
330
1F
100
AcDbEntity
  8
0
  6
Continuous
 62
     7
370
    15
100
AcDbCircle
 10
-162.966097561
 20
1481.6989082906
 30
0.0
 40
2.510000000000165
100
AcDbArc
 50
242.5973255621
 51
302.5973255621
  0
ARC
  5
D3
330
1F
100
AcDbEntity
  8
0
  6
Continuous
 62
     7
370
    15
100
AcDbCircle
 10
-162.966097561
 20
1481.6989082906
 30
0.0
 40
2.510000000000005
100
AcDbArc
 50
182.5973255621
 51
242.5973255621
  0
ARC
  5
D4
330
1F
100
AcDbEntity
  8
0
  6
Continuous
 62
     7
370
    15
100
AcDbCircle
 10
-162.966097561
 20
1481.6989082906
 30
0.0
 40
2.510000000000005
100
AcDbArc
 50
122.5973255621
 51
182.5973255621
  0
ARC
  5
D5
330
1F
100
AcDbEntity
  8
0
  6
Continuous
 62
     7
370
    15
100
AcDbCircle
 10
-162.966097561
 20
1481.6989082906
 30
0.0
 40
2.509999999999973
100
AcDbArc
 50
62.5973255621
 51
122.5973255621
  0
ARC
  5
D6
330
1F
100
AcDbEntity
  8
0
  6
Continuous
 62
     7
370
    15
100
AcDbCircle
 10
-162.966097561
 20
1481.6989082906
 30
0.0
 40
2.510000000000023
100
AcDbArc
 50
2.5973255621
 51
62.5973255621
  0
LINE
  5
D7
330
1F
100
AcDbEntity
  8
0
  6
Continuous
 62
     7
370
    15
100
AcDbLine
 10
-163.0974542771
 20
1424.5942293766
 30
0.0
 11
-160.5243217622
 21
1423.2603128168
 31
0.0
  0
LINE
  5
D8
330
1F
100
AcDbEntity
  8
0
  6
Continuous
 62
     7
370
    15
100
AcDbLine
 10
-165.539218155
 20
1423.0328242394
 30
0.0
 11
-163.0974542771
 21
1424.5942293766
 31
0.0
  0
LINE
  5
D9
330
1F
100
AcDbEntity
  8
0
  6
Continuous
 62
     7
370
    15
100
AcDbLine
 10
-165.4078495179
 20
1420.1375044051
 30
0.0
 11
-165.539218155
 21
1423.0328242394
 31
0.0
  0
LINE
  5
DA
330
1F
100
AcDbEntity
  8
0
  6
Continuous
 62
     7
370
    15
100
AcDbLine
 10
-162.8347766076
 20
1418.8035878453
 30
0.0
 11
-165.4078495179
 21
1420.1375044051
 31
0.0
  0
LINE
  5
DB
330
1F
100
AcDbEntity
  8
0
  6
Continuous
 62
     7
370
    15
100
AcDbLine
 10
-160.5243217622
 20
1423.2603128168
 30
0.0
 11
-160.3930127297
 21
1420.3649911198
 31
0.0
  0
CIRCLE
  5
DC
330
1F
100
AcDbEntity
  8
0
  6
Continuous
 62
     7
370
    15
100
AcDbCircle
 10
-162.966097561
 20
1421.6989082906
 30
0.0
 40
7.785000000000023
  0
LINE
  5
DD
330
1F
100
AcDbEntity
  8
0
  6
Continuous
 62
     7
370
    15
100
AcDbLine
 10
-160.3930127297
 20
1420.3649911198
 30
0.0
 11
-162.8347766076
 21
1418.8035878453
 31
0.0
  0
ARC
  5
DE
330
1F
100
AcDbEntity
  8
0
  6
Continuous
 62
     7
370
    15
100
AcDbCircle
 10
-162.966097561
 20
1421.6989082906
 30
0.0
 40
2.510000000000015
100
AcDbArc
 50
122.5973255621
 51
182.5973255621
  0
ARC
  5
DF
330
1F
100
AcDbEntity
  8
0
  6
Continuous
 62
     7
370
    15
100
AcDbCircle
 10
-162.966097561
 20
1421.6989082906
 30
0.0
 40
2.510000000000015
100
AcDbArc
 50
182.5973255621
 51
242.5973255621
  0
ARC
  5
E0
330
1F
100
AcDbEntity
  8
0
  6
Continuous
 62
     7
370
    15
100
AcDbCircle
 10
-162.966097561
 20
1421.6989082906
 30
0.0
 40
2.509999999999994
100
AcDbArc
 50
242.5973255621
 51
302.5973255621
  0
ARC
  5
E1
330
1F
100
AcDbEntity
  8
0
  6
Continuous
 62
     7
370
    15
100
AcDbCircle
 10
-162.966097561
 20
1421.6989082906
 30
0.0
 40
2.510000000000034
100
AcDbArc
 50
2.5973255621
 51
62.5973255621
  0
ARC
  5
E2
330
1F
100
AcDbEntity
  8
0
  6
Continuous
 62
     7
370
    15
100
AcDbCircle
 10
-162.966097561
 20
1421.6989082906
 30
0.0
 40
2.510000000000034
100
AcDbArc
 50
302.5973255621
 51
2.5973255621
  0
ARC
  5
E3
330
1F
100
AcDbEntity
  8
0
  6
Continuous
 62
     7
370
    15
100
AcDbCircle
 10
-162.966097561
 20
1421.6989082906
 30
0.0
 40
2.510000000000006
100
AcDbArc
 50
62.5973255621
 51
122.5973255621
  0
LINE
  5
E4
330
1F
100
AcDbEntity
  8
0
  6
Continuous
 62
     7
370
    15
100
AcDbLine
 10
1512.7431023444
 20
1444.8553438398
 30
0.0
 11
1512.3673546638
 21
1441.9931399736
 31
0.0
  0
LINE
  5
E5
330
1F
100
AcDbEntity
  8
0
  6
Continuous
 62
     7
370
    15
100
AcDbLine
 10
1512.1539700355
 20
1441.9046792302
 30
0.0
 11
1512.3673546638
 21
1441.9931399736
 31
0.0
  0
LINE
  5
E6
330
1F
100
AcDbEntity
  8
0
  6
Continuous
 62
     7
370
    15
100
AcDbLine
 10
1512.1539700355
 20
1441.9046792302
 30
0.0
 11
1512.5597584571
 21
1444.9958580646
 31
0.0
  0
ARC
  5
E7
330
1F
100
AcDbEntity
  8
0
  6
Continuous
 62
     7
370
    15
100
AcDbCircle
 10
1560.5743091273
 20
1507.4556892209
 30
0.0
 40
78.78215270058894
100
AcDbArc
 50
232.449550768
 51
232.6175470672
  0
LINE
  5
E8
330
1F
100
AcDbEntity
  8
0
  6
Continuous
 62
     7
370
    15
100
AcDbLine
 10
1517.9136860694
 20
1444.2931379292
 30
0.0
 11
1517.5081360663
 21
1441.2019553694
 31
0.0
  0
LINE
  5
E9
330
1F
100
AcDbEntity
  8
0
  6
Continuous
 62
     7
370
    15
100
AcDbLine
 10
1515.4396164741
 20
1446.1900892767
 30
0.0
 11
1517.9136860694
 21
1444.2931379292
 31
0.0
  0
LINE
  5
EA
330
1F
100
AcDbEntity
  8
0
  6
Continuous
 62
     7
370
    15
100
AcDbLine
 10
1512.5597584571
 20
1444.9958580646
 30
0.0
 11
1515.4396164741
 21
1446.1900892767
 31
0.0
  0
LINE
  5
EB
330
1F
100
AcDbEntity
  8
0
  6
Continuous
 62
     7
370
    15
100
AcDbLine
 10
1514.6282780494
 20
1440.0077278826
 30
0.0
 11
1512.1539700355
 21
1441.9046792302
 31
0.0
  0
LINE
  5
EC
330
1F
100
AcDbEntity
  8
0
  6
Continuous
 62
     7
370
    15
100
AcDbLine
 10
1517.5081360663
 20
1441.2019553694
 30
0.0
 11
1514.6282780494
 21
1440.0077278826
 31
0.0
  0
CIRCLE
  5
ED
330
1F
100
AcDbEntity
  8
0
  6
Continuous
 62
     7
370
    15
100
AcDbCircle
 10
1515.033902439
 20
1443.0989082906
 30
0.0
 40
12.91715728752513
  0
LINE
  5
EE
330
1F
100
AcDbEntity
  8
0
  6
Continuous
 62
     7
370
    15
100
AcDbLine
 10
1515.4095757331
 20
1445.9611105833
 30
0.0
 11
1512.7431023444
 21
1444.8553438398
 31
0.0
  0
LWPOLYLINE
  5
EF
330
1F
100
AcDbEntity
  8
0
  6
Continuous
 62
     7
370
    15
100
AcDbPolyline
 90
       10
 70
   128
 43
0.0
 10
1515.4095757331
 20
1445.9611105833
 10
1515.4100525703
 20
1445.9645900044
 10
1515.4114830817
 20
1445.9749202344
 10
1515.4136288489
 20
1445.9917883489
 10
1515.4164898719
 20
1446.014683983
 10
1515.4203045692
 20
1446.0429067823
 10
1515.4245961036
 20
1446.07559993
 10
1515.4293644752
 20
1446.1117724988
 10
1515.4343712653
 20
1446.1503255281
 10
1515.4396164741
 20
1446.1900892767
  0
LWPOLYLINE
  5
F0
330
1F
100
AcDbEntity
  8
0
  6
Continuous
 62
     7
370
    15
100
AcDbPolyline
 90
       10
 70
   128
 43
0.0
 10
1517.5081360663
 20
1441.2019553694
 10
1517.4761879767
 20
1441.2263560209
 10
1517.44543198
 20
1441.2500153396
 10
1517.4163449134
 20
1441.2722143445
 10
1517.3903572883
 20
1441.292278758
 10
1517.3677075233
 20
1441.3095976326
 10
1517.3493492927
 20
1441.3236457023
 10
1517.3357594337
 20
1441.3339982841
 10
1517.327653202
 20
1441.3403387281
 10
1517.324792179
 20
1441.3424733195
  0
LINE
  5
F1
330
1F
100
AcDbEntity
  8
0
  6
Continuous
 62
     7
370
    15
100
AcDbLine
 10
1517.324792179
 20
1441.3424733195
 30
0.0
 11
1517.7005398597
 21
1444.2046771857
 31
0.0
  0
LWPOLYLINE
  5
F2
330
1F
100
AcDbEntity
  8
0
  6
Continuous
 62
     7
370
    15
100
AcDbPolyline
 90
       10
 70
   128
 43
0.0
 10
1517.9136860694
 20
1444.2931379292
 10
1517.8767311896
 20
1444.277774832
 10
1517.8407299842
 20
1444.2628811214
 10
1517.8071129645
 20
1444.2489075574
 10
1517.7765953864
 20
1444.236275098
 10
1517.7503693427
 20
1444.2253711733
 10
1517.7291500892
 20
1444.2165273342
 10
1517.713414463
 20
1444.2100118014
 10
1517.7036393012
 20
1444.2060182902
 10
1517.7005398597
 20
1444.2046771857
  0
LWPOLYLINE
  5
F3
330
1F
100
AcDbEntity
  8
0
  6
Continuous
 62
     7
370
    15
100
AcDbPolyline
 90
        9
 70
   128
 43
0.0
 10
1514.6282780494
 20
1440.0077278826
 10
1514.6340000953
 20
1440.0523978385
 10
1514.6397221412
 20
1440.095354161
 10
1514.6449673499
 20
1440.1349390957
 10
1514.6494973029
 20
1440.1696401748
 10
1514.6530735816
 20
1440.1981162939
 10
1514.6559346046
 20
1440.2192759428
 10
1514.6576035346
 20
1440.2323032829
 10
1514.6583187903
 20
1440.2367028508
  0
LINE
  5
F4
330
1F
100
AcDbEntity
  8
0
  6
Continuous
 62
     7
370
    15
100
AcDbLine
 10
1514.6583187903
 20
1440.2367028508
 30
0.0
 11
1517.324792179
 21
1441.3424733195
 31
0.0
  0
LINE
  5
F5
330
1F
100
AcDbEntity
  8
0
  6
Continuous
 62
     7
370
    15
100
AcDbLine
 10
1512.3673546638
 20
1441.9931399736
 30
0.0
 11
1514.6583187903
 21
1440.2367028508
 31
0.0
  0
LINE
  5
F6
330
1F
100
AcDbEntity
  8
0
  6
Continuous
 62
     7
370
    15
100
AcDbLine
 10
1517.7005398597
 20
1444.2046771857
 30
0.0
 11
1515.4095757331
 21
1445.9611105833
 31
0.0
  0
CIRCLE
  5
F7
330
1F
100
AcDbEntity
  8
0
  6
Continuous
 62
     7
370
    15
100
AcDbCircle
 10
1515.033902439
 20
1443.0989082906
 30
0.0
 40
13.05857864376257
  0
CIRCLE
  5
F8
330
1F
100
AcDbEntity
  8
0
  6
Continuous
 62
     7
370
    15
100
AcDbCircle
 10
1515.033902439
 20
1443.0989082906
 30
0.0
 40
14.94142135623742
  0
CIRCLE
  5
F9
330
1F
100
AcDbEntity
  8
0
  6
Continuous
 62
     7
370
    15
100
AcDbCircle
 10
1515.033902439
 20
1443.0989082906
 30
0.0
 40
15.00000000000014
  0
CIRCLE
  5
FA
330
1F
100
AcDbEntity
  8
0
  6
Continuous
 62
     7
370
    15
100
AcDbCircle
 10
-896.966097561
 20
1443.0989082906
 30
0.0
 40
12.91715728752546
  0
CIRCLE
  5
FB
330
1F
100
AcDbEntity
  8
0
  6
Continuous
 62
     7
370
    15
100
AcDbCircle
 10
-896.966097561
 20
1443.0989082906
 30
0.0
 40
13.05857864376278
  0
LINE
  5
FC
330
1F
100
AcDbEntity
  8
0
  6
Continuous
 62
     7
370
    15
100
AcDbLine
 10
-894.0861951982
 20
1444.2931379292
 30
0.0
 11
-894.4919165646
 21
1441.2019553694
 31
0.0
  0
LWPOLYLINE
  5
FD
330
1F
100
AcDbEntity
  8
0
  6
Continuous
 62
     7
370
    15
100
AcDbPolyline
 90
       10
 70
   128
 43
0.0
 10
-894.4919165646
 20
1441.2019553694
 10
-894.5237379943
 20
1441.2263560209
 10
-894.5545982991
 20
1441.2500153396
 10
-894.5835512553
 20
1441.2722143445
 10
-894.6097176944
 20
1441.292278758
 10
-894.6323078547
 20
1441.3095976326
 10
-894.650636283
 20
1441.3236457023
 10
-894.6641367351
 20
1441.3339982841
 10
-894.6724068795
 20
1441.3403387281
 10
-894.6751859461
 20
1441.3424733195
  0
LINE
  5
FE
330
1F
100
AcDbEntity
  8
0
  6
Continuous
 62
     7
370
    15
100
AcDbLine
 10
-894.6751859461
 20
1441.3424733195
 30
0.0
 11
-894.2995276724
 21
1444.2046771857
 31
0.0
  0
LWPOLYLINE
  5
FF
330
1F
100
AcDbEntity
  8
0
  6
Continuous
 62
     7
370
    15
100
AcDbPolyline
 90
       10
 70
   128
 43
0.0
 10
-894.0861951982
 20
1444.2931379292
 10
-894.1232394849
 20
1444.277774832
 10
-894.1591587339
 20
1444.2628811214
 10
-894.1928651606
 20
1444.2489075574
 10
-894.223323134
 20
1444.236275098
 10
-894.249616233
 20
1444.2253711733
 10
-894.2709472452
 20
1444.2165273342
 10
-894.2866605197
 20
1444.2100118014
 10
-894.2962866698
 20
1444.2060182902
 10
-894.2995276724
 20
1444.2046771857
  0
LINE
  5
100
330
1F
100
AcDbEntity
  8
0
  6
Continuous
 62
     7
370
    15
100
AcDbLine
 10
-899.2570098911
 20
1444.8553438398
 30
0.0
 11
-899.6326681648
 21
1441.9931399736
 31
0.0
  0
LWPOLYLINE
  5
101
330
1F
100
AcDbEntity
  8
0
  6
Continuous
 62
     7
370
    15
100
AcDbPolyline
 90
        9
 70
   128
 43
0.0
 10
-899.6326681648
 20
1441.9931399736
 10
-899.6367659842
 20
1441.9914412412
 10
-899.6489104305
 20
1441.986408374
 10
-899.6686246668
 20
1441.9782313618
 10
-899.6951487337
 20
1441.9672305796
 10
-899.7274768029
 20
1441.9538269851
 10
-899.7643571769
 20
1441.9385309431
 10
-899.8043816958
 20
1441.9219385001
 10
-899.8459931885
 20
1441.9046792302
  0
LINE
  5
102
330
1F
100
AcDbEntity
  8
0
  6
Continuous
 62
     7
370
    15
100
AcDbLine
 10
-899.8459931885
 20
1441.9046792302
 30
0.0
 11
-899.4402792726
 21
1444.9958580646
 31
0.0
  0
LWPOLYLINE
  5
103
330
1F
100
AcDbEntity
  8
0
  6
Continuous
 62
     7
370
    15
100
AcDbPolyline
 90
        9
 70
   128
 43
0.0
 10
-899.2570098911
 20
1444.8553438398
 10
-899.2605265652
 20
1444.8580446753
 10
-899.270957378
 20
1444.8660391483
 10
-899.2878925477
 20
1444.8790255103
 10
-899.3106838737
 20
1444.8965008471
 10
-899.3384596382
 20
1444.9177946064
 10
-899.3701469575
 20
1444.9420872244
 10
-899.4045239364
 20
1444.9684473786
 10
-899.4402792726
 20
1444.9958580646
  0
LINE
  5
104
330
1F
100
AcDbEntity
  8
0
  6
Continuous
 62
     7
370
    15
100
AcDbLine
 10
-894.2995276724
 20
1444.2046771857
 30
0.0
 11
-896.5904321943
 21
1445.9611105833
 31
0.0
  0
LWPOLYLINE
  5
105
330
1F
100
AcDbEntity
  8
0
  6
Continuous
 62
     7
370
    15
100
AcDbPolyline
 90
       10
 70
   128
 43
0.0
 10
-896.5904321943
 20
1445.9611105833
 10
-896.5899777089
 20
1445.9645900044
 10
-896.5886217032
 20
1445.9749202344
 10
-896.5864088808
 20
1445.9917883489
 10
-896.5833988462
 20
1446.014683983
 10
-896.5796959077
 20
1446.0429067823
 10
-896.5754043733
 20
1446.07559993
 10
-896.5706583534
 20
1446.1117724988
 10
-896.5655994092
 20
1446.1503255281
 10
-896.5603840028
 20
1446.1900892767
  0
LINE
  5
106
330
1F
100
AcDbEntity
  8
0
  6
Continuous
 62
     7
370
    15
100
AcDbLine
 10
-896.5603840028
 20
1446.1900892767
 30
0.0
 11
-894.0861951982
 21
1444.2931379292
 31
0.0
  0
LINE
  5
107
330
1F
100
AcDbEntity
  8
0
  6
Continuous
 62
     7
370
    15
100
AcDbLine
 10
-896.5904321943
 20
1445.9611105833
 30
0.0
 11
-899.2570098911
 21
1444.8553438398
 31
0.0
  0
LINE
  5
108
330
1F
100
AcDbEntity
  8
0
  6
Continuous
 62
     7
370
    15
100
AcDbLine
 10
-899.4402792726
 20
1444.9958580646
 30
0.0
 11
-896.5603840028
 21
1446.1900892767
 31
0.0
  0
LINE
  5
109
330
1F
100
AcDbEntity
  8
0
  6
Continuous
 62
     7
370
    15
100
AcDbLine
 10
-897.3718118344
 20
1440.0077278826
 30
0.0
 11
-899.8459931885
 21
1441.9046792302
 31
0.0
  0
LINE
  5
10A
330
1F
100
AcDbEntity
  8
0
  6
Continuous
 62
     7
370
    15
100
AcDbLine
 10
-894.4919165646
 20
1441.2019553694
 30
0.0
 11
-897.3718118344
 21
1440.0077278826
 31
0.0
  0
LINE
  5
10B
330
1F
100
AcDbEntity
  8
0
  6
Continuous
 62
     7
370
    15
100
AcDbLine
 10
-899.6326681648
 20
1441.9931399736
 30
0.0
 11
-897.3417636429
 21
1440.2367028508
 31
0.0
  0
LWPOLYLINE
  5
10C
330
1F
100
AcDbEntity
  8
0
  6
Continuous
 62
     7
370
    15
100
AcDbPolyline
 90
        9
 70
   128
 43
0.0
 10
-897.3718118344
 20
1440.0077278826
 10
-897.3659482275
 20
1440.0523978385
 10
-897.3603155886
 20
1440.095354161
 10
-897.3551150833
 20
1440.1349390957
 10
-897.3505627786
 20
1440.1696401748
 10
-897.3468300377
 20
1440.1981162939
 10
-897.3440509711
 20
1440.2192759428
 10
-897.3423373376
 20
1440.2323032829
 10
-897.3417636429
 20
1440.2367028508
  0
LINE
  5
10D
330
1F
100
AcDbEntity
  8
0
  6
Continuous
 62
     7
370
    15
100
AcDbLine
 10
-897.3417636429
 20
1440.2367028508
 30
0.0
 11
-894.6751859461
 21
1441.3424733195
 31
0.0
  0
CIRCLE
  5
10E
330
1F
100
AcDbEntity
  8
0
  6
Continuous
 62
     7
370
    15
100
AcDbCircle
 10
-896.966097561
 20
1443.0989082906
 30
0.0
 40
14.94142135623742
  0
CIRCLE
  5
10F
330
1F
100
AcDbEntity
  8
0
  6
Continuous
 62
     7
370
    15
100
AcDbCircle
 10
-896.966097561
 20
1443.0989082906
 30
0.0
 40
15.00000000000001
  0
CIRCLE
  5
110
330
1F
100
AcDbEntity
  8
0
  6
Continuous
 62
     7
370
    15
100
AcDbCircle
 10
-862.966097561
 20
1347.6989082906
 30
0.0
 40
8.749999999999918
  0
CIRCLE
  5
111
330
1F
100
AcDbEntity
  8
0
  6
Continuous
 62
     7
370
    15
100
AcDbCircle
 10
-862.966097561
 20
1347.6989082906
 30
0.0
 40
13.00000000000008
  0
CIRCLE
  5
112
330
1F
100
AcDbEntity
  8
0
  6
Continuous
 62
     7
370
    15
100
AcDbCircle
 10
-862.966097561
 20
1347.6989082906
 30
0.0
 40
15.00000000000017
  0
CIRCLE
  5
113
330
1F
100
AcDbEntity
  8
0
  6
Continuous
 62
     7
370
    15
100
AcDbCircle
 10
-162.966097561
 20
1292.6989082906
 30
0.0
 40
8.749999999999973
  0
CIRCLE
  5
114
330
1F
100
AcDbEntity
  8
0
  6
Continuous
 62
     7
370
    15
100
AcDbCircle
 10
-162.966097561
 20
1292.6989082906
 30
0.0
 40
15.00000000000003
  0
CIRCLE
  5
115
330
1F
100
AcDbEntity
  8
0
  6
Continuous
 62
     7
370
    15
100
AcDbCircle
 10
-162.966097561
 20
1292.6989082906
 30
0.0
 40
12.99999999999998
  0
CIRCLE
  5
116
330
1F
100
AcDbEntity
  8
0
  6
Continuous
 62
     7
370
    15
100
AcDbCircle
 10
-862.966097561
 20
1292.6989082906
 30
0.0
 40
15.0
  0
CIRCLE
  5
117
330
1F
100
AcDbEntity
  8
0
  6
Continuous
 62
     7
370
    15
100
AcDbCircle
 10
-862.966097561
 20
1292.6989082906
 30
0.0
 40
13.00000000000012
  0
CIRCLE
  5
118
330
1F
100
AcDbEntity
  8
0
  6
Continuous
 62
     7
370
    15
100
AcDbCircle
 10
-862.966097561
 20
1292.6989082906
 30
0.0
 40
8.750000000000115
  0
CIRCLE
  5
119
330
1F
100
AcDbEntity
  8
0
  6
Continuous
 62
     7
370
    15
100
AcDbCircle
 10
-162.966097561
 20
1347.6989082906
 30
0.0
 40
8.7500000000002
  0
CIRCLE
  5
11A
330
1F
100
AcDbEntity
  8
0
  6
Continuous
 62
     7
370
    15
100
AcDbCircle
 10
-162.966097561
 20
1347.6989082906
 30
0.0
 40
12.99999999999984
  0
CIRCLE
  5
11B
330
1F
100
AcDbEntity
  8
0
  6
Continuous
 62
     7
370
    15
100
AcDbCircle
 10
-162.966097561
 20
1347.6989082906
 30
0.0
 40
14.99999999999987
  0
CIRCLE
  5
11C
330
1F
100
AcDbEntity
  8
0
  6
Continuous
 62
     7
370
    15
100
AcDbCircle
 10
-862.966097561
 20
1421.6989082906
 30
0.0
 40
8.750000000000115
  0
CIRCLE
  5
11D
330
1F
100
AcDbEntity
  8
0
  6
Continuous
 62
     7
370
    15
100
AcDbCircle
 10
-862.966097561
 20
1421.6989082906
 30
0.0
 40
15.0
  0
CIRCLE
  5
11E
330
1F
100
AcDbEntity
  8
0
  6
Continuous
 62
     7
370
    15
100
AcDbCircle
 10
-862.966097561
 20
1421.6989082906
 30
0.0
 40
13.00000000000012
  0
CIRCLE
  5
11F
330
1F
100
AcDbEntity
  8
0
  6
Continuous
 62
     7
370
    15
100
AcDbCircle
 10
-162.966097561
 20
1421.6989082906
 30
0.0
 40
15.0
  0
CIRCLE
  5
120
330
1F
100
AcDbEntity
  8
0
  6
Continuous
 62
     7
370
    15
100
AcDbCircle
 10
-162.966097561
 20
1421.6989082906
 30
0.0
 40
12.99999999999998
  0
CIRCLE
  5
121
330
1F
100
AcDbEntity
  8
0
  6
Continuous
 62
     7
370
    15
100
AcDbCircle
 10
-162.966097561
 20
1421.6989082906
 30
0.0
 40
8.750000000000002
  0
CIRCLE
  5
122
330
1F
100
AcDbEntity
  8
0
  6
Continuous
 62
     7
370
    15
100
AcDbCircle
 10
-862.966097561
 20
1481.6989082906
 30
0.0
 40
8.749999999999888
  0
CIRCLE
  5
123
330
1F
100
AcDbEntity
  8
0
  6
Continuous
 62
     7
370
    15
100
AcDbCircle
 10
-862.966097561
 20
1481.6989082906
 30
0.0
 40
15.0
  0
CIRCLE
  5
124
330
1F
100
AcDbEntity
  8
0
  6
Continuous
 62
     7
370
    15
100
AcDbCircle
 10
-862.966097561
 20
1481.6989082906
 30
0.0
 40
13.00000000000011
  0
CIRCLE
  5
125
330
1F
100
AcDbEntity
  8
0
  6
Continuous
 62
     7
370
    15
100
AcDbCircle
 10
-162.966097561
 20
1481.6989082906
 30
0.0
 40
8.750000000000002
  0
CIRCLE
  5
126
330
1F
100
AcDbEntity
  8
0
  6
Continuous
 62
     7
370
    15
100
AcDbCircle
 10
-162.966097561
 20
1481.6989082906
 30
0.0
 40
12.99999999999997
  0
CIRCLE
  5
127
330
1F
100
AcDbEntity
  8
0
  6
Continuous
 62
     7
370
    15
100
AcDbCircle
 10
-162.966097561
 20
1481.6989082906
 30
0.0
 40
15.0
  0
ARC
  5
128
330
1F
100
AcDbEntity
  8
0
  6
Continuous
 62
     7
370
    15
100
AcDbCircle
 10
-162.966097561
 20
1481.6989082906
 30
0.0
 40
29.00000000000009
100
AcDbArc
 50
301.1473899215
 51
238.8526100785
  0
ARC
  5
129
330
1F
100
AcDbEntity
  8
0
  6
Continuous
 62
     7
370
    15
100
AcDbCircle
 10
-862.966097561
 20
1481.6989082906
 30
0.0
 40
29.0
100
AcDbArc
 50
301.1473899215
 51
238.8526100785
  0
LINE
  5
12A
330
1F
100
AcDbEntity
  8
0
  6
Continuous
 62
     7
370
    15
100
AcDbLine
 10
-147.9660999452
 20
1481.6989119265
 30
0.0
 11
-147.9660999452
 21
1292.6989088866
 31
0.0
  0
LINE
  5
12B
330
1F
100
AcDbEntity
  8
0
  6
Continuous
 62
     7
370
    15
100
AcDbLine
 10
-177.9660713349
 20
1292.6989088866
 30
0.0
 11
-177.9660713349
 21
1481.6989119265
 31
0.0
  0
LINE
  5
12C
330
1F
100
AcDbEntity
  8
0
  6
Continuous
 62
     7
370
    15
100
AcDbLine
 10
-847.9660954748
 20
1481.6989119265
 30
0.0
 11
-847.9660954748
 21
1292.6989088866
 31
0.0
  0
LINE
  5
12D
330
1F
100
AcDbEntity
  8
0
  6
Continuous
 62
     7
370
    15
100
AcDbLine
 10
-877.9660966669
 20
1292.6989088866
 30
0.0
 11
-877.9660966669
 21
1481.6989119265
 31
0.0
  0
LINE
  5
12E
330
1F
100
AcDbEntity
  8
0
  6
Continuous
 62
     7
370
    15
100
AcDbLine
 10
-962.966097561
 20
1402.6989082906
 30
0.0
 11
-962.966097561
 21
-647.3010440257
 31
0.0
  0
LINE
  5
12F
330
1F
100
AcDbEntity
  8
0
  6
Continuous
 62
     7
370
    15
100
AcDbLine
 10
-62.9661214028
 20
1402.6989082906
 30
0.0
 11
-147.9660999452
 21
1402.6989082906
 31
0.0
  0
LINE
  5
130
330
1F
100
AcDbEntity
  8
0
  6
Continuous
 62
     7
370
    15
100
AcDbLine
 10
-177.9660713349
 20
1402.6989082906
 30
0.0
 11
-847.9660954748
 21
1402.6989082906
 31
0.0
  0
LINE
  5
131
330
1F
100
AcDbEntity
  8
0
  6
Continuous
 62
     7
370
    15
100
AcDbLine
 10
-877.9660966669
 20
1402.6989082906
 30
0.0
 11
-962.966097561
 21
1402.6989082906
 31
0.0
  0
LINE
  5
132
330
1F
100
AcDbEntity
  8
0
  6
Continuous
 62
     7
370
    15
100
AcDbLine
 10
-962.966097561
 20
-647.3010440257
 30
0.0
 11
-62.9661214028
 21
-647.3010440257
 31
0.0
  0
LINE
  5
133
330
1F
100
AcDbEntity
  8
0
  6
Continuous
 62
     7
370
    15
100
AcDbLine
 10
-62.9661214028
 20
-647.3010440257
 30
0.0
 11
-62.9661214028
 21
1402.6989082906
 31
0.0
  0
CIRCLE
  5
134
330
1F
100
AcDbEntity
  8
0
  6
Continuous
 62
     7
370
    15
100
AcDbCircle
 10
-830.966097561
 20
1443.0989082906
 30
0.0
 40
6.44999999999999
  0
LINE
  5
135
330
1F
100
AcDbEntity
  8
0
  6
Continuous
 62
     7
370
    15
100
AcDbLine
 10
-830.9982102786
 20
1445.9854814324
 30
0.0
 11
-833.481995431
 21
1444.5143791947
 31
0.0
  0
LINE
  5
136
330
1F
100
AcDbEntity
  8
0
  6
Continuous
 62
     7
370
    15
100
AcDbLine
 10
-833.481995431
 20
1444.5143791947
 30
0.0
 11
-833.4498834287
 21
1441.6278082046
 31
0.0
  0
LINE
  5
137
330
1F
100
AcDbEntity
  8
0
  6
Continuous
 62
     7
370
    15
100
AcDbLine
 10
-833.4498834287
 20
1441.6278082046
 30
0.0
 11
-830.9339713727
 21
1440.2123357269
 31
0.0
  0
LINE
  5
138
330
1F
100
AcDbEntity
  8
0
  6
Continuous
 62
     7
370
    15
100
AcDbLine
 10
-830.9339713727
 20
1440.2123357269
 30
0.0
 11
-828.4502011214
 21
1441.6834379646
 31
0.0
  0
LINE
  5
139
330
1F
100
AcDbEntity
  8
0
  6
Continuous
 62
     7
370
    15
100
AcDbLine
 10
-828.4823131238
 20
1444.5700089547
 30
0.0
 11
-830.9982102786
 21
1445.9854814324
 31
0.0
  0
LINE
  5
13A
330
1F
100
AcDbEntity
  8
0
  6
Continuous
 62
     7
370
    15
100
AcDbLine
 10
-828.4502011214
 20
1441.6834379646
 30
0.0
 11
-828.4823131238
 21
1444.5700089547
 31
0.0
  0
CIRCLE
  5
13B
330
1F
100
AcDbEntity
  8
0
  6
Continuous
 62
     7
370
    15
100
AcDbCircle
 10
-830.966097561
 20
1443.0989082906
 30
0.0
 40
7.450000000000076
  0
CIRCLE
  5
13C
330
1F
100
AcDbEntity
  8
0
  6
Continuous
 62
     7
370
    15
100
AcDbCircle
 10
1449.033902439
 20
1443.0989082906
 30
0.0
 40
6.450000000000103
  0
CIRCLE
  5
13D
330
1F
100
AcDbEntity
  8
0
  6
Continuous
 62
     7
370
    15
100
AcDbCircle
 10
1449.033902439
 20
1443.0989082906
 30
0.0
 40
7.450000000000188
  0
LINE
  5
13E
330
1F
100
AcDbEntity
  8
0
  6
Continuous
 62
     7
370
    15
100
AcDbLine
 10
1446.5502369727
 20
1441.6278082046
 30
0.0
 11
1449.0660298194
 21
1440.2123357269
 31
0.0
  0
LINE
  5
13F
330
1F
100
AcDbEntity
  8
0
  6
Continuous
 62
     7
370
    15
100
AcDbLine
 10
1451.5498745765
 20
1441.6834379646
 30
0.0
 11
1451.5176880683
 21
1444.5700089547
 31
0.0
  0
LINE
  5
140
330
1F
100
AcDbEntity
  8
0
  6
Continuous
 62
     7
370
    15
100
AcDbLine
 10
1451.5176880683
 20
1444.5700089547
 30
0.0
 11
1449.0018952216
 21
1445.9854814324
 31
0.0
  0
LINE
  5
141
330
1F
100
AcDbEntity
  8
0
  6
Continuous
 62
     7
370
    15
100
AcDbLine
 10
1449.0018952216
 20
1445.9854814324
 30
0.0
 11
1446.5180504645
 21
1444.5143791947
 31
0.0
  0
LINE
  5
142
330
1F
100
AcDbEntity
  8
0
  6
Continuous
 62
     7
370
    15
100
AcDbLine
 10
1449.0660298194
 20
1440.2123357269
 30
0.0
 11
1451.5498745765
 21
1441.6834379646
 31
0.0
  0
LINE
  5
143
330
1F
100
AcDbEntity
  8
0
  6
Continuous
 62
     7
370
    15
100
AcDbLine
 10
1446.5180504645
 20
1444.5143791947
 30
0.0
 11
1446.5502369727
 21
1441.6278082046
 31
0.0
  0
CIRCLE
  5
144
330
1F
100
AcDbEntity
  8
0
  6
Continuous
 62
     7
370
    15
100
AcDbCircle
 10
879.033902439
 20
1443.0989082906
 30
0.0
 40
6.44999999999999
  0
CIRCLE
  5
145
330
1F
100
AcDbEntity
  8
0
  6
Continuous
 62
     7
370
    15
100
AcDbCircle
 10
879.033902439
 20
1443.0989082906
 30
0.0
 40
7.450000000000076
  0
LINE
  5
146
330
1F
100
AcDbEntity
  8
0
  6
Continuous
 62
     7
370
    15
100
AcDbLine
 10
876.5500653113
 20
1441.6278082046
 30
0.0
 11
879.0659773673
 21
1440.2123357269
 31
0.0
  0
LINE
  5
147
330
1F
100
AcDbEntity
  8
0
  6
Continuous
 62
     7
370
    15
100
AcDbLine
 10
881.5176356162
 20
1444.5700089547
 30
0.0
 11
879.0018427695
 21
1445.9854814324
 31
0.0
  0
LINE
  5
148
330
1F
100
AcDbEntity
  8
0
  6
Continuous
 62
     7
370
    15
100
AcDbLine
 10
876.5179980125
 20
1444.5143791947
 30
0.0
 11
876.5500653113
 21
1441.6278082046
 31
0.0
  0
LINE
  5
149
330
1F
100
AcDbEntity
  8
0
  6
Continuous
 62
     7
370
    15
100
AcDbLine
 10
879.0659773673
 20
1440.2123357269
 30
0.0
 11
881.5498221244
 21
1441.6834379646
 31
0.0
  0
LINE
  5
14A
330
1F
100
AcDbEntity
  8
0
  6
Continuous
 62
     7
370
    15
100
AcDbLine
 10
881.5498221244
 20
1441.6834379646
 30
0.0
 11
881.5176356162
 21
1444.5700089547
 31
0.0
  0
LINE
  5
14B
330
1F
100
AcDbEntity
  8
0
  6
Continuous
 62
     7
370
    15
100
AcDbLine
 10
879.0018427695
 20
1445.9854814324
 30
0.0
 11
876.5179980125
 21
1444.5143791947
 31
0.0
  0
CIRCLE
  5
14C
330
1F
100
AcDbEntity
  8
0
  6
Continuous
 62
     7
370
    15
100
AcDbCircle
 10
309.033902439
 20
1443.0989082906
 30
0.0
 40
6.449999999999934
  0
LINE
  5
14D
330
1F
100
AcDbEntity
  8
0
  6
Continuous
 62
     7
370
    15
100
AcDbLine
 10
306.5179455604
 20
1444.5143791947
 30
0.0
 11
306.5501320685
 21
1441.6278082046
 31
0.0
  0
LINE
  5
14E
330
1F
100
AcDbEntity
  8
0
  6
Continuous
 62
     7
370
    15
100
AcDbLine
 10
306.5501320685
 20
1441.6278082046
 30
0.0
 11
309.0660441245
 21
1440.2123357269
 31
0.0
  0
LINE
  5
14F
330
1F
100
AcDbEntity
  8
0
  6
Continuous
 62
     7
370
    15
100
AcDbLine
 10
309.0660441245
 20
1440.2123357269
 30
0.0
 11
311.5497696723
 21
1441.6834379646
 31
0.0
  0
LINE
  5
150
330
1F
100
AcDbEntity
  8
0
  6
Continuous
 62
     7
370
    15
100
AcDbLine
 10
311.5497696723
 20
1441.6834379646
 30
0.0
 11
311.5177023734
 21
1444.5700089547
 31
0.0
  0
LINE
  5
151
330
1F
100
AcDbEntity
  8
0
  6
Continuous
 62
     7
370
    15
100
AcDbLine
 10
309.0017903174
 20
1445.9854814324
 30
0.0
 11
306.5179455604
 21
1444.5143791947
 31
0.0
  0
LINE
  5
152
330
1F
100
AcDbEntity
  8
0
  6
Continuous
 62
     7
370
    15
100
AcDbLine
 10
311.5177023734
 20
1444.5700089547
 30
0.0
 11
309.0017903174
 21
1445.9854814324
 31
0.0
  0
CIRCLE
  5
153
330
1F
100
AcDbEntity
  8
0
  6
Continuous
 62
     7
370
    15
100
AcDbCircle
 10
309.033902439
 20
1443.0989082906
 30
0.0
 40
7.450000000000076
  0
CIRCLE
  5
154
330
1F
100
AcDbEntity
  8
0
  6
Continuous
 62
     7
370
    15
100
AcDbCircle
 10
-260.966097561
 20
1443.0989082906
 30
0.0
 40
6.449999999999934
  0
LINE
  5
155
330
1F
100
AcDbEntity
  8
0
  6
Continuous
 62
     7
370
    15
100
AcDbLine
 10
-258.482290474
 20
1444.5700089547
 30
0.0
 11
-260.99820253
 21
1445.9854814324
 31
0.0
  0
LINE
  5
156
330
1F
100
AcDbEntity
  8
0
  6
Continuous
 62
     7
370
    15
100
AcDbLine
 10
-260.99820253
 20
1445.9854814324
 30
0.0
 11
-263.4819876824
 21
1444.5143791947
 31
0.0
  0
LINE
  5
157
330
1F
100
AcDbEntity
  8
0
  6
Continuous
 62
     7
370
    15
100
AcDbLine
 10
-263.4819876824
 20
1444.5143791947
 30
0.0
 11
-263.4498607789
 21
1441.6278082046
 31
0.0
  0
LINE
  5
158
330
1F
100
AcDbEntity
  8
0
  6
Continuous
 62
     7
370
    15
100
AcDbLine
 10
-263.4498607789
 20
1441.6278082046
 30
0.0
 11
-260.9339487229
 21
1440.2123357269
 31
0.0
  0
LINE
  5
159
330
1F
100
AcDbEntity
  8
0
  6
Continuous
 62
     7
370
    15
100
AcDbLine
 10
-260.9339487229
 20
1440.2123357269
 30
0.0
 11
-258.4502231751
 21
1441.6834379646
 31
0.0
  0
LINE
  5
15A
330
1F
100
AcDbEntity
  8
0
  6
Continuous
 62
     7
370
    15
100
AcDbLine
 10
-258.4502231751
 20
1441.6834379646
 30
0.0
 11
-258.482290474
 21
1444.5700089547
 31
0.0
  0
CIRCLE
  5
15B
330
1F
100
AcDbEntity
  8
0
  6
Continuous
 62
     7
370
    15
100
AcDbCircle
 10
-260.966097561
 20
1443.0989082906
 30
0.0
 40
7.44999999999999
  0
ARC
  5
15C
330
1F
100
AcDbEntity
  8
0
  6
Continuous
 62
     7
370
    15
100
AcDbCircle
 10
-830.966097561
 20
1443.0989082906
 30
0.0
 40
24.00000000000006
100
AcDbArc
 50
31.3881664643
 51
108.8005444417
  0
ARC
  5
15D
330
1F
100
AcDbEntity
  8
0
  6
Continuous
 62
     7
370
    15
100
AcDbCircle
 10
-830.966097561
 20
1443.0989082906
 30
0.0
 40
24.00000000000004
100
AcDbArc
 50
224.9005279607
 51
328.6118335357
  0
ARC
  5
15E
330
1F
100
AcDbEntity
  8
0
  6
Continuous
 62
     7
370
    15
100
AcDbCircle
 10
-830.966097561
 20
1443.0989082906
 30
0.0
 40
24.99999999999997
100
AcDbArc
 50
227.1563569564
 51
330.0
  0
ARC
  5
15F
330
1F
100
AcDbEntity
  8
0
  6
Continuous
 62
     7
370
    15
100
AcDbCircle
 10
-830.966097561
 20
1443.0989082906
 30
0.0
 40
24.99999999999989
100
AcDbArc
 50
30.0
 51
106.0973005297
  0
ARC
  5
160
330
1F
100
AcDbEntity
  8
0
  6
Continuous
 62
     7
370
    15
100
AcDbCircle
 10
879.033902439
 20
1443.0989082906
 30
0.0
 40
23.99999999999989
100
AcDbArc
 50
31.3881664643
 51
148.6118335357
  0
ARC
  5
161
330
1F
100
AcDbEntity
  8
0
  6
Continuous
 62
     7
370
    15
100
AcDbCircle
 10
879.033902439
 20
1443.0989082906
 30
0.0
 40
23.99999999999985
100
AcDbArc
 50
211.3881664643
 51
328.6118335357
  0
ARC
  5
162
330
1F
100
AcDbEntity
  8
0
  6
Continuous
 62
     7
370
    15
100
AcDbCircle
 10
879.033902439
 20
1443.0989082906
 30
0.0
 40
24.99999999999997
100
AcDbArc
 50
210.0
 51
330.0
  0
ARC
  5
163
330
1F
100
AcDbEntity
  8
0
  6
Continuous
 62
     7
370
    15
100
AcDbCircle
 10
879.033902439
 20
1443.0989082906
 30
0.0
 40
25.0
100
AcDbArc
 50
30.0
 51
150.0
  0
ARC
  5
164
330
1F
100
AcDbEntity
  8
0
  6
Continuous
 62
     7
370
    15
100
AcDbCircle
 10
-260.966097561
 20
1443.0989082906
 30
0.0
 40
23.99999999999992
100
AcDbArc
 50
31.3881664643
 51
148.6118335357
  0
ARC
  5
165
330
1F
100
AcDbEntity
  8
0
  6
Continuous
 62
     7
370
    15
100
AcDbCircle
 10
-260.966097561
 20
1443.0989082906
 30
0.0
 40
24.00000000000001
100
AcDbArc
 50
211.3881664643
 51
328.6118335357
  0
ARC
  5
166
330
1F
100
AcDbEntity
  8
0
  6
Continuous
 62
     7
370
    15
100
AcDbCircle
 10
-260.966097561
 20
1443.0989082906
 30
0.0
 40
25.00000000000008
100
AcDbArc
 50
210.0
 51
330.0
  0
ARC
  5
167
330
1F
100
AcDbEntity
  8
0
  6
Continuous
 62
     7
370
    15
100
AcDbCircle
 10
-260.966097561
 20
1443.0989082906
 30
0.0
 40
24.99999999999999
100
AcDbArc
 50
30.0
 51
150.0
  0
ARC
  5
168
330
1F
100
AcDbEntity
  8
0
  6
Continuous
 62
     7
370
    15
100
AcDbCircle
 10
1449.033902439
 20
1443.0989082906
 30
0.0
 40
24.00000000000004
100
AcDbArc
 50
31.3881664643
 51
148.6118335357
  0
ARC
  5
169
330
1F
100
AcDbEntity
  8
0
  6
Continuous
 62
     7
370
    15
100
AcDbCircle
 10
1449.033902439
 20
1443.0989082906
 30
0.0
 40
24.00000000000016
100
AcDbArc
 50
211.3881664644
 51
328.6118335357
  0
ARC
  5
16A
330
1F
100
AcDbEntity
  8
0
  6
Continuous
 62
     7
370
    15
100
AcDbCircle
 10
1449.033902439
 20
1443.0989082906
 30
0.0
 40
25.0
100
AcDbArc
 50
210.0
 51
330.0
  0
ARC
  5
16B
330
1F
100
AcDbEntity
  8
0
  6
Continuous
 62
     7
370
    15
100
AcDbCircle
 10
1449.033902439
 20
1443.0989082906
 30
0.0
 40
24.99999999999989
100
AcDbArc
 50
30.0
 51
150.0
  0
ARC
  5
16C
330
1F
100
AcDbEntity
  8
0
  6
Continuous
 62
     7
370
    15
100
AcDbCircle
 10
309.033902439
 20
1443.0989082906
 30
0.0
 40
23.99999999999994
100
AcDbArc
 50
31.3881664643
 51
148.6118335357
  0
ARC
  5
16D
330
1F
100
AcDbEntity
  8
0
  6
Continuous
 62
     7
370
    15
100
AcDbCircle
 10
309.033902439
 20
1443.0989082906
 30
0.0
 40
23.9999999999999
100
AcDbArc
 50
211.3881664643
 51
328.6118335357
  0
ARC
  5
16E
330
1F
100
AcDbEntity
  8
0
  6
Continuous
 62
     7
370
    15
100
AcDbCircle
 10
309.033902439
 20
1443.0989082906
 30
0.0
 40
24.99999999999997
100
AcDbArc
 50
210.0
 51
330.0
  0
ARC
  5
16F
330
1F
100
AcDbEntity
  8
0
  6
Continuous
 62
     7
370
    15
100
AcDbCircle
 10
309.033902439
 20
1443.0989082906
 30
0.0
 40
25.0
100
AcDbArc
 50
30.0
 51
150.0
  0
LINE
  5
170
330
1F
100
AcDbEntity
  8
0
  6
Continuous
 62
     8
370
    15
100
AcDbLine
 10
-133.6900126611
 20
-647.3010440257
 30
0.0
 11
-133.7068211709
 21
-651.3009925273
 31
0.0
  0
LINE
  5
171
330
1F
100
AcDbEntity
  8
0
  6
Continuous
 62
     8
370
    15
100
AcDbLine
 10
-107.2421800767
 20
-647.3010440257
 30
0.0
 11
-107.2253715669
 21
-651.3009925273
 31
0.0
  0
LINE
  5
172
330
1F
100
AcDbEntity
  8
0
  6
Continuous
 62
     7
370
    15
100
AcDbLine
 10
1693.1246645493
 20
-651.3009925273
 30
0.0
 11
1692.8453832609
 21
-635.3011985209
 31
0.0
  0
LINE
  5
173
330
1F
100
AcDbEntity
  8
0
  6
Continuous
 62
     7
370
    15
100
AcDbLine
 10
1688.2276065392
 20
-635.3011985209
 30
0.0
 11
1687.9483252508
 21
-651.3009925273
 31
0.0
  0
LINE
  5
174
330
1F
100
AcDbEntity
  8
0
  6
Continuous
 62
     7
370
    15
100
AcDbLine
 10
1706.1625454319
 20
1423.0989090267
 30
0.0
 11
1714.1625467433
 21
1423.0989090267
 31
0.0
  0
LINE
  5
175
330
1F
100
AcDbEntity
  8
0
  6
Continuous
 62
     7
370
    15
100
AcDbLine
 10
1714.1625467433
 20
1463.0989099953
 30
0.0
 11
1706.1625454319
 21
1463.0989099953
 31
0.0
  0
LINE
  5
176
330
1F
100
AcDbEntity
  8
0
  6
Continuous
 62
     7
370
    15
100
AcDbLine
 10
1675.3625469958
 20
1427.0989078197
 30
0.0
 11
1706.1625454319
 21
1427.0989078197
 31
0.0
  0
LINE
  5
177
330
1F
100
AcDbEntity
  8
0
  6
Continuous
 62
     7
370
    15
100
AcDbLine
 10
1706.1625454319
 20
1459.0989093396
 30
0.0
 11
1675.3625469958
 21
1459.0989093396
 31
0.0
  0
LINE
  5
178
330
1F
100
AcDbEntity
  8
0
  6
Continuous
 62
     7
370
    15
100
AcDbLine
 10
1675.3625469958
 20
1459.0989093396
 30
0.0
 11
1673.5625467939
 21
1457.2989086721
 31
0.0
  0
LINE
  5
179
330
1F
100
AcDbEntity
  8
0
  6
Continuous
 62
     7
370
    15
100
AcDbLine
 10
1673.5625467939
 20
1428.8989084873
 30
0.0
 11
1675.3625469958
 21
1427.0989078197
 31
0.0
  0
LINE
  5
17A
330
1F
100
AcDbEntity
  8
0
  6
Continuous
 62
     7
370
    15
100
AcDbLine
 10
1659.0625472111
 20
1435.5989101443
 30
0.0
 11
1673.5625467939
 21
1435.5989101443
 31
0.0
  0
LINE
  5
17B
330
1F
100
AcDbEntity
  8
0
  6
Continuous
 62
     7
370
    15
100
AcDbLine
 10
1673.5625467939
 20
1450.598907015
 30
0.0
 11
1659.0625472111
 21
1450.598907015
 31
0.0
  0
LINE
  5
17C
330
1F
100
AcDbEntity
  8
0
  6
Continuous
 62
     7
370
    15
100
AcDbLine
 10
1706.7364971829
 20
1496.6989050719
 30
0.0
 11
1706.5364937974
 21
1496.498909137
 31
0.0
  0
LINE
  5
17D
330
1F
100
AcDbEntity
  8
0
  6
Continuous
 62
     7
370
    15
100
AcDbLine
 10
1706.5364937974
 20
1466.8989072654
 30
0.0
 11
1706.7364971829
 21
1466.6989113304
 31
0.0
  0
LINE
  5
17E
330
1F
100
AcDbEntity
  8
0
  6
Continuous
 62
     7
370
    15
100
AcDbLine
 10
1706.7364971829
 20
1466.6989113304
 30
0.0
 11
1710.3364947928
 21
1466.6989113304
 31
0.0
  0
LINE
  5
17F
330
1F
100
AcDbEntity
  8
0
  6
Continuous
 62
     7
370
    15
100
AcDbLine
 10
1710.3364947928
 20
1496.6989050719
 30
0.0
 11
1706.7364971829
 21
1496.6989050719
 31
0.0
  0
LINE
  5
180
330
1F
100
AcDbEntity
  8
0
  6
Continuous
 62
     7
370
    15
100
AcDbLine
 10
1710.3364947928
 20
1466.6989113304
 30
0.0
 11
1710.536494453
 21
1466.8989072654
 31
0.0
  0
LINE
  5
181
330
1F
100
AcDbEntity
  8
0
  6
Continuous
 62
     7
370
    15
100
AcDbLine
 10
1710.536494453
 20
1496.498909137
 30
0.0
 11
1710.3364947928
 21
1496.6989050719
 31
0.0
  0
ARC
  5
182
330
1F
100
AcDbEntity
  8
0
  6
Continuous
 62
     7
370
    15
100
AcDbCircle
 10
1714.3625467704
 20
1428.2989082906
 30
0.0
 40
0.2000000000002728
100
AcDbArc
 50
180.0
 51
270.0
  0
ARC
  5
183
330
1F
100
AcDbEntity
  8
0
  6
Continuous
 62
     7
370
    15
100
AcDbCircle
 10
1714.3625467704
 20
1457.8989082906
 30
0.0
 40
0.2000000000002728
100
AcDbArc
 50
90.0
 51
180.0
  0
LINE
  5
184
330
1F
100
AcDbEntity
  8
0
  6
Continuous
 62
     7
370
    15
100
AcDbLine
 10
1716.0797040654
 20
1458.0989073131
 30
0.0
 11
1714.3625464035
 21
1458.0989073131
 31
0.0
  0
LINE
  5
185
330
1F
100
AcDbEntity
  8
0
  6
Continuous
 62
     7
370
    15
100
AcDbLine
 10
1714.3625464035
 20
1428.0989079836
 30
0.0
 11
1716.0797040654
 21
1428.0989079836
 31
0.0
  0
ARC
  5
186
330
1F
100
AcDbEntity
  8
0
  6
Continuous
 62
     7
370
    15
100
AcDbCircle
 10
1716.0797040579
 20
1457.8989082906
 30
0.0
 40
0.2000000000000455
100
AcDbArc
 50
45.0
 51
90.0
  0
ARC
  5
187
330
1F
100
AcDbEntity
  8
0
  6
Continuous
 62
     7
370
    15
100
AcDbCircle
 10
1716.0797040579
 20
1428.2989082906
 30
0.0
 40
0.2000000000000455
100
AcDbArc
 50
270.0
 51
315.0
  0
LINE
  5
188
330
1F
100
AcDbEntity
  8
0
  6
Continuous
 62
     7
370
    15
100
AcDbLine
 10
1716.221127261
 20
1428.1574863109
 30
0.0
 11
1718.103967209
 21
1430.0403299841
 31
0.0
  0
LINE
  5
189
330
1F
100
AcDbEntity
  8
0
  6
Continuous
 62
     7
370
    15
100
AcDbLine
 10
1718.103967209
 20
1456.1574871752
 30
0.0
 11
1716.221127261
 21
1458.0403308484
 31
0.0
  0
ARC
  5
18A
330
1F
100
AcDbEntity
  8
0
  6
Continuous
 62
     7
370
    15
100
AcDbCircle
 10
1717.9625467704
 20
1430.1817510031
 30
0.0
 40
0.2000000000001302
100
AcDbArc
 50
315.0
 51
0.0
  0
ARC
  5
18B
330
1F
100
AcDbEntity
  8
0
  6
Continuous
 62
     7
370
    15
100
AcDbCircle
 10
1717.9625467704
 20
1456.0160655781
 30
0.0
 40
0.2000000000000455
100
AcDbArc
 50
0.0
 51
44.9999999999
  0
ARC
  5
18C
330
1F
100
AcDbEntity
  8
0
  6
Continuous
 62
     7
370
    15
100
AcDbCircle
 10
1668.6193380596
 20
1332.8989082906
 30
0.0
 40
0.2000000000001302
100
AcDbArc
 50
225.0
 51
270.0
  0
ARC
  5
18D
330
1F
100
AcDbEntity
  8
0
  6
Continuous
 62
     7
370
    15
100
AcDbCircle
 10
1668.6193380596
 20
1362.4989082906
 30
0.0
 40
0.2000000000000455
100
AcDbArc
 50
90.0
 51
135.0
  0
ARC
  5
18E
330
1F
100
AcDbEntity
  8
0
  6
Continuous
 62
     7
370
    15
100
AcDbCircle
 10
1670.3364953471
 20
1362.4989082906
 30
0.0
 40
0.2000000000000455
100
AcDbArc
 50
0.0
 51
90.0
  0
ARC
  5
18F
330
1F
100
AcDbEntity
  8
0
  6
Continuous
 62
     7
370
    15
100
AcDbCircle
 10
1670.3364953471
 20
1332.8989082906
 30
0.0
 40
0.2000000000000455
100
AcDbArc
 50
270.0
 51
0.0
  0
LINE
  5
190
330
1F
100
AcDbEntity
  8
0
  6
Continuous
 62
     7
370
    15
100
AcDbLine
 10
1668.619338025
 20
1332.6989079926
 30
0.0
 11
1670.3364953522
 21
1332.6989079926
 31
0.0
  0
LINE
  5
191
330
1F
100
AcDbEntity
  8
0
  6
Continuous
 62
     7
370
    15
100
AcDbLine
 10
1670.3364953522
 20
1362.6989091847
 30
0.0
 11
1668.619338025
 21
1362.6989091847
 31
0.0
  0
LINE
  5
192
330
1F
100
AcDbEntity
  8
0
  6
Continuous
 62
     7
370
    15
100
AcDbLine
 10
1668.477916692
 20
1362.6403289947
 30
0.0
 11
1666.5950739501
 21
1360.7574853215
 31
0.0
  0
LINE
  5
193
330
1F
100
AcDbEntity
  8
0
  6
Continuous
 62
     7
370
    15
100
AcDbLine
 10
1666.5950739501
 20
1334.6403281304
 30
0.0
 11
1668.477916692
 21
1332.7574844572
 31
0.0
  0
ARC
  5
194
330
1F
100
AcDbEntity
  8
0
  6
Continuous
 62
     7
370
    15
100
AcDbCircle
 10
1666.7364953471
 20
1360.6160655781
 30
0.0
 40
0.1999999999998181
100
AcDbArc
 50
135.0
 51
180.0
  0
ARC
  5
195
330
1F
100
AcDbEntity
  8
0
  6
Continuous
 62
     7
370
    15
100
AcDbCircle
 10
1666.7364953471
 20
1334.7817510031
 30
0.0
 40
0.1999999999998181
100
AcDbArc
 50
180.0
 51
225.0
  0
ARC
  5
196
330
1F
100
AcDbEntity
  8
0
  6
Continuous
 62
     7
370
    15
100
AcDbCircle
 10
1668.6193380596
 20
1277.8989082906
 30
0.0
 40
0.2000000000000455
100
AcDbArc
 50
225.0
 51
270.0
  0
ARC
  5
197
330
1F
100
AcDbEntity
  8
0
  6
Continuous
 62
     7
370
    15
100
AcDbCircle
 10
1668.6193380596
 20
1307.4989082906
 30
0.0
 40
0.1999999999998181
100
AcDbArc
 50
90.0
 51
135.0
  0
LINE
  5
198
330
1F
100
AcDbEntity
  8
0
  6
Continuous
 62
     7
370
    15
100
AcDbLine
 10
1668.619338025
 20
1277.6989082906
 30
0.0
 11
1670.3364953522
 21
1277.6989082906
 31
0.0
  0
LINE
  5
199
330
1F
100
AcDbEntity
  8
0
  6
Continuous
 62
     7
370
    15
100
AcDbLine
 10
1670.3364953522
 20
1307.6989094827
 30
0.0
 11
1668.619338025
 21
1307.6989094827
 31
0.0
  0
ARC
  5
19A
330
1F
100
AcDbEntity
  8
0
  6
Continuous
 62
     7
370
    15
100
AcDbCircle
 10
1670.3364953471
 20
1307.4989082906
 30
0.0
 40
0.2000000000000455
100
AcDbArc
 50
0.0
 51
90.0
  0
ARC
  5
19B
330
1F
100
AcDbEntity
  8
0
  6
Continuous
 62
     7
370
    15
100
AcDbCircle
 10
1670.3364953471
 20
1277.8989082906
 30
0.0
 40
0.2000000000000455
100
AcDbArc
 50
270.0
 51
0.0
  0
LINE
  5
19C
330
1F
100
AcDbEntity
  8
0
  6
Continuous
 62
     7
370
    15
100
AcDbLine
 10
1668.477916692
 20
1307.640333018
 30
0.0
 11
1666.5950739501
 21
1305.7574893448
 31
0.0
  0
LINE
  5
19D
330
1F
100
AcDbEntity
  8
0
  6
Continuous
 62
     7
370
    15
100
AcDbLine
 10
1666.5950739501
 20
1279.6403284285
 30
0.0
 11
1668.477916692
 21
1277.7574847552
 31
0.0
  0
ARC
  5
19E
330
1F
100
AcDbEntity
  8
0
  6
Continuous
 62
     7
370
    15
100
AcDbCircle
 10
1666.7364953471
 20
1305.6160655781
 30
0.0
 40
0.1999999999998181
100
AcDbArc
 50
135.0
 51
180.0
  0
ARC
  5
19F
330
1F
100
AcDbEntity
  8
0
  6
Continuous
 62
     7
370
    15
100
AcDbCircle
 10
1666.7364953471
 20
1279.7817510031
 30
0.0
 40
0.1999999999999695
100
AcDbArc
 50
180.0
 51
225.0000000001
  0
LINE
  5
1A0
330
1F
100
AcDbEntity
  8
0
  6
Continuous
 62
     7
370
    15
100
AcDbLine
 10
1719.5364940656
 20
1362.6989091847
 30
0.0
 11
1716.5364954365
 21
1362.6989091847
 31
0.0
  0
LINE
  5
1A1
330
1F
100
AcDbEntity
  8
0
  6
Continuous
 62
     7
370
    15
100
AcDbLine
 10
1716.5364954365
 20
1332.6989079926
 30
0.0
 11
1719.5364940656
 21
1332.6989079926
 31
0.0
  0
LINE
  5
1A2
330
1F
100
AcDbEntity
  8
0
  6
Continuous
 62
     7
370
    15
100
AcDbLine
 10
1719.5364940656
 20
1332.6989079926
 30
0.0
 11
1721.5364943934
 21
1334.6989045951
 31
0.0
  0
LINE
  5
1A3
330
1F
100
AcDbEntity
  8
0
  6
Continuous
 62
     7
370
    15
100
AcDbLine
 10
1721.5364943934
 20
1360.6989088568
 30
0.0
 11
1719.5364940656
 21
1362.6989091847
 31
0.0
  0
LINE
  5
1A4
330
1F
100
AcDbEntity
  8
0
  6
Continuous
 62
     7
370
    15
100
AcDbLine
 10
1719.5364940656
 20
1307.6989094827
 30
0.0
 11
1716.5364954365
 21
1307.6989094827
 31
0.0
  0
LINE
  5
1A5
330
1F
100
AcDbEntity
  8
0
  6
Continuous
 62
     7
370
    15
100
AcDbLine
 10
1716.5364954365
 20
1277.6989082906
 30
0.0
 11
1719.5364940656
 21
1277.6989082906
 31
0.0
  0
LINE
  5
1A6
330
1F
100
AcDbEntity
  8
0
  6
Continuous
 62
     7
370
    15
100
AcDbLine
 10
1719.5364940656
 20
1277.6989082906
 30
0.0
 11
1721.5364943934
 21
1279.6989048931
 31
0.0
  0
LINE
  5
1A7
330
1F
100
AcDbEntity
  8
0
  6
Continuous
 62
     7
370
    15
100
AcDbLine
 10
1721.5364943934
 20
1305.6989054296
 30
0.0
 11
1719.5364940656
 21
1307.6989094827
 31
0.0
  0
LINE
  5
1A8
330
1F
100
AcDbEntity
  8
0
  6
Continuous
 62
     7
370
    15
100
AcDbLine
 10
1719.5364940656
 20
1436.6989101383
 30
0.0
 11
1718.1625473989
 21
1436.6989101383
 31
0.0
  0
LINE
  5
1A9
330
1F
100
AcDbEntity
  8
0
  6
Continuous
 62
     7
370
    15
100
AcDbLine
 10
1716.5364954365
 20
1406.6989084806
 30
0.0
 11
1719.5364940656
 21
1406.6989084806
 31
0.0
  0
LINE
  5
1AA
330
1F
100
AcDbEntity
  8
0
  6
Continuous
 62
     7
370
    15
100
AcDbLine
 10
1719.5364940656
 20
1406.6989084806
 30
0.0
 11
1721.5364943934
 21
1408.6989083427
 31
0.0
  0
LINE
  5
1AB
330
1F
100
AcDbEntity
  8
0
  6
Continuous
 62
     7
370
    15
100
AcDbLine
 10
1721.5364943934
 20
1434.6989098105
 30
0.0
 11
1719.5364940656
 21
1436.6989101383
 31
0.0
  0
LINE
  5
1AC
330
1F
100
AcDbEntity
  8
0
  6
Continuous
 62
     7
370
    15
100
AcDbLine
 10
1719.5364940656
 20
1496.6989050719
 30
0.0
 11
1716.5364954365
 21
1496.6989050719
 31
0.0
  0
LINE
  5
1AD
330
1F
100
AcDbEntity
  8
0
  6
Continuous
 62
     7
370
    15
100
AcDbLine
 10
1716.5364954365
 20
1466.6989113304
 30
0.0
 11
1719.5364940656
 21
1466.6989113304
 31
0.0
  0
LINE
  5
1AE
330
1F
100
AcDbEntity
  8
0
  6
Continuous
 62
     7
370
    15
100
AcDbLine
 10
1719.5364940656
 20
1466.6989113304
 30
0.0
 11
1721.5364943934
 21
1468.698907933
 31
0.0
  0
LINE
  5
1AF
330
1F
100
AcDbEntity
  8
0
  6
Continuous
 62
     7
370
    15
100
AcDbLine
 10
1721.5364943934
 20
1494.6989084694
 30
0.0
 11
1719.5364940656
 21
1496.6989050719
 31
0.0
  0
LINE
  5
1B0
330
1F
100
AcDbEntity
  8
0
  6
Continuous
 62
     7
370
    15
100
AcDbLine
 10
1682.5364954514
 20
1413.698908231
 30
0.0
 11
1710.3364947928
 21
1413.698908231
 31
0.0
  0
LINE
  5
1B1
330
1F
100
AcDbEntity
  8
0
  6
Continuous
 62
     7
370
    15
100
AcDbLine
 10
1681.5364952875
 20
1414.6989083949
 30
0.0
 11
1682.5364954514
 21
1413.698908231
 31
0.0
  0
LINE
  5
1B2
330
1F
100
AcDbEntity
  8
0
  6
Continuous
 62
     7
370
    15
100
AcDbLine
 10
1710.3364947928
 20
1413.698908231
 30
0.0
 11
1710.536494453
 21
1413.8989078912
 31
0.0
  0
ARC
  5
1B3
330
1F
100
AcDbEntity
  8
0
  6
Continuous
 62
     7
370
    15
100
AcDbCircle
 10
1678.3364953471
 20
1496.4989082906
 30
0.0
 40
0.2000000000000455
100
AcDbArc
 50
0.0
 51
90.0
  0
ARC
  5
1B4
330
1F
100
AcDbEntity
  8
0
  6
Continuous
 62
     7
370
    15
100
AcDbCircle
 10
1678.3364953471
 20
1466.8989082906
 30
0.0
 40
0.2000000000002728
100
AcDbArc
 50
270.0
 51
0.0
  0
LINE
  5
1B5
330
1F
100
AcDbEntity
  8
0
  6
Continuous
 62
     7
370
    15
100
AcDbLine
 10
1677.6193381032
 20
1466.6989113304
 30
0.0
 11
1678.3364951355
 21
1466.6989113304
 31
0.0
  0
LINE
  5
1B6
330
1F
100
AcDbEntity
  8
0
  6
Continuous
 62
     7
370
    15
100
AcDbLine
 10
1678.3364951355
 20
1496.6989050719
 30
0.0
 11
1677.6193381032
 21
1496.6989050719
 31
0.0
  0
ARC
  5
1B7
330
1F
100
AcDbEntity
  8
0
  6
Continuous
 62
     7
370
    15
100
AcDbCircle
 10
1677.6193380596
 20
1466.8989082906
 30
0.0
 40
0.2000000000002728
100
AcDbArc
 50
225.0
 51
270.0
  0
ARC
  5
1B8
330
1F
100
AcDbEntity
  8
0
  6
Continuous
 62
     7
370
    15
100
AcDbCircle
 10
1677.6193380596
 20
1496.4989082906
 30
0.0
 40
0.2000000000000455
100
AcDbArc
 50
90.0
 51
135.0
  0
LINE
  5
1B9
330
1F
100
AcDbEntity
  8
0
  6
Continuous
 62
     7
370
    15
100
AcDbLine
 10
1677.4779167702
 20
1496.6403286073
 30
0.0
 11
1675.5950740283
 21
1494.757484934
 31
0.0
  0
LINE
  5
1BA
330
1F
100
AcDbEntity
  8
0
  6
Continuous
 62
     7
370
    15
100
AcDbLine
 10
1675.5950740283
 20
1468.6403314683
 30
0.0
 11
1677.4779167702
 21
1466.7574877951
 31
0.0
  0
ARC
  5
1BB
330
1F
100
AcDbEntity
  8
0
  6
Continuous
 62
     7
370
    15
100
AcDbCircle
 10
1675.7364953471
 20
1494.6160655781
 30
0.0
 40
0.200000000000291
100
AcDbArc
 50
135.0
 51
180.0
  0
ARC
  5
1BC
330
1F
100
AcDbEntity
  8
0
  6
Continuous
 62
     7
370
    15
100
AcDbCircle
 10
1675.7364953471
 20
1468.7817510031
 30
0.0
 40
0.200000000000291
100
AcDbArc
 50
180.0
 51
225.0
  0
LINE
  5
1BD
330
1F
100
AcDbEntity
  8
0
  6
Continuous
 62
     7
370
    15
100
AcDbLine
 10
1679.0364958091
 20
1491.4489056084
 30
0.0
 11
1678.5364957271
 21
1491.4489056084
 31
0.0
  0
LINE
  5
1BE
330
1F
100
AcDbEntity
  8
0
  6
Continuous
 62
     7
370
    15
100
AcDbLine
 10
1678.5364957271
 20
1471.948910794
 30
0.0
 11
1679.0364958091
 21
1471.948910794
 31
0.0
  0
LINE
  5
1BF
330
1F
100
AcDbEntity
  8
0
  6
Continuous
 62
     7
370
    15
100
AcDbLine
 10
1700.0364955259
 20
1510.698911092
 30
0.0
 11
1698.5364962114
 21
1510.698911092
 31
0.0
  0
LINE
  5
1C0
330
1F
100
AcDbEntity
  8
0
  6
Continuous
 62
     7
370
    15
100
AcDbLine
 10
1680.5364951236
 20
1510.698911092
 30
0.0
 11
1679.0364958091
 21
1510.698911092
 31
0.0
  0
LINE
  5
1C1
330
1F
100
AcDbEntity
  8
0
  6
Continuous
 62
     7
370
    15
100
AcDbLine
 10
1681.5569238482
 20
1510.698911092
 30
0.0
 11
1680.5364951236
 21
1510.698911092
 31
0.0
  0
ARC
  5
1C2
330
1F
100
AcDbEntity
  8
0
  6
Continuous
 62
     7
370
    15
100
AcDbCircle
 10
1689.5625467704
 20
1520.2989082906
 30
0.0
 40
12.49999999999974
100
AcDbArc
 50
230.1746287392
 51
309.8253712608
  0
LINE
  5
1C3
330
1F
100
AcDbEntity
  8
0
  6
Continuous
 62
     7
370
    15
100
AcDbLine
 10
1698.5364962114
 20
1510.698911092
 30
0.0
 11
1697.5681703282
 21
1510.698911092
 31
0.0
  0
LINE
  5
1C4
330
1F
100
AcDbEntity
  8
0
  6
Continuous
 62
     7
370
    15
100
AcDbLine
 10
1715.1864949358
 20
1277.6989082906
 30
0.0
 11
1716.5364954365
 21
1277.6989082906
 31
0.0
  0
LINE
  5
1C5
330
1F
100
AcDbEntity
  8
0
  6
Continuous
 62
     7
370
    15
100
AcDbLine
 10
1710.536494453
 20
1277.6989082906
 30
0.0
 11
1711.9071181608
 21
1277.6989082906
 31
0.0
  0
LINE
  5
1C6
330
1F
100
AcDbEntity
  8
0
  6
Continuous
 62
     7
370
    15
100
AcDbLine
 10
1716.5364954365
 20
1496.6989050719
 30
0.0
 11
1710.536494453
 21
1496.6989050719
 31
0.0
  0
LINE
  5
1C7
330
1F
100
AcDbEntity
  8
0
  6
Continuous
 62
     7
370
    15
100
AcDbLine
 10
1706.2364961697
 20
1496.6989050719
 30
0.0
 11
1700.8364960296
 21
1496.6989050719
 31
0.0
  0
LINE
  5
1C8
330
1F
100
AcDbEntity
  8
0
  6
Continuous
 62
     7
370
    15
100
AcDbLine
 10
1700.8364960296
 20
1466.6989113304
 30
0.0
 11
1706.2364961697
 21
1466.6989113304
 31
0.0
  0
LINE
  5
1C9
330
1F
100
AcDbEntity
  8
0
  6
Continuous
 62
     7
370
    15
100
AcDbLine
 10
1700.8364960296
 20
1496.6989050719
 30
0.0
 11
1700.5364946766
 21
1496.3989074442
 31
0.0
  0
LINE
  5
1CA
330
1F
100
AcDbEntity
  8
0
  6
Continuous
 62
     7
370
    15
100
AcDbLine
 10
1700.5364946766
 20
1466.9989089582
 30
0.0
 11
1700.8364960296
 21
1466.6989113304
 31
0.0
  0
LINE
  5
1CB
330
1F
100
AcDbEntity
  8
0
  6
Continuous
 62
     7
370
    15
100
AcDbLine
 10
1706.2364961697
 20
1466.6989113304
 30
0.0
 11
1706.5364937974
 21
1466.9989089582
 31
0.0
  0
LINE
  5
1CC
330
1F
100
AcDbEntity
  8
0
  6
Continuous
 62
     7
370
    15
100
AcDbLine
 10
1706.5364937974
 20
1496.3989074442
 30
0.0
 11
1706.2364961697
 21
1496.6989050719
 31
0.0
  0
LINE
  5
1CD
330
1F
100
AcDbEntity
  8
0
  6
Continuous
 62
     7
370
    15
100
AcDbLine
 10
1700.5364946766
 20
1491.4489056084
 30
0.0
 11
1700.0364955259
 21
1491.4489056084
 31
0.0
  0
LINE
  5
1CE
330
1F
100
AcDbEntity
  8
0
  6
Continuous
 62
     7
370
    15
100
AcDbLine
 10
1700.0364955259
 20
1471.948910794
 30
0.0
 11
1700.5364946766
 21
1471.948910794
 31
0.0
  0
LINE
  5
1CF
330
1F
100
AcDbEntity
  8
0
  6
Continuous
 62
     7
370
    15
100
AcDbLine
 10
1656.0625467194
 20
1418.0989082071
 30
0.0
 11
1658.0625470472
 21
1418.0989082071
 31
0.0
  0
LINE
  5
1D0
330
1F
100
AcDbEntity
  8
0
  6
Continuous
 62
     7
370
    15
100
AcDbLine
 10
1658.0625470472
 20
1468.0989052269
 30
0.0
 11
1656.0625467194
 21
1468.0989052269
 31
0.0
  0
LINE
  5
1D1
330
1F
100
AcDbEntity
  8
0
  6
Continuous
 62
     7
370
    15
100
AcDbLine
 10
1658.0625470472
 20
1418.0989082071
 30
0.0
 11
1659.0625472111
 21
1419.098908371
 31
0.0
  0
LINE
  5
1D2
330
1F
100
AcDbEntity
  8
0
  6
Continuous
 62
     7
370
    15
100
AcDbLine
 10
1659.0625472111
 20
1467.0989106509
 30
0.0
 11
1658.0625470472
 21
1468.0989052269
 31
0.0
  0
LINE
  5
1D3
330
1F
100
AcDbEntity
  8
0
  6
Continuous
 62
     7
370
    15
100
AcDbLine
 10
1676.5364953993
 20
-651.3009925273
 30
0.0
 11
1676.5364953993
 21
-655.3011794475
 31
0.0
  0
LINE
  5
1D4
330
1F
100
AcDbEntity
  8
0
  6
Continuous
 62
     7
370
    15
100
AcDbLine
 10
1676.5364953993
 20
-651.3009925273
 30
0.0
 11
1704.5364971949
 21
-651.3009925273
 31
0.0
  0
LINE
  5
1D5
330
1F
100
AcDbEntity
  8
0
  6
Continuous
 62
     7
370
    15
100
AcDbLine
 10
1704.5364971949
 20
-651.3009925273
 30
0.0
 11
1704.5364971949
 21
-655.3011794475
 31
0.0
  0
LINE
  5
1D6
330
1F
100
AcDbEntity
  8
0
  6
Continuous
 62
     7
370
    15
100
AcDbLine
 10
1676.5364953993
 20
-655.3011794475
 30
0.0
 11
1704.5364971949
 21
-655.3011794475
 31
0.0
  0
LINE
  5
1D7
330
1F
100
AcDbEntity
  8
0
  6
Continuous
 62
     7
370
    15
100
AcDbLine
 10
1689.8369729264
 20
-635.3011985209
 30
0.0
 11
1689.5659059031
 21
-651.3009925273
 31
0.0
  0
LINE
  5
1D8
330
1F
100
AcDbEntity
  8
0
  6
Continuous
 62
     7
370
    15
100
AcDbLine
 10
1689.8369729264
 20
-635.3011985209
 30
0.0
 11
1691.2360168738
 21
-635.3011985209
 31
0.0
  0
LINE
  5
1D9
330
1F
100
AcDbEntity
  8
0
  6
Continuous
 62
     7
370
    15
100
AcDbLine
 10
1691.2360168738
 20
-635.3011985209
 30
0.0
 11
1691.5070838971
 21
-651.3009925273
 31
0.0
  0
LINE
  5
1DA
330
1F
100
AcDbEntity
  8
0
  6
Continuous
 62
     7
370
    15
100
AcDbLine
 10
1691.2360168738
 20
-635.3011985209
 30
0.0
 11
1692.8453832609
 21
-635.3011985209
 31
0.0
  0
LINE
  5
1DB
330
1F
100
AcDbEntity
  8
0
  6
Continuous
 62
     7
370
    15
100
AcDbLine
 10
1688.2276065392
 20
-635.3011985209
 30
0.0
 11
1689.8369729264
 21
-635.3011985209
 31
0.0
  0
LINE
  5
1DC
330
1F
100
AcDbEntity
  8
0
  6
Continuous
 62
     7
370
    15
100
AcDbLine
 10
1714.1625467433
 20
1463.0989099953
 30
0.0
 11
1714.1625467433
 21
1423.0989090267
 31
0.0
  0
LINE
  5
1DD
330
1F
100
AcDbEntity
  8
0
  6
Continuous
 62
     7
370
    15
100
AcDbLine
 10
1706.1625454319
 20
1463.0989099953
 30
0.0
 11
1706.1625454319
 21
1423.0989090267
 31
0.0
  0
LINE
  5
1DE
330
1F
100
AcDbEntity
  8
0
  6
Continuous
 62
     7
370
    15
100
AcDbLine
 10
1676.9625466062
 20
1443.098906717
 30
0.0
 11
1677.1680773912
 21
1444.5190954122
 31
0.0
  0
SPLINE
  5
1DF
330
1F
100
AcDbEntity
  8
0
  6
Continuous
 62
     7
370
    15
100
AcDbSpline
210
0.0
220
0.0
230
1.0
 70
     8
 71
     3
 72
     9
 73
     5
 74
     0
 42
0.00000001
 43
0.00000001
 40
0.0
 40
0.0
 40
0.0
 40
0.0
 40
0.5772355642147848
 40
1.0
 40
1.0
 40
1.0
 40
1.0
 10
1702.033906777002
 20
1443.234544536786
 30
0.0
 10
1702.083584080535
 20
1442.588739777767
 30
0.0
 10
1702.169644792336
 20
1441.46995084816
 30
0.0
 10
1701.819265789277
 20
1440.444670533387
 30
0.0
 10
1701.671138007737
 20
1440.01121847959
 30
0.0
  0
SPLINE
  5
1E0
330
1F
100
AcDbEntity
  8
0
  6
Continuous
 62
     7
370
    15
100
AcDbSpline
210
0.0
220
0.0
230
1.0
 70
     8
 71
     3
 72
     9
 73
     5
 74
     0
 42
0.00000001
 43
0.00000001
 40
0.0
 40
0.0
 40
0.0
 40
0.0
 40
0.4159477433799397
 40
1.0
 40
1.0
 40
1.0
 40
1.0
 10
1677.334022775836
 20
1440.516557833867
 30
0.0
 10
1677.227131772243
 20
1440.860353305425
 30
0.0
 10
1676.970149963122
 20
1441.686888554213
 30
0.0
 10
1676.965350022382
 20
1442.578284754626
 30
0.0
 10
1676.96254660616
 20
1443.098906717019
 30
0.0
  0
LINE
  5
1E1
330
1F
100
AcDbEntity
  8
0
  6
Continuous
 62
     7
370
    15
100
AcDbLine
 10
1675.3625469958
 20
1459.0989093396
 30
0.0
 11
1675.3625469958
 21
1427.0989078197
 31
0.0
  0
LINE
  5
1E2
330
1F
100
AcDbEntity
  8
0
  6
Continuous
 62
     7
370
    15
100
AcDbLine
 10
1673.5625467939
 20
1428.8989084873
 30
0.0
 11
1673.5625467939
 21
1457.2989086721
 31
0.0
  0
CIRCLE
  5
1E3
330
1F
100
AcDbEntity
  8
0
  6
Continuous
 62
     7
370
    15
100
AcDbCircle
 10
1689.5625467704
 20
1443.0989082906
 30
0.0
 40
12.50000000000017
  0
CIRCLE
  5
1E4
330
1F
100
AcDbEntity
  8
0
  6
Continuous
 62
     7
370
    15
100
AcDbCircle
 10
1689.5625467704
 20
1443.0989082906
 30
0.0
 40
12.30000000000012
  0
LINE
  5
1E5
330
1F
100
AcDbEntity
  8
0
  6
Continuous
 62
     7
370
    15
100
AcDbLine
 10
1706.7364971829
 20
1469.1766093585
 30
0.0
 11
1706.7364971829
 21
1466.6989113304
 31
0.0
  0
LINE
  5
1E6
330
1F
100
AcDbEntity
  8
0
  6
Continuous
 62
     7
370
    15
100
AcDbLine
 10
1706.7364971829
 20
1496.6989050719
 30
0.0
 11
1706.7364971829
 21
1469.1766093585
 31
0.0
  0
LINE
  5
1E7
330
1F
100
AcDbEntity
  8
0
  6
Continuous
 62
     7
370
    15
100
AcDbLine
 10
1706.5364937974
 20
1469.3435768697
 30
0.0
 11
1706.5364937974
 21
1496.498909137
 31
0.0
  0
LINE
  5
1E8
330
1F
100
AcDbEntity
  8
0
  6
Continuous
 62
     7
370
    15
100
AcDbLine
 10
1706.5364937974
 20
1466.8989072654
 30
0.0
 11
1706.5364937974
 21
1469.3435768697
 31
0.0
  0
LINE
  5
1E9
330
1F
100
AcDbEntity
  8
0
  6
Continuous
 62
     7
370
    15
100
AcDbLine
 10
1710.3364947928
 20
1469.1766093585
 30
0.0
 11
1710.3364947928
 21
1496.6989050719
 31
0.0
  0
LINE
  5
1EA
330
1F
100
AcDbEntity
  8
0
  6
Continuous
 62
     7
370
    15
100
AcDbLine
 10
1710.3364947928
 20
1466.6989113304
 30
0.0
 11
1710.3364947928
 21
1469.1766093585
 31
0.0
  0
LINE
  5
1EB
330
1F
100
AcDbEntity
  8
0
  6
Continuous
 62
     7
370
    15
100
AcDbLine
 10
1718.1625473989
 20
1438.1510022196
 30
0.0
 11
1718.1625473989
 21
1430.1817513171
 31
0.0
  0
LINE
  5
1EC
330
1F
100
AcDbEntity
  8
0
  6
Continuous
 62
     7
370
    15
100
AcDbLine
 10
1718.1625473989
 20
1456.0160639796
 30
0.0
 11
1718.1625473989
 21
1438.1510022196
 31
0.0
  0
LINE
  5
1ED
330
1F
100
AcDbEntity
  8
0
  6
Continuous
 62
     7
370
    15
100
AcDbLine
 10
1666.5364951571
 20
1334.7817476008
 30
0.0
 11
1666.5364951571
 21
1360.6160658512
 31
0.0
  0
LINE
  5
1EE
330
1F
100
AcDbEntity
  8
0
  6
Continuous
 62
     7
370
    15
100
AcDbLine
 10
1666.5364951571
 20
1282.9172427866
 30
0.0
 11
1666.5364951571
 21
1305.6160624239
 31
0.0
  0
LINE
  5
1EF
330
1F
100
AcDbEntity
  8
0
  6
Continuous
 62
     7
370
    15
100
AcDbLine
 10
1666.5364951571
 20
1279.7817478988
 30
0.0
 11
1666.5364951571
 21
1282.9172427866
 31
0.0
  0
LINE
  5
1F0
330
1F
100
AcDbEntity
  8
0
  6
Continuous
 62
     7
370
    15
100
AcDbLine
 10
1719.5364940656
 20
1335.0802625629
 30
0.0
 11
1719.5364940656
 21
1362.6989091847
 31
0.0
  0
LINE
  5
1F1
330
1F
100
AcDbEntity
  8
0
  6
Continuous
 62
     7
370
    15
100
AcDbLine
 10
1719.5364940656
 20
1332.6989079926
 30
0.0
 11
1719.5364940656
 21
1335.0802625629
 31
0.0
  0
LINE
  5
1F2
330
1F
100
AcDbEntity
  8
0
  6
Continuous
 62
     7
370
    15
100
AcDbLine
 10
1721.5364943934
 20
1336.7627526733
 30
0.0
 11
1721.5364943934
 21
1334.6989045951
 31
0.0
  0
LINE
  5
1F3
330
1F
100
AcDbEntity
  8
0
  6
Continuous
 62
     7
370
    15
100
AcDbLine
 10
1721.5364943934
 20
1360.6989088568
 30
0.0
 11
1721.5364943934
 21
1336.7627526733
 31
0.0
  0
LINE
  5
1F4
330
1F
100
AcDbEntity
  8
0
  6
Continuous
 62
     7
370
    15
100
AcDbLine
 10
1716.5364954365
 20
1292.0191626164
 30
0.0
 11
1716.5364954365
 21
1292.6989088866
 31
0.0
  0
LINE
  5
1F5
330
1F
100
AcDbEntity
  8
0
  6
Continuous
 62
     7
370
    15
100
AcDbLine
 10
1716.5364954365
 20
1277.6989082906
 30
0.0
 11
1716.5364954365
 21
1292.0191626164
 31
0.0
  0
LINE
  5
1F6
330
1F
100
AcDbEntity
  8
0
  6
Continuous
 62
     7
370
    15
100
AcDbLine
 10
1719.5364940656
 20
1292.0191626164
 30
0.0
 11
1719.5364940656
 21
1307.6989094827
 31
0.0
  0
LINE
  5
1F7
330
1F
100
AcDbEntity
  8
0
  6
Continuous
 62
     7
370
    15
100
AcDbLine
 10
1719.5364940656
 20
1277.6989082906
 30
0.0
 11
1719.5364940656
 21
1292.0191626164
 31
0.0
  0
LINE
  5
1F8
330
1F
100
AcDbEntity
  8
0
  6
Continuous
 62
     7
370
    15
100
AcDbLine
 10
1721.5364943934
 20
1292.1097989294
 30
0.0
 11
1721.5364943934
 21
1279.6989048931
 31
0.0
  0
LINE
  5
1F9
330
1F
100
AcDbEntity
  8
0
  6
Continuous
 62
     7
370
    15
100
AcDbLine
 10
1721.5364943934
 20
1305.6989054296
 30
0.0
 11
1721.5364943934
 21
1292.1097989294
 31
0.0
  0
LINE
  5
1FA
330
1F
100
AcDbEntity
  8
0
  6
Continuous
 62
     7
370
    15
100
AcDbLine
 10
1719.5364940656
 20
1421.0191632721
 30
0.0
 11
1719.5364940656
 21
1436.6989101383
 31
0.0
  0
LINE
  5
1FB
330
1F
100
AcDbEntity
  8
0
  6
Continuous
 62
     7
370
    15
100
AcDbLine
 10
1719.5364940656
 20
1406.6989084806
 30
0.0
 11
1719.5364940656
 21
1421.0191632721
 31
0.0
  0
LINE
  5
1FC
330
1F
100
AcDbEntity
  8
0
  6
Continuous
 62
     7
370
    15
100
AcDbLine
 10
1721.5364943934
 20
1421.1097958598
 30
0.0
 11
1721.5364943934
 21
1408.6989083427
 31
0.0
  0
LINE
  5
1FD
330
1F
100
AcDbEntity
  8
0
  6
Continuous
 62
     7
370
    15
100
AcDbLine
 10
1721.5364943934
 20
1434.6989098105
 30
0.0
 11
1721.5364943934
 21
1421.1097958598
 31
0.0
  0
LINE
  5
1FE
330
1F
100
AcDbEntity
  8
0
  6
Continuous
 62
     7
370
    15
100
AcDbLine
 10
1716.5364954365
 20
1481.6989119265
 30
0.0
 11
1716.5364954365
 21
1496.6989050719
 31
0.0
  0
LINE
  5
1FF
330
1F
100
AcDbEntity
  8
0
  6
Continuous
 62
     7
370
    15
100
AcDbLine
 10
1719.5364940656
 20
1481.0191656563
 30
0.0
 11
1719.5364940656
 21
1496.6989050719
 31
0.0
  0
LINE
  5
200
330
1F
100
AcDbEntity
  8
0
  6
Continuous
 62
     7
370
    15
100
AcDbLine
 10
1719.5364940656
 20
1466.6989113304
 30
0.0
 11
1719.5364940656
 21
1481.0191656563
 31
0.0
  0
LINE
  5
201
330
1F
100
AcDbEntity
  8
0
  6
Continuous
 62
     7
370
    15
100
AcDbLine
 10
1721.5364943934
 20
1481.1097945187
 30
0.0
 11
1721.5364943934
 21
1468.698907933
 31
0.0
  0
LINE
  5
202
330
1F
100
AcDbEntity
  8
0
  6
Continuous
 62
     7
370
    15
100
AcDbLine
 10
1721.5364943934
 20
1494.6989084694
 30
0.0
 11
1721.5364943934
 21
1481.1097945187
 31
0.0
  0
LINE
  5
203
330
1F
100
AcDbEntity
  8
0
  6
Continuous
 62
     7
370
    15
100
AcDbLine
 10
1682.5364954514
 20
1427.0989078197
 30
0.0
 11
1682.5364954514
 21
1413.698908231
 31
0.0
  0
LINE
  5
204
330
1F
100
AcDbEntity
  8
0
  6
Continuous
 62
     7
370
    15
100
AcDbLine
 10
1710.3364947928
 20
1413.698908231
 30
0.0
 11
1710.3364947928
 21
1423.0989090267
 31
0.0
  0
LINE
  5
205
330
1F
100
AcDbEntity
  8
0
  6
Continuous
 62
     7
370
    15
100
AcDbLine
 10
1681.5364952875
 20
1414.6989083949
 30
0.0
 11
1681.5364952875
 21
1427.0989078197
 31
0.0
  0
LINE
  5
206
330
1F
100
AcDbEntity
  8
0
  6
Continuous
 62
     7
370
    15
100
AcDbLine
 10
1678.5364957271
 20
1496.498909137
 30
0.0
 11
1678.5364957271
 21
1466.8989072654
 31
0.0
  0
LINE
  5
207
330
1F
100
AcDbEntity
  8
0
  6
Continuous
 62
     7
370
    15
100
AcDbLine
 10
1675.5364952354
 20
1468.7817509386
 30
0.0
 11
1675.5364952354
 21
1494.6160654637
 31
0.0
  0
LINE
  5
208
330
1F
100
AcDbEntity
  8
0
  6
Continuous
 62
     7
370
    15
100
AcDbLine
 10
1700.0364955259
 20
1459.0989093396
 30
0.0
 11
1700.0364955259
 21
1510.698911092
 31
0.0
  0
LINE
  5
209
330
1F
100
AcDbEntity
  8
0
  6
Continuous
 62
     7
370
    15
100
AcDbLine
 10
1698.5364962114
 20
1459.0989093396
 30
0.0
 11
1698.5364962114
 21
1510.698911092
 31
0.0
  0
LINE
  5
20A
330
1F
100
AcDbEntity
  8
0
  6
Continuous
 62
     7
370
    15
100
AcDbLine
 10
1680.5364951236
 20
1510.698911092
 30
0.0
 11
1680.5364951236
 21
1459.0989093396
 31
0.0
  0
LINE
  5
20B
330
1F
100
AcDbEntity
  8
0
  6
Continuous
 62
     7
370
    15
100
AcDbLine
 10
1679.0364958091
 20
1510.698911092
 30
0.0
 11
1679.0364958091
 21
1459.0989093396
 31
0.0
  0
LINE
  5
20C
330
1F
100
AcDbEntity
  8
0
  6
Continuous
 62
     7
370
    15
100
AcDbLine
 10
1681.5569238482
 20
1508.1475864265
 30
0.0
 11
1681.5569238482
 21
1510.698911092
 31
0.0
  0
LINE
  5
20D
330
1F
100
AcDbEntity
  8
0
  6
Continuous
 62
     7
370
    15
100
AcDbLine
 10
1681.5569238482
 20
1459.0989093396
 30
0.0
 11
1681.5569238482
 21
1508.1475864265
 31
0.0
  0
LINE
  5
20E
330
1F
100
AcDbEntity
  8
0
  6
Continuous
 62
     7
370
    15
100
AcDbLine
 10
1697.5681703282
 20
1510.698911092
 30
0.0
 11
1697.5681703282
 21
1459.0989093396
 31
0.0
  0
LINE
  5
20F
330
1F
100
AcDbEntity
  8
0
  6
Continuous
 62
     7
370
    15
100
AcDbLine
 10
1710.536494453
 20
1292.6989088866
 30
0.0
 11
1716.5364954365
 21
1292.6989088866
 31
0.0
  0
LINE
  5
210
330
1F
100
AcDbEntity
  8
0
  6
Continuous
 62
     7
370
    15
100
AcDbLine
 10
1710.536494453
 20
1402.6989082906
 30
0.0
 11
1710.536494453
 21
1423.0989090267
 31
0.0
  0
LINE
  5
211
330
1F
100
AcDbEntity
  8
0
  6
Continuous
 62
     7
370
    15
100
AcDbLine
 10
1710.536494453
 20
1463.0989099953
 30
0.0
 11
1710.536494453
 21
1481.6989119265
 31
0.0
  0
LINE
  5
212
330
1F
100
AcDbEntity
  8
0
  6
Continuous
 62
     7
370
    15
100
AcDbLine
 10
1710.536494453
 20
1481.6989119265
 30
0.0
 11
1716.5364954365
 21
1481.6989119265
 31
0.0
  0
LINE
  5
213
330
1F
100
AcDbEntity
  8
0
  6
Continuous
 62
     7
370
    15
100
AcDbLine
 10
1716.5364954365
 20
1292.6989088866
 30
0.0
 11
1716.5364954365
 21
1428.4728563491
 31
0.0
  0
LINE
  5
214
330
1F
100
AcDbEntity
  8
0
  6
Continuous
 62
     7
370
    15
100
AcDbLine
 10
1716.5364954365
 20
1457.7249589476
 30
0.0
 11
1716.5364954365
 21
1481.6989119265
 31
0.0
  0
LINE
  5
215
330
1F
100
AcDbEntity
  8
0
  6
Continuous
 62
     7
370
    15
100
AcDbLine
 10
1716.5364954365
 20
1277.6989082906
 30
0.0
 11
1716.5364954365
 21
1292.6989088866
 31
0.0
  0
ARC
  5
216
330
1F
100
AcDbEntity
  8
0
  6
Continuous
 62
     7
370
    15
100
AcDbCircle
 10
1713.5365444929
 20
1262.7435803096
 30
0.0
 40
15.04606830648455
100
AcDbArc
 50
83.7042889556
 51
96.2170864708
  0
LINE
  5
217
330
1F
100
AcDbEntity
  8
0
  6
Continuous
 62
     7
370
    15
100
AcDbLine
 10
1710.536494453
 20
1481.6989119265
 30
0.0
 11
1710.536494453
 21
1496.6989050719
 31
0.0
  0
LINE
  5
218
330
1F
100
AcDbEntity
  8
0
  6
Continuous
 62
     7
370
    15
100
AcDbLine
 10
1700.8364960296
 20
1481.0191656563
 30
0.0
 11
1700.8364960296
 21
1466.6989113304
 31
0.0
  0
LINE
  5
219
330
1F
100
AcDbEntity
  8
0
  6
Continuous
 62
     7
370
    15
100
AcDbLine
 10
1700.8364960296
 20
1496.6989050719
 30
0.0
 11
1700.8364960296
 21
1481.0191656563
 31
0.0
  0
LINE
  5
21A
330
1F
100
AcDbEntity
  8
0
  6
Continuous
 62
     7
370
    15
100
AcDbLine
 10
1706.2364961697
 20
1481.0191656563
 30
0.0
 11
1706.2364961697
 21
1496.6989050719
 31
0.0
  0
LINE
  5
21B
330
1F
100
AcDbEntity
  8
0
  6
Continuous
 62
     7
370
    15
100
AcDbLine
 10
1706.2364961697
 20
1466.6989113304
 30
0.0
 11
1706.2364961697
 21
1481.0191656563
 31
0.0
  0
LINE
  5
21C
330
1F
100
AcDbEntity
  8
0
  6
Continuous
 62
     7
370
    15
100
AcDbLine
 10
1700.5364946766
 20
1481.0327555153
 30
0.0
 11
1700.5364946766
 21
1496.3989074442
 31
0.0
  0
LINE
  5
21D
330
1F
100
AcDbEntity
  8
0
  6
Continuous
 62
     7
370
    15
100
AcDbLine
 10
1700.5364946766
 20
1466.9989089582
 30
0.0
 11
1700.5364946766
 21
1481.0327555153
 31
0.0
  0
LINE
  5
21E
330
1F
100
AcDbEntity
  8
0
  6
Continuous
 62
     7
370
    15
100
AcDbLine
 10
1687.0364952577
 20
-647.3010440257
 30
0.0
 11
1687.0364952577
 21
-627.3010630992
 31
0.0
  0
LINE
  5
21F
330
1F
100
AcDbEntity
  8
0
  6
Continuous
 62
     7
370
    15
100
AcDbLine
 10
1687.0364952577
 20
-647.3010440257
 30
0.0
 11
1670.5364953471
 21
-647.3010440257
 31
0.0
  0
LINE
  5
220
330
1F
100
AcDbEntity
  8
0
  6
Continuous
 62
     7
370
    15
100
AcDbLine
 10
1670.5364953471
 20
1402.6989082906
 30
0.0
 11
1670.5364953471
 21
-647.3010440257
 31
0.0
  0
LINE
  5
221
330
1F
100
AcDbEntity
  8
0
  6
Continuous
 62
     7
370
    15
100
AcDbLine
 10
1710.536494453
 20
1402.6989082906
 30
0.0
 11
1670.5364953471
 21
1402.6989082906
 31
0.0
  0
LINE
  5
222
330
1F
100
AcDbEntity
  8
0
  6
Continuous
 62
     7
370
    15
100
AcDbLine
 10
1710.536494453
 20
1402.6989082906
 30
0.0
 11
1710.536494453
 21
-647.3010440257
 31
0.0
  0
LINE
  5
223
330
1F
100
AcDbEntity
  8
0
  6
Continuous
 62
     7
370
    15
100
AcDbLine
 10
1710.536494453
 20
-647.3010440257
 30
0.0
 11
1694.0364945425
 21
-647.3010440257
 31
0.0
  0
LINE
  5
224
330
1F
100
AcDbEntity
  8
0
  6
Continuous
 62
     7
370
    15
100
AcDbLine
 10
1694.0364945425
 20
-627.3010630992
 30
0.0
 11
1694.0364945425
 21
-647.3010440257
 31
0.0
  0
LINE
  5
225
330
1F
100
AcDbEntity
  8
0
  6
Continuous
 62
     7
370
    15
100
AcDbLine
 10
1687.0364952577
 20
-627.3010630992
 30
0.0
 11
1694.0364945425
 21
-627.3010630992
 31
0.0
  0
LINE
  5
226
330
1F
100
AcDbEntity
  8
0
  6
Continuous
 62
     7
370
    15
100
AcDbLine
 10
1656.0625467194
 20
1468.0989052269
 30
0.0
 11
1656.0625467194
 21
1418.0989082071
 31
0.0
  0
LINE
  5
227
330
1F
100
AcDbEntity
  8
0
  6
Continuous
 62
     7
370
    15
100
AcDbLine
 10
1658.0625470472
 20
1418.0989082071
 30
0.0
 11
1658.0625470472
 21
1468.0989052269
 31
0.0
  0
LINE
  5
228
330
1F
100
AcDbEntity
  8
0
  6
Continuous
 62
     7
370
    15
100
AcDbLine
 10
1659.0625472111
 20
1467.0989106509
 30
0.0
 11
1659.0625472111
 21
1419.098908371
 31
0.0
  0
LINE
  5
229
330
1F
100
AcDbEntity
  8
0
  6
Continuous
 62
     8
370
    15
100
AcDbLine
 10
1714.3625464035
 20
1437.3531716976
 30
0.0
 11
1714.3625464035
 21
1428.0989079836
 31
0.0
  0
LINE
  5
22A
330
1F
100
AcDbEntity
  8
0
  6
Continuous
 62
     8
370
    15
100
AcDbLine
 10
1714.3625464035
 20
1458.0989073131
 30
0.0
 11
1714.3625464035
 21
1437.3531716976
 31
0.0
  0
LINE
  5
22B
330
1F
100
AcDbEntity
  8
0
  6
Continuous
 62
     8
370
    15
100
AcDbLine
 10
1716.0797040654
 20
1428.0989079836
 30
0.0
 11
1716.0797040654
 21
1458.0989073131
 31
0.0
  0
LINE
  5
22C
330
1F
100
AcDbEntity
  8
0
  6
Continuous
 62
     8
370
    15
100
AcDbLine
 10
1716.221127261
 20
1437.3756128463
 30
0.0
 11
1716.221127261
 21
1428.1574863109
 31
0.0
  0
LINE
  5
22D
330
1F
100
AcDbEntity
  8
0
  6
Continuous
 62
     8
370
    15
100
AcDbLine
 10
1716.221127261
 20
1458.0403308484
 30
0.0
 11
1716.221127261
 21
1437.3756128463
 31
0.0
  0
LINE
  5
22E
330
1F
100
AcDbEntity
  8
0
  6
Continuous
 62
     8
370
    15
100
AcDbLine
 10
1718.103967209
 20
1438.0968327734
 30
0.0
 11
1718.103967209
 21
1456.1574871752
 31
0.0
  0
LINE
  5
22F
330
1F
100
AcDbEntity
  8
0
  6
Continuous
 62
     8
370
    15
100
AcDbLine
 10
1718.103967209
 20
1430.0403299841
 30
0.0
 11
1718.103967209
 21
1438.0968327734
 31
0.0
  0
LINE
  5
230
330
1F
100
AcDbEntity
  8
0
  6
Continuous
 62
     8
370
    15
100
AcDbLine
 10
1668.619338025
 20
1360.7323619637
 30
0.0
 11
1668.619338025
 21
1332.6989079926
 31
0.0
  0
LINE
  5
231
330
1F
100
AcDbEntity
  8
0
  6
Continuous
 62
     8
370
    15
100
AcDbLine
 10
1668.619338025
 20
1362.6989091847
 30
0.0
 11
1668.619338025
 21
1360.7323619637
 31
0.0
  0
LINE
  5
232
330
1F
100
AcDbEntity
  8
0
  6
Continuous
 62
     8
370
    15
100
AcDbLine
 10
1668.477916692
 20
1332.7574844572
 30
0.0
 11
1668.477916692
 21
1362.6403289947
 31
0.0
  0
LINE
  5
233
330
1F
100
AcDbEntity
  8
0
  6
Continuous
 62
     8
370
    15
100
AcDbLine
 10
1670.3364953522
 20
1332.6989079926
 30
0.0
 11
1670.3364953522
 21
1362.6989091847
 31
0.0
  0
LINE
  5
234
330
1F
100
AcDbEntity
  8
0
  6
Continuous
 62
     8
370
    15
100
AcDbLine
 10
1666.5950739501
 20
1360.7574853215
 30
0.0
 11
1666.5950739501
 21
1334.6403281304
 31
0.0
  0
LINE
  5
235
330
1F
100
AcDbEntity
  8
0
  6
Continuous
 62
     8
370
    15
100
AcDbLine
 10
1668.619338025
 20
1307.6989094827
 30
0.0
 11
1668.619338025
 21
1277.6989082906
 31
0.0
  0
LINE
  5
236
330
1F
100
AcDbEntity
  8
0
  6
Continuous
 62
     8
370
    15
100
AcDbLine
 10
1668.477916692
 20
1281.3843454334
 30
0.0
 11
1668.477916692
 21
1307.640333018
 31
0.0
  0
LINE
  5
237
330
1F
100
AcDbEntity
  8
0
  6
Continuous
 62
     8
370
    15
100
AcDbLine
 10
1668.477916692
 20
1277.7574847552
 30
0.0
 11
1668.477916692
 21
1281.3843454334
 31
0.0
  0
LINE
  5
238
330
1F
100
AcDbEntity
  8
0
  6
Continuous
 62
     8
370
    15
100
AcDbLine
 10
1670.3364953522
 20
1281.3399846766
 30
0.0
 11
1670.3364953522
 21
1307.6989094827
 31
0.0
  0
LINE
  5
239
330
1F
100
AcDbEntity
  8
0
  6
Continuous
 62
     8
370
    15
100
AcDbLine
 10
1670.3364953522
 20
1277.6989082906
 30
0.0
 11
1670.3364953522
 21
1281.3399846766
 31
0.0
  0
LINE
  5
23A
330
1F
100
AcDbEntity
  8
0
  6
Continuous
 62
     8
370
    15
100
AcDbLine
 10
1666.5950739501
 20
1282.8101481411
 30
0.0
 11
1666.5950739501
 21
1279.6403284285
 31
0.0
  0
LINE
  5
23B
330
1F
100
AcDbEntity
  8
0
  6
Continuous
 62
     8
370
    15
100
AcDbLine
 10
1666.5950739501
 20
1305.7574893448
 30
0.0
 11
1666.5950739501
 21
1282.8101481411
 31
0.0
  0
LINE
  5
23C
330
1F
100
AcDbEntity
  8
0
  6
Continuous
 62
     8
370
    15
100
AcDbLine
 10
1678.3364951355
 20
1466.6989113304
 30
0.0
 11
1678.3364951355
 21
1496.6989050719
 31
0.0
  0
LINE
  5
23D
330
1F
100
AcDbEntity
  8
0
  6
Continuous
 62
     8
370
    15
100
AcDbLine
 10
1677.6193381032
 20
1476.8095727179
 30
0.0
 11
1677.6193381032
 21
1466.6989113304
 31
0.0
  0
LINE
  5
23E
330
1F
100
AcDbEntity
  8
0
  6
Continuous
 62
     8
370
    15
100
AcDbLine
 10
1677.6193381032
 20
1496.6989050719
 30
0.0
 11
1677.6193381032
 21
1476.8095727179
 31
0.0
  0
LINE
  5
23F
330
1F
100
AcDbEntity
  8
0
  6
Continuous
 62
     8
370
    15
100
AcDbLine
 10
1677.4779167702
 20
1466.7574877951
 30
0.0
 11
1677.4779167702
 21
1496.6403286073
 31
0.0
  0
LINE
  5
240
330
1F
100
AcDbEntity
  8
0
  6
Continuous
 62
     8
370
    15
100
AcDbLine
 10
1675.5950740283
 20
1494.757484934
 30
0.0
 11
1675.5950740283
 21
1468.6403314683
 31
0.0
  0
LINE
  5
241
330
1F
100
AcDbEntity
  8
0
  6
Continuous
 62
     7
370
    15
100
AcDbLine
 10
-838.4660985743
 20
-728.2175156304
 30
0.0
 11
-848.4400492583
 21
-728.2175156304
 31
0.0
  0
LINE
  5
242
330
1F
100
AcDbEntity
  8
0
  6
Continuous
 62
     7
370
    15
100
AcDbLine
 10
-877.492150334
 20
-728.2175156304
 30
0.0
 11
-880.966095296
 21
-728.2175156304
 31
0.0
  0
LINE
  5
243
330
1F
100
AcDbEntity
  8
0
  6
Continuous
 62
     7
370
    15
100
AcDbLine
 10
-912.9660968159
 20
-728.2175156304
 30
0.0
 11
-960.966097466
 21
-728.2175156304
 31
0.0
  0
LINE
  5
244
330
1F
100
AcDbEntity
  8
0
  6
Continuous
 62
     7
370
    15
100
AcDbLine
 10
-268.4660684739
 20
-728.2175156304
 30
0.0
 11
-823.4839570199
 21
-728.2175156304
 31
0.0
  0
LINE
  5
245
330
1F
100
AcDbEntity
  8
0
  6
Continuous
 62
     7
370
    15
100
AcDbLine
 10
301.5339243735
 20
-728.2175156304
 30
0.0
 11
-148.4400164758
 21
-728.2175156304
 31
0.0
  0
LINE
  5
246
330
1F
100
AcDbEntity
  8
0
  6
Continuous
 62
     7
370
    15
100
AcDbLine
 10
-177.4921548043
 20
-728.2175156304
 30
0.0
 11
-253.4839641725
 21
-728.2175156304
 31
0.0
  0
LINE
  5
247
330
1F
100
AcDbEntity
  8
0
  6
Continuous
 62
     7
370
    15
100
AcDbLine
 10
871.5338576163
 20
-728.2175156304
 30
0.0
 11
316.516028675
 21
-728.2175156304
 31
0.0
  0
LINE
  5
248
330
1F
100
AcDbEntity
  8
0
  6
Continuous
 62
     7
370
    15
100
AcDbLine
 10
1441.5339100684
 20
-728.2175156304
 30
0.0
 11
886.5160811271
 21
-728.2175156304
 31
0.0
  0
LINE
  5
249
330
1F
100
AcDbEntity
  8
0
  6
Continuous
 62
     7
370
    15
100
AcDbLine
 10
1579.0339577521
 20
-728.2175156304
 30
0.0
 11
1531.0338604774
 21
-728.2175156304
 31
0.0
  0
LINE
  5
24A
330
1F
100
AcDbEntity
  8
0
  6
Continuous
 62
     7
370
    15
100
AcDbLine
 10
1499.0337956275
 20
-728.2175156304
 30
0.0
 11
1456.5161335792
 21
-728.2175156304
 31
0.0
  0
LINE
  5
24B
330
1F
100
AcDbEntity
  8
0
  6
Continuous
 62
     7
370
    15
100
AcDbLine
 10
1456.5838444556
 20
-753.2175155372
 30
0.0
 11
1499.0337956275
 21
-753.2175155372
 31
0.0
  0
LINE
  5
24C
330
1F
100
AcDbEntity
  8
0
  6
Continuous
 62
     7
370
    15
100
AcDbLine
 10
1531.0338604774
 20
-753.2175155372
 30
0.0
 11
1579.0339577521
 21
-753.2175155372
 31
0.0
  0
LINE
  5
24D
330
1F
100
AcDbEntity
  8
0
  6
Continuous
 62
     7
370
    15
100
AcDbLine
 10
886.5839112128
 20
-753.2175155372
 30
0.0
 11
1441.5157902564
 21
-753.2175155372
 31
0.0
  0
LINE
  5
24E
330
1F
100
AcDbEntity
  8
0
  6
Continuous
 62
     7
370
    15
100
AcDbLine
 10
316.5838587607
 20
-753.2175155372
 30
0.0
 11
871.5158570136
 21
-753.2175155372
 31
0.0
  0
LINE
  5
24F
330
1F
100
AcDbEntity
  8
0
  6
Continuous
 62
     7
370
    15
100
AcDbLine
 10
-253.4160744821
 20
-753.2175155372
 30
0.0
 11
-177.9660713349
 21
-753.2175155372
 31
0.0
  0
LINE
  5
250
330
1F
100
AcDbEntity
  8
0
  6
Continuous
 62
     7
370
    15
100
AcDbLine
 10
-147.9660999452
 20
-753.2175155372
 30
0.0
 11
301.5158045615
 21
-753.2175155372
 31
0.0
  0
LINE
  5
251
330
1F
100
AcDbEntity
  8
0
  6
Continuous
 62
     7
370
    15
100
AcDbLine
 10
-823.4160971318
 20
-753.2175155372
 30
0.0
 11
-268.4841286813
 21
-753.2175155372
 31
0.0
  0
LINE
  5
252
330
1F
100
AcDbEntity
  8
0
  6
Continuous
 62
     7
370
    15
100
AcDbLine
 10
-960.966097466
 20
-753.2175155372
 30
0.0
 11
-912.9660968159
 21
-753.2175155372
 31
0.0
  0
LINE
  5
253
330
1F
100
AcDbEntity
  8
0
  6
Continuous
 62
     7
370
    15
100
AcDbLine
 10
-880.966095296
 20
-753.2175155372
 30
0.0
 11
-877.9660966669
 21
-753.2175155372
 31
0.0
  0
LINE
  5
254
330
1F
100
AcDbEntity
  8
0
  6
Continuous
 62
     7
370
    15
100
AcDbLine
 10
-847.9660954748
 20
-753.2175155372
 30
0.0
 11
-838.4841364299
 21
-753.2175155372
 31
0.0
  0
LINE
  5
255
330
1F
100
AcDbEntity
  8
0
  6
Continuous
 62
     7
370
    15
100
AcDbLine
 10
1495.0338471259
 20
-757.3175141604
 30
0.0
 11
1495.0338471259
 21
-765.3175154717
 31
0.0
  0
LINE
  5
256
330
1F
100
AcDbEntity
  8
0
  6
Continuous
 62
     7
370
    15
100
AcDbLine
 10
1535.0338089789
 20
-765.3175154717
 30
0.0
 11
1535.0338089789
 21
-757.3175141604
 31
0.0
  0
LINE
  5
257
330
1F
100
AcDbEntity
  8
0
  6
Continuous
 62
     7
370
    15
100
AcDbLine
 10
-916.9660974716
 20
-757.3175141604
 30
0.0
 11
-916.9660974716
 21
-765.3175154717
 31
0.0
  0
LINE
  5
258
330
1F
100
AcDbEntity
  8
0
  6
Continuous
 62
     7
370
    15
100
AcDbLine
 10
-880.966095296
 20
-726.5175157242
 30
0.0
 11
-882.7660959636
 21
-724.7175155223
 31
0.0
  0
LINE
  5
259
330
1F
100
AcDbEntity
  8
0
  6
Continuous
 62
     7
370
    15
100
AcDbLine
 10
-911.1660961483
 20
-724.7175155223
 30
0.0
 11
-912.9660968159
 21
-726.5175157242
 31
0.0
  0
LINE
  5
25A
330
1F
100
AcDbEntity
  8
0
  6
Continuous
 62
     7
370
    15
100
AcDbLine
 10
-912.9660968159
 20
-753.2175155372
 30
0.0
 11
-912.9660968159
 21
-757.3175141604
 31
0.0
  0
LINE
  5
25B
330
1F
100
AcDbEntity
  8
0
  6
Continuous
 62
     7
370
    15
100
AcDbLine
 10
-912.9660968159
 20
-726.5175157242
 30
0.0
 11
-912.9660968159
 21
-728.1175153346
 31
0.0
  0
LINE
  5
25C
330
1F
100
AcDbEntity
  8
0
  6
Continuous
 62
     7
370
    15
100
AcDbLine
 10
-880.966095296
 20
-728.1175153346
 30
0.0
 11
-880.966095296
 21
-726.5175157242
 31
0.0
  0
LINE
  5
25D
330
1F
100
AcDbEntity
  8
0
  6
Continuous
 62
     7
370
    15
100
AcDbLine
 10
-880.966095296
 20
-757.3175141604
 30
0.0
 11
-880.966095296
 21
-753.2175155372
 31
0.0
  0
LINE
  5
25E
330
1F
100
AcDbEntity
  8
0
  6
Continuous
 62
     7
370
    15
100
AcDbLine
 10
1499.0337956275
 20
-753.2175155372
 30
0.0
 11
1499.0337956275
 21
-757.3175141604
 31
0.0
  0
LINE
  5
25F
330
1F
100
AcDbEntity
  8
0
  6
Continuous
 62
     7
370
    15
100
AcDbLine
 10
1499.0337956275
 20
-726.5175157242
 30
0.0
 11
1499.0337956275
 21
-728.1175153346
 31
0.0
  0
LINE
  5
260
330
1F
100
AcDbEntity
  8
0
  6
Continuous
 62
     7
370
    15
100
AcDbLine
 10
1531.0338604774
 20
-728.1175153346
 30
0.0
 11
1531.0338604774
 21
-726.5175157242
 31
0.0
  0
LINE
  5
261
330
1F
100
AcDbEntity
  8
0
  6
Continuous
 62
     7
370
    15
100
AcDbLine
 10
1531.0338604774
 20
-757.3175141604
 30
0.0
 11
1531.0338604774
 21
-753.2175155372
 31
0.0
  0
LINE
  5
262
330
1F
100
AcDbEntity
  8
0
  6
Continuous
 62
     7
370
    15
100
AcDbLine
 10
1531.0338604774
 20
-726.5175157242
 30
0.0
 11
1529.2338002051
 21
-724.7175155223
 31
0.0
  0
LINE
  5
263
330
1F
100
AcDbEntity
  8
0
  6
Continuous
 62
     7
370
    15
100
AcDbLine
 10
1500.8338558997
 20
-724.7175155223
 30
0.0
 11
1499.0337956275
 21
-726.5175157242
 31
0.0
  0
LINE
  5
264
330
1F
100
AcDbEntity
  8
0
  6
Continuous
 62
     7
370
    15
100
AcDbLine
 10
1441.5339100684
 20
-710.2175159396
 30
0.0
 11
1441.5339100684
 21
-728.2175156304
 31
0.0
  0
LINE
  5
265
330
1F
100
AcDbEntity
  8
0
  6
Continuous
 62
     7
370
    15
100
AcDbLine
 10
1456.5340149726
 20
-728.2175156304
 30
0.0
 11
1456.5340149726
 21
-710.2175159396
 31
0.0
  0
LINE
  5
266
330
1F
100
AcDbEntity
  8
0
  6
Continuous
 62
     7
370
    15
100
AcDbLine
 10
871.5338576163
 20
-710.2175159396
 30
0.0
 11
871.5338576163
 21
-728.2175156304
 31
0.0
  0
LINE
  5
267
330
1F
100
AcDbEntity
  8
0
  6
Continuous
 62
     7
370
    15
100
AcDbLine
 10
886.5338433112
 20
-728.2175156304
 30
0.0
 11
886.5338433112
 21
-710.2175159396
 31
0.0
  0
LINE
  5
268
330
1F
100
AcDbEntity
  8
0
  6
Continuous
 62
     7
370
    15
100
AcDbLine
 10
-268.4660684739
 20
-710.2175159396
 30
0.0
 11
-268.4660684739
 21
-728.2175156304
 31
0.0
  0
LINE
  5
269
330
1F
100
AcDbEntity
  8
0
  6
Continuous
 62
     7
370
    15
100
AcDbLine
 10
-253.466082779
 20
-728.2175156304
 30
0.0
 11
-253.466082779
 21
-710.2175159396
 31
0.0
  0
LINE
  5
26A
330
1F
100
AcDbEntity
  8
0
  6
Continuous
 62
     7
370
    15
100
AcDbLine
 10
301.5339243735
 20
-710.2175159396
 30
0.0
 11
301.5339243735
 21
-728.2175156304
 31
0.0
  0
LINE
  5
26B
330
1F
100
AcDbEntity
  8
0
  6
Continuous
 62
     7
370
    15
100
AcDbLine
 10
316.5339100684
 20
-728.2175156304
 30
0.0
 11
316.5339100684
 21
-710.2175159396
 31
0.0
  0
LINE
  5
26C
330
1F
100
AcDbEntity
  8
0
  6
Continuous
 62
     7
370
    15
100
AcDbLine
 10
-838.4660985743
 20
-710.2175159396
 30
0.0
 11
-838.4660985743
 21
-728.2175156304
 31
0.0
  0
LINE
  5
26D
330
1F
100
AcDbEntity
  8
0
  6
Continuous
 62
     7
370
    15
100
AcDbLine
 10
-823.4660905276
 20
-728.2175156304
 30
0.0
 11
-823.4660905276
 21
-710.2175159396
 31
0.0
  0
LINE
  5
26E
330
1F
100
AcDbEntity
  8
0
  6
Continuous
 62
     7
370
    15
100
AcDbLine
 10
-961.1660975919
 20
-753.2175155372
 30
0.0
 11
-960.966097466
 21
-753.017515877
 31
0.0
  0
LINE
  5
26F
330
1F
100
AcDbEntity
  8
0
  6
Continuous
 62
     7
370
    15
100
AcDbLine
 10
-960.966097466
 20
-728.4175152906
 30
0.0
 11
-961.1660975919
 21
-728.2175156304
 31
0.0
  0
LINE
  5
270
330
1F
100
AcDbEntity
  8
0
  6
Continuous
 62
     7
370
    15
100
AcDbLine
 10
-962.766097566
 20
-728.2175156304
 30
0.0
 11
-962.966097561
 21
-728.4175152906
 31
0.0
  0
LINE
  5
271
330
1F
100
AcDbEntity
  8
0
  6
Continuous
 62
     7
370
    15
100
AcDbLine
 10
-962.966097561
 20
-753.017515877
 30
0.0
 11
-962.766097566
 21
-753.2175155372
 31
0.0
  0
LINE
  5
272
330
1F
100
AcDbEntity
  8
0
  6
Continuous
 62
     7
370
    15
100
AcDbLine
 10
-962.766097566
 20
-753.2175155372
 30
0.0
 11
-961.1660975919
 21
-753.2175155372
 31
0.0
  0
LINE
  5
273
330
1F
100
AcDbEntity
  8
0
  6
Continuous
 62
     7
370
    15
100
AcDbLine
 10
-961.1660975919
 20
-728.2175156304
 30
0.0
 11
-962.766097566
 21
-728.2175156304
 31
0.0
  0
LINE
  5
274
330
1F
100
AcDbEntity
  8
0
  6
Continuous
 62
     7
370
    15
100
AcDbLine
 10
1580.8340180244
 20
-728.2175156304
 30
0.0
 11
1579.23399094
 21
-728.2175156304
 31
0.0
  0
LINE
  5
275
330
1F
100
AcDbEntity
  8
0
  6
Continuous
 62
     7
370
    15
100
AcDbLine
 10
1579.23399094
 20
-753.2175155372
 30
0.0
 11
1580.8340180244
 21
-753.2175155372
 31
0.0
  0
LINE
  5
276
330
1F
100
AcDbEntity
  8
0
  6
Continuous
 62
     7
370
    15
100
AcDbLine
 10
1579.23399094
 20
-728.2175156304
 30
0.0
 11
1579.0339577521
 21
-728.4175152906
 31
0.0
  0
LINE
  5
277
330
1F
100
AcDbEntity
  8
0
  6
Continuous
 62
     7
370
    15
100
AcDbLine
 10
1579.0339577521
 20
-753.017515877
 30
0.0
 11
1579.23399094
 21
-753.2175155372
 31
0.0
  0
LINE
  5
278
330
1F
100
AcDbEntity
  8
0
  6
Continuous
 62
     7
370
    15
100
AcDbLine
 10
1580.8340180244
 20
-753.2175155372
 30
0.0
 11
1581.0338127936
 21
-753.017515877
 31
0.0
  0
LINE
  5
279
330
1F
100
AcDbEntity
  8
0
  6
Continuous
 62
     7
370
    15
100
AcDbLine
 10
1581.0338127936
 20
-728.4175152906
 30
0.0
 11
1580.8340180244
 21
-728.2175156304
 31
0.0
  0
LINE
  5
27A
330
1F
100
AcDbEntity
  8
0
  6
Continuous
 62
     7
370
    15
100
AcDbLine
 10
-877.9660966669
 20
-757.8914659114
 30
0.0
 11
-877.9660966669
 21
-761.4914635212
 31
0.0
  0
LINE
  5
27B
330
1F
100
AcDbEntity
  8
0
  6
Continuous
 62
     7
370
    15
100
AcDbLine
 10
-847.9660954748
 20
-761.4914635212
 30
0.0
 11
-847.9660954748
 21
-757.8914659114
 31
0.0
  0
LINE
  5
27C
330
1F
100
AcDbEntity
  8
0
  6
Continuous
 62
     7
370
    15
100
AcDbLine
 10
-847.9660954748
 20
-757.8914659114
 30
0.0
 11
-848.1660988604
 21
-757.6914625258
 31
0.0
  0
LINE
  5
27D
330
1F
100
AcDbEntity
  8
0
  6
Continuous
 62
     7
370
    15
100
AcDbLine
 10
-877.7661007319
 20
-757.6914625258
 30
0.0
 11
-877.9660966669
 21
-757.8914659114
 31
0.0
  0
LINE
  5
27E
330
1F
100
AcDbEntity
  8
0
  6
Continuous
 62
     7
370
    15
100
AcDbLine
 10
-877.9660966669
 20
-761.4914635212
 30
0.0
 11
-877.7661007319
 21
-761.6914631815
 31
0.0
  0
LINE
  5
27F
330
1F
100
AcDbEntity
  8
0
  6
Continuous
 62
     7
370
    15
100
AcDbLine
 10
-848.1660988604
 20
-761.6914631815
 30
0.0
 11
-847.9660954748
 21
-761.4914635212
 31
0.0
  0
LINE
  5
280
330
1F
100
AcDbEntity
  8
0
  6
Continuous
 62
     7
370
    15
100
AcDbLine
 10
-147.9660999452
 20
-757.8914659114
 30
0.0
 11
-148.1660735284
 21
-757.6914625258
 31
0.0
  0
LINE
  5
281
330
1F
100
AcDbEntity
  8
0
  6
Continuous
 62
     7
370
    15
100
AcDbLine
 10
-177.7660977517
 20
-757.6914625258
 30
0.0
 11
-177.9660713349
 21
-757.8914659114
 31
0.0
  0
LINE
  5
282
330
1F
100
AcDbEntity
  8
0
  6
Continuous
 62
     7
370
    15
100
AcDbLine
 10
-177.9660713349
 20
-757.8914659114
 30
0.0
 11
-177.9660713349
 21
-761.4914635212
 31
0.0
  0
LINE
  5
283
330
1F
100
AcDbEntity
  8
0
  6
Continuous
 62
     7
370
    15
100
AcDbLine
 10
-147.9660999452
 20
-761.4914635212
 30
0.0
 11
-147.9660999452
 21
-757.8914659114
 31
0.0
  0
LINE
  5
284
330
1F
100
AcDbEntity
  8
0
  6
Continuous
 62
     7
370
    15
100
AcDbLine
 10
-177.9660713349
 20
-761.4914635212
 30
0.0
 11
-177.7660977517
 21
-761.6914631815
 31
0.0
  0
LINE
  5
285
330
1F
100
AcDbEntity
  8
0
  6
Continuous
 62
     7
370
    15
100
AcDbLine
 10
-148.1660735284
 20
-761.6914631815
 30
0.0
 11
-147.9660999452
 21
-761.4914635212
 31
0.0
  0
ARC
  5
286
330
1F
100
AcDbEntity
  8
0
  6
Continuous
 62
     7
370
    15
100
AcDbCircle
 10
1500.233902439
 20
-765.5175154988
 30
0.0
 40
0.2000000000000455
100
AcDbArc
 50
90.0
 51
180.0
  0
ARC
  5
287
330
1F
100
AcDbEntity
  8
0
  6
Continuous
 62
     7
370
    15
100
AcDbCircle
 10
1529.833902439
 20
-765.5175154988
 30
0.0
 40
0.2000000000000455
100
AcDbArc
 50
0.0
 51
90.0
  0
LINE
  5
288
330
1F
100
AcDbEntity
  8
0
  6
Continuous
 62
     7
370
    15
100
AcDbLine
 10
1530.0339329566
 20
-767.2346727938
 30
0.0
 11
1530.0339329566
 21
-765.5175151319
 31
0.0
  0
LINE
  5
289
330
1F
100
AcDbEntity
  8
0
  6
Continuous
 62
     7
370
    15
100
AcDbLine
 10
1500.0339615668
 20
-765.5175151319
 30
0.0
 11
1500.0339615668
 21
-767.2346727938
 31
0.0
  0
ARC
  5
28A
330
1F
100
AcDbEntity
  8
0
  6
Continuous
 62
     7
370
    15
100
AcDbCircle
 10
1529.833902439
 20
-767.2346727863
 30
0.0
 40
0.2000000000000498
100
AcDbArc
 50
315.0
 51
0.0
  0
ARC
  5
28B
330
1F
100
AcDbEntity
  8
0
  6
Continuous
 62
     7
370
    15
100
AcDbCircle
 10
1500.233902439
 20
-767.2346727863
 30
0.0
 40
0.2000000000000498
100
AcDbArc
 50
180.0
 51
225.0
  0
LINE
  5
28C
330
1F
100
AcDbEntity
  8
0
  6
Continuous
 62
     7
370
    15
100
AcDbLine
 10
1500.0923741187
 20
-767.3760959894
 30
0.0
 11
1501.9754040565
 21
-769.2589359374
 31
0.0
  0
LINE
  5
28D
330
1F
100
AcDbEntity
  8
0
  6
Continuous
 62
     7
370
    15
100
AcDbLine
 10
1528.092490467
 20
-769.2589359374
 30
0.0
 11
1529.9752819861
 21
-767.3760959894
 31
0.0
  0
ARC
  5
28E
330
1F
100
AcDbEntity
  8
0
  6
Continuous
 62
     7
370
    15
100
AcDbCircle
 10
1502.1167451515
 20
-769.1175154988
 30
0.0
 40
0.2000000000000455
100
AcDbArc
 50
225.0
 51
270.0
  0
ARC
  5
28F
330
1F
100
AcDbEntity
  8
0
  6
Continuous
 62
     7
370
    15
100
AcDbCircle
 10
1527.9510597266
 20
-769.1175154988
 30
0.0
 40
0.2000000000000455
100
AcDbArc
 50
270.0
 51
315.0
  0
LINE
  5
290
330
1F
100
AcDbEntity
  8
0
  6
Continuous
 62
     7
370
    15
100
AcDbLine
 10
-881.9660973226
 20
-767.2346727938
 30
0.0
 11
-881.9660973226
 21
-765.5175151319
 31
0.0
  0
LINE
  5
291
330
1F
100
AcDbEntity
  8
0
  6
Continuous
 62
     7
370
    15
100
AcDbLine
 10
-911.9660985146
 20
-765.5175151319
 30
0.0
 11
-911.9660985146
 21
-767.2346727938
 31
0.0
  0
ARC
  5
292
330
1F
100
AcDbEntity
  8
0
  6
Continuous
 62
     7
370
    15
100
AcDbCircle
 10
-911.766097561
 20
-765.5175154988
 30
0.0
 40
0.2000000000001592
100
AcDbArc
 50
90.0
 51
180.0
  0
ARC
  5
293
330
1F
100
AcDbEntity
  8
0
  6
Continuous
 62
     7
370
    15
100
AcDbCircle
 10
-882.166097561
 20
-765.5175154988
 30
0.0
 40
0.2000000000000455
100
AcDbArc
 50
0.0
 51
90.0
  0
ARC
  5
294
330
1F
100
AcDbEntity
  8
0
  6
Continuous
 62
     7
370
    15
100
AcDbCircle
 10
-882.166097561
 20
-767.2346727863
 30
0.0
 40
0.2000000000000498
100
AcDbArc
 50
315.0
 51
0.0
  0
ARC
  5
295
330
1F
100
AcDbEntity
  8
0
  6
Continuous
 62
     7
370
    15
100
AcDbCircle
 10
-911.766097561
 20
-767.2346727863
 30
0.0
 40
0.2000000000001592
100
AcDbArc
 50
180.0
 51
225.0
  0
LINE
  5
296
330
1F
100
AcDbEntity
  8
0
  6
Continuous
 62
     7
370
    15
100
AcDbLine
 10
-911.9075183247
 20
-767.3760959894
 30
0.0
 11
-910.0246746515
 21
-769.2589359374
 31
0.0
  0
LINE
  5
297
330
1F
100
AcDbEntity
  8
0
  6
Continuous
 62
     7
370
    15
100
AcDbLine
 10
-883.9075174604
 20
-769.2589359374
 30
0.0
 11
-882.0246737872
 21
-767.3760959894
 31
0.0
  0
ARC
  5
298
330
1F
100
AcDbEntity
  8
0
  6
Continuous
 62
     7
370
    15
100
AcDbCircle
 10
-909.8832548485
 20
-769.1175154988
 30
0.0
 40
0.2000000000000498
100
AcDbArc
 50
225.0
 51
270.0
  0
ARC
  5
299
330
1F
100
AcDbEntity
  8
0
  6
Continuous
 62
     7
370
    15
100
AcDbCircle
 10
-884.0489402735
 20
-769.1175154988
 30
0.0
 40
0.2000000000000498
100
AcDbArc
 50
270.0
 51
315.0
  0
LINE
  5
29A
330
1F
100
AcDbEntity
  8
0
  6
Continuous
 62
     7
370
    15
100
AcDbLine
 10
-877.9660966669
 20
-719.7743067534
 30
0.0
 11
-877.9660966669
 21
-721.4914640806
 31
0.0
  0
LINE
  5
29B
330
1F
100
AcDbEntity
  8
0
  6
Continuous
 62
     7
370
    15
100
AcDbLine
 10
-847.9660954748
 20
-721.4914640806
 30
0.0
 11
-847.9660954748
 21
-719.7743067534
 31
0.0
  0
ARC
  5
29C
330
1F
100
AcDbEntity
  8
0
  6
Continuous
 62
     7
370
    15
100
AcDbCircle
 10
-877.766097561
 20
-719.774306788
 30
0.0
 40
0.2000000000000498
100
AcDbArc
 50
135.0
 51
180.0
  0
ARC
  5
29D
330
1F
100
AcDbEntity
  8
0
  6
Continuous
 62
     7
370
    15
100
AcDbCircle
 10
-848.166097561
 20
-719.774306788
 30
0.0
 40
0.2000000000000498
100
AcDbArc
 50
0.0
 51
45.0
  0
ARC
  5
29E
330
1F
100
AcDbEntity
  8
0
  6
Continuous
 62
     7
370
    15
100
AcDbCircle
 10
-848.166097561
 20
-721.4914640755
 30
0.0
 40
0.2000000000000455
100
AcDbArc
 50
270.0
 51
0.0
  0
ARC
  5
29F
330
1F
100
AcDbEntity
  8
0
  6
Continuous
 62
     7
370
    15
100
AcDbCircle
 10
-877.766097561
 20
-721.4914640755
 30
0.0
 40
0.2000000000000455
100
AcDbArc
 50
180.0
 51
270.0
  0
LINE
  5
2A0
330
1F
100
AcDbEntity
  8
0
  6
Continuous
 62
     7
370
    15
100
AcDbLine
 10
-848.02467939
 20
-719.6328854204
 30
0.0
 11
-849.9075156127
 21
-717.7500426785
 31
0.0
  0
LINE
  5
2A1
330
1F
100
AcDbEntity
  8
0
  6
Continuous
 62
     7
370
    15
100
AcDbLine
 10
-876.024676529
 20
-717.7500426785
 30
0.0
 11
-877.9075202023
 21
-719.6328854204
 31
0.0
  0
ARC
  5
2A2
330
1F
100
AcDbEntity
  8
0
  6
Continuous
 62
     7
370
    15
100
AcDbCircle
 10
-850.0489402734
 20
-717.8914640755
 30
0.0
 40
0.2000000000000498
100
AcDbArc
 50
45.0
 51
90.0
  0
ARC
  5
2A3
330
1F
100
AcDbEntity
  8
0
  6
Continuous
 62
     7
370
    15
100
AcDbCircle
 10
-875.8832548485
 20
-717.8914640755
 30
0.0
 40
0.2000000000000498
100
AcDbArc
 50
90.0
 51
135.0
  0
ARC
  5
2A4
330
1F
100
AcDbEntity
  8
0
  6
Continuous
 62
     7
370
    15
100
AcDbCircle
 10
-177.766097561
 20
-719.774306788
 30
0.0
 40
0.1999999999999886
100
AcDbArc
 50
135.0
 51
180.0
  0
ARC
  5
2A5
330
1F
100
AcDbEntity
  8
0
  6
Continuous
 62
     7
370
    15
100
AcDbCircle
 10
-148.166097561
 20
-719.774306788
 30
0.0
 40
0.1999999999999895
100
AcDbArc
 50
0.0
 51
45.0
  0
LINE
  5
2A6
330
1F
100
AcDbEntity
  8
0
  6
Continuous
 62
     7
370
    15
100
AcDbLine
 10
-177.9660713349
 20
-719.7743067534
 30
0.0
 11
-177.9660713349
 21
-721.4914640806
 31
0.0
  0
LINE
  5
2A7
330
1F
100
AcDbEntity
  8
0
  6
Continuous
 62
     7
370
    15
100
AcDbLine
 10
-147.9660999452
 20
-721.4914640806
 30
0.0
 11
-147.9660999452
 21
-719.7743067534
 31
0.0
  0
ARC
  5
2A8
330
1F
100
AcDbEntity
  8
0
  6
Continuous
 62
     7
370
    15
100
AcDbCircle
 10
-148.166097561
 20
-721.4914640755
 30
0.0
 40
0.1999999999999886
100
AcDbArc
 50
270.0
 51
0.0
  0
ARC
  5
2A9
330
1F
100
AcDbEntity
  8
0
  6
Continuous
 62
     7
370
    15
100
AcDbCircle
 10
-177.766097561
 20
-721.4914640755
 30
0.0
 40
0.1999999999999886
100
AcDbArc
 50
180.0
 51
270.0
  0
LINE
  5
2AA
330
1F
100
AcDbEntity
  8
0
  6
Continuous
 62
     7
370
    15
100
AcDbLine
 10
-148.024691311
 20
-719.6328854204
 30
0.0
 11
-149.9075424348
 21
-717.7500426785
 31
0.0
  0
LINE
  5
2AB
330
1F
100
AcDbEntity
  8
0
  6
Continuous
 62
     7
370
    15
100
AcDbLine
 10
-176.02468845
 20
-717.7500426785
 30
0.0
 11
-177.9075395738
 21
-719.6328854204
 31
0.0
  0
ARC
  5
2AC
330
1F
100
AcDbEntity
  8
0
  6
Continuous
 62
     7
370
    15
100
AcDbCircle
 10
-150.0489402734
 20
-717.8914640755
 30
0.0
 40
0.1999999999999695
100
AcDbArc
 50
45.0
 51
90.0
  0
ARC
  5
2AD
330
1F
100
AcDbEntity
  8
0
  6
Continuous
 62
     7
370
    15
100
AcDbCircle
 10
-175.8832548485
 20
-717.8914640755
 30
0.0
 40
0.1999999999999695
100
AcDbArc
 50
90.0
 51
135.0
  0
LINE
  5
2AE
330
1F
100
AcDbEntity
  8
0
  6
Continuous
 62
     7
370
    15
100
AcDbLine
 10
-847.9660954748
 20
-770.691462794
 30
0.0
 11
-847.9660954748
 21
-767.6914641649
 31
0.0
  0
LINE
  5
2AF
330
1F
100
AcDbEntity
  8
0
  6
Continuous
 62
     7
370
    15
100
AcDbLine
 10
-877.9660966669
 20
-767.6914641649
 30
0.0
 11
-877.9660966669
 21
-770.691462794
 31
0.0
  0
LINE
  5
2B0
330
1F
100
AcDbEntity
  8
0
  6
Continuous
 62
     7
370
    15
100
AcDbLine
 10
-877.9660966669
 20
-770.691462794
 30
0.0
 11
-875.9661000644
 21
-772.6914631219
 31
0.0
  0
LINE
  5
2B1
330
1F
100
AcDbEntity
  8
0
  6
Continuous
 62
     7
370
    15
100
AcDbLine
 10
-849.9660995279
 20
-772.6914631219
 30
0.0
 11
-847.9660954748
 21
-770.691462794
 31
0.0
  0
LINE
  5
2B2
330
1F
100
AcDbEntity
  8
0
  6
Continuous
 62
     7
370
    15
100
AcDbLine
 10
-177.9660713349
 20
-770.691462794
 30
0.0
 11
-175.9660970841
 21
-772.6914631219
 31
0.0
  0
LINE
  5
2B3
330
1F
100
AcDbEntity
  8
0
  6
Continuous
 62
     7
370
    15
100
AcDbLine
 10
-149.966074196
 20
-772.6914631219
 30
0.0
 11
-147.9660999452
 21
-770.691462794
 31
0.0
  0
LINE
  5
2B4
330
1F
100
AcDbEntity
  8
0
  6
Continuous
 62
     7
370
    15
100
AcDbLine
 10
-147.9660999452
 20
-770.691462794
 30
0.0
 11
-147.9660999452
 21
-767.6914641649
 31
0.0
  0
LINE
  5
2B5
330
1F
100
AcDbEntity
  8
0
  6
Continuous
 62
     7
370
    15
100
AcDbLine
 10
-177.9660713349
 20
-767.6914641649
 30
0.0
 11
-177.9660713349
 21
-770.691462794
 31
0.0
  0
ARC
  5
2B6
330
1F
100
AcDbEntity
  8
0
  6
Continuous
 62
     7
370
    15
100
AcDbCircle
 10
-848.166097561
 20
-729.4914640755
 30
0.0
 40
0.1999999999999318
100
AcDbArc
 50
270.0
 51
0.0
  0
ARC
  5
2B7
330
1F
100
AcDbEntity
  8
0
  6
Continuous
 62
     7
370
    15
100
AcDbCircle
 10
-877.766097561
 20
-729.4914640755
 30
0.0
 40
0.1999999999999318
100
AcDbArc
 50
180.0
 51
270.0
  0
LINE
  5
2B8
330
1F
100
AcDbEntity
  8
0
  6
Continuous
 62
     7
370
    15
100
AcDbLine
 10
-877.9660966669
 20
-728.7743068316
 30
0.0
 11
-877.9660966669
 21
-729.4914638639
 31
0.0
  0
LINE
  5
2B9
330
1F
100
AcDbEntity
  8
0
  6
Continuous
 62
     7
370
    15
100
AcDbLine
 10
-847.9660954748
 20
-729.4914638639
 30
0.0
 11
-847.9660954748
 21
-728.7743068316
 31
0.0
  0
ARC
  5
2BA
330
1F
100
AcDbEntity
  8
0
  6
Continuous
 62
     7
370
    15
100
AcDbCircle
 10
-877.766097561
 20
-728.774306788
 30
0.0
 40
0.2000000000000498
100
AcDbArc
 50
135.0
 51
180.0
  0
ARC
  5
2BB
330
1F
100
AcDbEntity
  8
0
  6
Continuous
 62
     7
370
    15
100
AcDbCircle
 10
-848.166097561
 20
-728.774306788
 30
0.0
 40
0.1999999999999318
100
AcDbArc
 50
0.0
 51
45.0
  0
LINE
  5
2BC
330
1F
100
AcDbEntity
  8
0
  6
Continuous
 62
     7
370
    15
100
AcDbLine
 10
-848.02467939
 20
-728.6328854986
 30
0.0
 11
-849.9075156127
 21
-726.7500427567
 31
0.0
  0
LINE
  5
2BD
330
1F
100
AcDbEntity
  8
0
  6
Continuous
 62
     7
370
    15
100
AcDbLine
 10
-876.024676529
 20
-726.7500427567
 30
0.0
 11
-877.9075202023
 21
-728.6328854986
 31
0.0
  0
ARC
  5
2BE
330
1F
100
AcDbEntity
  8
0
  6
Continuous
 62
     7
370
    15
100
AcDbCircle
 10
-850.0489402734
 20
-726.8914640755
 30
0.0
 40
0.1999999999999318
100
AcDbArc
 50
45.0
 51
90.0
  0
ARC
  5
2BF
330
1F
100
AcDbEntity
  8
0
  6
Continuous
 62
     7
370
    15
100
AcDbCircle
 10
-875.8832548485
 20
-726.8914640755
 30
0.0
 40
0.2000000000000498
100
AcDbArc
 50
90.0
 51
135.0
  0
LINE
  5
2C0
330
1F
100
AcDbEntity
  8
0
  6
Continuous
 62
     7
370
    15
100
AcDbLine
 10
-853.2160949384
 20
-730.1914645375
 30
0.0
 11
-853.2160949384
 21
-729.6914644555
 31
0.0
  0
LINE
  5
2C1
330
1F
100
AcDbEntity
  8
0
  6
Continuous
 62
     7
370
    15
100
AcDbLine
 10
-872.7160972033
 20
-729.6914644555
 30
0.0
 11
-872.7160972033
 21
-730.1914645375
 31
0.0
  0
ARC
  5
2C2
330
1F
100
AcDbEntity
  8
0
  6
Continuous
 62
     7
370
    15
100
AcDbCircle
 10
-148.166097561
 20
-729.4914640755
 30
0.0
 40
0.1999999999999886
100
AcDbArc
 50
270.0
 51
0.0
  0
ARC
  5
2C3
330
1F
100
AcDbEntity
  8
0
  6
Continuous
 62
     7
370
    15
100
AcDbCircle
 10
-177.766097561
 20
-729.4914640755
 30
0.0
 40
0.1999999999999886
100
AcDbArc
 50
180.0
 51
270.0
  0
LINE
  5
2C4
330
1F
100
AcDbEntity
  8
0
  6
Continuous
 62
     7
370
    15
100
AcDbLine
 10
-177.9660713349
 20
-728.7743068316
 30
0.0
 11
-177.9660713349
 21
-729.4914638639
 31
0.0
  0
LINE
  5
2C5
330
1F
100
AcDbEntity
  8
0
  6
Continuous
 62
     7
370
    15
100
AcDbLine
 10
-147.9660999452
 20
-729.4914638639
 30
0.0
 11
-147.9660999452
 21
-728.7743068316
 31
0.0
  0
ARC
  5
2C6
330
1F
100
AcDbEntity
  8
0
  6
Continuous
 62
     7
370
    15
100
AcDbCircle
 10
-177.766097561
 20
-728.774306788
 30
0.0
 40
0.1999999999999895
100
AcDbArc
 50
135.0
 51
180.0
  0
ARC
  5
2C7
330
1F
100
AcDbEntity
  8
0
  6
Continuous
 62
     7
370
    15
100
AcDbCircle
 10
-148.166097561
 20
-728.774306788
 30
0.0
 40
0.1999999999999886
100
AcDbArc
 50
0.0
 51
45.0
  0
LINE
  5
2C8
330
1F
100
AcDbEntity
  8
0
  6
Continuous
 62
     7
370
    15
100
AcDbLine
 10
-148.024691311
 20
-728.6328854986
 30
0.0
 11
-149.9075424348
 21
-726.7500427567
 31
0.0
  0
LINE
  5
2C9
330
1F
100
AcDbEntity
  8
0
  6
Continuous
 62
     7
370
    15
100
AcDbLine
 10
-176.02468845
 20
-726.7500427567
 30
0.0
 11
-177.9075395738
 21
-728.6328854986
 31
0.0
  0
ARC
  5
2CA
330
1F
100
AcDbEntity
  8
0
  6
Continuous
 62
     7
370
    15
100
AcDbCircle
 10
-150.0489402734
 20
-726.8914640755
 30
0.0
 40
0.2000000000000455
100
AcDbArc
 50
45.0
 51
90.0
  0
ARC
  5
2CB
330
1F
100
AcDbEntity
  8
0
  6
Continuous
 62
     7
370
    15
100
AcDbCircle
 10
-175.8832548485
 20
-726.8914640755
 30
0.0
 40
0.2000000000000455
100
AcDbArc
 50
90.0
 51
135.0
  0
LINE
  5
2CC
330
1F
100
AcDbEntity
  8
0
  6
Continuous
 62
     7
370
    15
100
AcDbLine
 10
-153.216077057
 20
-730.1914645375
 30
0.0
 11
-153.216077057
 21
-729.6914644555
 31
0.0
  0
LINE
  5
2CD
330
1F
100
AcDbEntity
  8
0
  6
Continuous
 62
     7
370
    15
100
AcDbLine
 10
-172.7160942231
 20
-729.6914644555
 30
0.0
 11
-172.7160942231
 21
-730.1914645375
 31
0.0
  0
LINE
  5
2CE
330
1F
100
AcDbEntity
  8
0
  6
Continuous
 62
     7
370
    15
100
AcDbLine
 10
-191.9660699044
 20
-730.1914645375
 30
0.0
 11
-191.9660699044
 21
-731.691463852
 31
0.0
  0
LINE
  5
2CF
330
1F
100
AcDbEntity
  8
0
  6
Continuous
 62
     7
370
    15
100
AcDbLine
 10
-133.9661013757
 20
-731.691463852
 30
0.0
 11
-133.9661013757
 21
-730.1914645375
 31
0.0
  0
LINE
  5
2D0
330
1F
100
AcDbEntity
  8
0
  6
Continuous
 62
     7
370
    15
100
AcDbLine
 10
-133.9661013757
 20
-751.1914642544
 30
0.0
 11
-133.9661013757
 21
-749.6914649398
 31
0.0
  0
LINE
  5
2D1
330
1F
100
AcDbEntity
  8
0
  6
Continuous
 62
     7
370
    15
100
AcDbLine
 10
-191.9660699044
 20
-749.6914649398
 30
0.0
 11
-191.9660699044
 21
-751.1914642544
 31
0.0
  0
LINE
  5
2D2
330
1F
100
AcDbEntity
  8
0
  6
Continuous
 62
     7
370
    15
100
AcDbLine
 10
-833.9661043559
 20
-751.1914642544
 30
0.0
 11
-833.9661043559
 21
-749.6914649398
 31
0.0
  0
LINE
  5
2D3
330
1F
100
AcDbEntity
  8
0
  6
Continuous
 62
     7
370
    15
100
AcDbLine
 10
-891.9660952364
 20
-749.6914649398
 30
0.0
 11
-891.9660952364
 21
-751.1914642544
 31
0.0
  0
LINE
  5
2D4
330
1F
100
AcDbEntity
  8
0
  6
Continuous
 62
     7
370
    15
100
AcDbLine
 10
-891.9660952364
 20
-730.1914645375
 30
0.0
 11
-891.9660952364
 21
-731.691463852
 31
0.0
  0
LINE
  5
2D5
330
1F
100
AcDbEntity
  8
0
  6
Continuous
 62
     7
370
    15
100
AcDbLine
 10
-833.9661043559
 20
-731.691463852
 30
0.0
 11
-833.9661043559
 21
-730.1914645375
 31
0.0
  0
ARC
  5
2D6
330
1F
100
AcDbEntity
  8
0
  6
Continuous
 62
     7
370
    15
100
AcDbCircle
 10
-124.366097561
 20
-740.7175154988
 30
0.0
 40
12.49999999999995
100
AcDbArc
 50
140.1746287392
 51
219.8253712608
  0
ARC
  5
2D7
330
1F
100
AcDbEntity
  8
0
  6
Continuous
 62
     7
370
    15
100
AcDbCircle
 10
-201.566097561
 20
-740.7175154988
 30
0.0
 40
12.49999999999996
100
AcDbArc
 50
320.1746287392
 51
39.8253712608
  0
LINE
  5
2D8
330
1F
100
AcDbEntity
  8
0
  6
Continuous
 62
     7
370
    15
100
AcDbLine
 10
-133.9661013757
 20
-732.7118925766
 30
0.0
 11
-133.9661013757
 21
-731.691463852
 31
0.0
  0
LINE
  5
2D9
330
1F
100
AcDbEntity
  8
0
  6
Continuous
 62
     7
370
    15
100
AcDbLine
 10
-191.9660699044
 20
-731.691463852
 30
0.0
 11
-191.9660699044
 21
-732.7118925766
 31
0.0
  0
LINE
  5
2DA
330
1F
100
AcDbEntity
  8
0
  6
Continuous
 62
     7
370
    15
100
AcDbLine
 10
-133.9661013757
 20
-749.6914649398
 30
0.0
 11
-133.9661013757
 21
-748.7231390567
 31
0.0
  0
LINE
  5
2DB
330
1F
100
AcDbEntity
  8
0
  6
Continuous
 62
     7
370
    15
100
AcDbLine
 10
-191.9660699044
 20
-748.7231390567
 30
0.0
 11
-191.9660699044
 21
-749.6914649398
 31
0.0
  0
ARC
  5
2DC
330
1F
100
AcDbEntity
  8
0
  6
Continuous
 62
     7
370
    15
100
AcDbCircle
 10
-824.366097561
 20
-740.7175154988
 30
0.0
 40
12.50000000000007
100
AcDbArc
 50
140.1746287392
 51
219.8253712608
  0
ARC
  5
2DD
330
1F
100
AcDbEntity
  8
0
  6
Continuous
 62
     7
370
    15
100
AcDbCircle
 10
-901.566097561
 20
-740.7175154988
 30
0.0
 40
12.49999999999999
100
AcDbArc
 50
320.1746287392
 51
39.8253712608
  0
LINE
  5
2DE
330
1F
100
AcDbEntity
  8
0
  6
Continuous
 62
     7
370
    15
100
AcDbLine
 10
-833.9661043559
 20
-732.7118925766
 30
0.0
 11
-833.9661043559
 21
-731.691463852
 31
0.0
  0
LINE
  5
2DF
330
1F
100
AcDbEntity
  8
0
  6
Continuous
 62
     7
370
    15
100
AcDbLine
 10
-891.9660952364
 20
-731.691463852
 30
0.0
 11
-891.9660952364
 21
-732.7118925766
 31
0.0
  0
LINE
  5
2E0
330
1F
100
AcDbEntity
  8
0
  6
Continuous
 62
     7
370
    15
100
AcDbLine
 10
-833.9661043559
 20
-749.6914649398
 30
0.0
 11
-833.9661043559
 21
-748.7231390567
 31
0.0
  0
LINE
  5
2E1
330
1F
100
AcDbEntity
  8
0
  6
Continuous
 62
     7
370
    15
100
AcDbLine
 10
-891.9660952364
 20
-748.7231390567
 30
0.0
 11
-891.9660952364
 21
-749.6914649398
 31
0.0
  0
LINE
  5
2E2
330
1F
100
AcDbEntity
  8
0
  6
Continuous
 62
     7
370
    15
100
AcDbLine
 10
-847.9660954748
 20
-751.991464758
 30
0.0
 11
-848.2661005531
 21
-751.691463405
 31
0.0
  0
LINE
  5
2E3
330
1F
100
AcDbEntity
  8
0
  6
Continuous
 62
     7
370
    15
100
AcDbLine
 10
-877.6660990392
 20
-751.691463405
 30
0.0
 11
-877.9660966669
 21
-751.991464758
 31
0.0
  0
LINE
  5
2E4
330
1F
100
AcDbEntity
  8
0
  6
Continuous
 62
     7
370
    15
100
AcDbLine
 10
-847.9660954748
 20
-757.3914648981
 30
0.0
 11
-847.9660954748
 21
-751.991464758
 31
0.0
  0
LINE
  5
2E5
330
1F
100
AcDbEntity
  8
0
  6
Continuous
 62
     7
370
    15
100
AcDbLine
 10
-877.9660966669
 20
-751.991464758
 30
0.0
 11
-877.9660966669
 21
-757.3914648981
 31
0.0
  0
LINE
  5
2E6
330
1F
100
AcDbEntity
  8
0
  6
Continuous
 62
     7
370
    15
100
AcDbLine
 10
-877.9660966669
 20
-757.3914648981
 30
0.0
 11
-877.6660990392
 21
-757.6914625258
 31
0.0
  0
LINE
  5
2E7
330
1F
100
AcDbEntity
  8
0
  6
Continuous
 62
     7
370
    15
100
AcDbLine
 10
-848.2661005531
 20
-757.6914625258
 30
0.0
 11
-847.9660954748
 21
-757.3914648981
 31
0.0
  0
LINE
  5
2E8
330
1F
100
AcDbEntity
  8
0
  6
Continuous
 62
     7
370
    15
100
AcDbLine
 10
-853.2160949384
 20
-751.691463405
 30
0.0
 11
-853.2160949384
 21
-751.1914642544
 31
0.0
  0
LINE
  5
2E9
330
1F
100
AcDbEntity
  8
0
  6
Continuous
 62
     7
370
    15
100
AcDbLine
 10
-872.7160972033
 20
-751.1914642544
 30
0.0
 11
-872.7160972033
 21
-751.691463405
 31
0.0
  0
LINE
  5
2EA
330
1F
100
AcDbEntity
  8
0
  6
Continuous
 62
     7
370
    15
100
AcDbLine
 10
-147.9660999452
 20
-751.991464758
 30
0.0
 11
-148.2660901223
 21
-751.691463405
 31
0.0
  0
LINE
  5
2EB
330
1F
100
AcDbEntity
  8
0
  6
Continuous
 62
     7
370
    15
100
AcDbLine
 10
-177.6660811578
 20
-751.691463405
 30
0.0
 11
-177.9660713349
 21
-751.991464758
 31
0.0
  0
LINE
  5
2EC
330
1F
100
AcDbEntity
  8
0
  6
Continuous
 62
     7
370
    15
100
AcDbLine
 10
-147.9660999452
 20
-757.3914648981
 30
0.0
 11
-147.9660999452
 21
-751.991464758
 31
0.0
  0
LINE
  5
2ED
330
1F
100
AcDbEntity
  8
0
  6
Continuous
 62
     7
370
    15
100
AcDbLine
 10
-177.9660713349
 20
-751.991464758
 30
0.0
 11
-177.9660713349
 21
-757.3914648981
 31
0.0
  0
LINE
  5
2EE
330
1F
100
AcDbEntity
  8
0
  6
Continuous
 62
     7
370
    15
100
AcDbLine
 10
-177.9660713349
 20
-757.3914648981
 30
0.0
 11
-177.6660811578
 21
-757.6914625258
 31
0.0
  0
LINE
  5
2EF
330
1F
100
AcDbEntity
  8
0
  6
Continuous
 62
     7
370
    15
100
AcDbLine
 10
-148.2660901223
 20
-757.6914625258
 30
0.0
 11
-147.9660999452
 21
-757.3914648981
 31
0.0
  0
LINE
  5
2F0
330
1F
100
AcDbEntity
  8
0
  6
Continuous
 62
     7
370
    15
100
AcDbLine
 10
-153.216077057
 20
-751.691463405
 30
0.0
 11
-153.216077057
 21
-751.1914642544
 31
0.0
  0
LINE
  5
2F1
330
1F
100
AcDbEntity
  8
0
  6
Continuous
 62
     7
370
    15
100
AcDbLine
 10
-172.7160942231
 20
-751.1914642544
 30
0.0
 11
-172.7160942231
 21
-751.691463405
 31
0.0
  0
LINE
  5
2F2
330
1F
100
AcDbEntity
  8
0
  6
Continuous
 62
     7
370
    15
100
AcDbLine
 10
-838.4160977279
 20
-753.2175155372
 30
0.0
 11
-838.4160977279
 21
-753.9052153022
 31
0.0
  0
LINE
  5
2F3
330
1F
100
AcDbEntity
  8
0
  6
Continuous
 62
     7
370
    15
100
AcDbLine
 10
-823.5160988246
 20
-753.9052153022
 30
0.0
 11
-823.5160988246
 21
-753.2175155372
 31
0.0
  0
LINE
  5
2F4
330
1F
100
AcDbEntity
  8
0
  6
Continuous
 62
     7
370
    15
100
AcDbLine
 10
-838.4160977279
 20
-753.9052153022
 30
0.0
 11
-837.4160957013
 21
-754.9052173288
 31
0.0
  0
LINE
  5
2F5
330
1F
100
AcDbEntity
  8
0
  6
Continuous
 62
     7
370
    15
100
AcDbLine
 10
-824.5161008512
 20
-754.9052173288
 30
0.0
 11
-823.5160988246
 21
-753.9052153022
 31
0.0
  0
LINE
  5
2F6
330
1F
100
AcDbEntity
  8
0
  6
Continuous
 62
     7
370
    15
100
AcDbLine
 10
1441.58397797
 20
-753.2175155372
 30
0.0
 11
1441.58397797
 21
-753.9052153022
 31
0.0
  0
LINE
  5
2F7
330
1F
100
AcDbEntity
  8
0
  6
Continuous
 62
     7
370
    15
100
AcDbLine
 10
1456.483947071
 20
-753.9052153022
 30
0.0
 11
1456.483947071
 21
-753.2175155372
 31
0.0
  0
LINE
  5
2F8
330
1F
100
AcDbEntity
  8
0
  6
Continuous
 62
     7
370
    15
100
AcDbLine
 10
1441.58397797
 20
-753.9052153022
 30
0.0
 11
1442.5839054908
 21
-754.9052173288
 31
0.0
  0
LINE
  5
2F9
330
1F
100
AcDbEntity
  8
0
  6
Continuous
 62
     7
370
    15
100
AcDbLine
 10
1455.4840195502
 20
-754.9052173288
 30
0.0
 11
1456.483947071
 21
-753.9052153022
 31
0.0
  0
LINE
  5
2FA
330
1F
100
AcDbEntity
  8
0
  6
Continuous
 62
     7
370
    15
100
AcDbLine
 10
871.5839255179
 20
-753.2175155372
 30
0.0
 11
871.5839255179
 21
-753.9052153022
 31
0.0
  0
LINE
  5
2FB
330
1F
100
AcDbEntity
  8
0
  6
Continuous
 62
     7
370
    15
100
AcDbLine
 10
886.4838946189
 20
-753.9052153022
 30
0.0
 11
886.4838946189
 21
-753.2175155372
 31
0.0
  0
LINE
  5
2FC
330
1F
100
AcDbEntity
  8
0
  6
Continuous
 62
     7
370
    15
100
AcDbLine
 10
871.5839255179
 20
-753.9052153022
 30
0.0
 11
872.5838530387
 21
-754.9052173288
 31
0.0
  0
LINE
  5
2FD
330
1F
100
AcDbEntity
  8
0
  6
Continuous
 62
     7
370
    15
100
AcDbLine
 10
885.4838478889
 20
-754.9052173288
 30
0.0
 11
886.4838946189
 21
-753.9052153022
 31
0.0
  0
LINE
  5
2FE
330
1F
100
AcDbEntity
  8
0
  6
Continuous
 62
     7
370
    15
100
AcDbLine
 10
301.5838730659
 20
-753.2175155372
 30
0.0
 11
301.5838730659
 21
-753.9052153022
 31
0.0
  0
LINE
  5
2FF
330
1F
100
AcDbEntity
  8
0
  6
Continuous
 62
     7
370
    15
100
AcDbLine
 10
316.4839613761
 20
-753.9052153022
 30
0.0
 11
316.4839613761
 21
-753.2175155372
 31
0.0
  0
LINE
  5
300
330
1F
100
AcDbEntity
  8
0
  6
Continuous
 62
     7
370
    15
100
AcDbLine
 10
301.5838730659
 20
-753.9052153022
 30
0.0
 11
302.5839197959
 21
-754.9052173288
 31
0.0
  0
LINE
  5
301
330
1F
100
AcDbEntity
  8
0
  6
Continuous
 62
     7
370
    15
100
AcDbLine
 10
315.4839146461
 20
-754.9052173288
 30
0.0
 11
316.4839613761
 21
-753.9052153022
 31
0.0
  0
LINE
  5
302
330
1F
100
AcDbEntity
  8
0
  6
Continuous
 62
     7
370
    15
100
AcDbLine
 10
-268.4161197816
 20
-753.2175155372
 30
0.0
 11
-268.4161197816
 21
-753.9052153022
 31
0.0
  0
LINE
  5
303
330
1F
100
AcDbEntity
  8
0
  6
Continuous
 62
     7
370
    15
100
AcDbLine
 10
-253.516091076
 20
-753.9052153022
 30
0.0
 11
-253.516091076
 21
-753.2175155372
 31
0.0
  0
LINE
  5
304
330
1F
100
AcDbEntity
  8
0
  6
Continuous
 62
     7
370
    15
100
AcDbLine
 10
-268.4161197816
 20
-753.9052153022
 30
0.0
 11
-267.4160730515
 21
-754.9052173288
 31
0.0
  0
LINE
  5
305
330
1F
100
AcDbEntity
  8
0
  6
Continuous
 62
     7
370
    15
100
AcDbLine
 10
-254.5160782014
 20
-754.9052173288
 30
0.0
 11
-253.516091076
 21
-753.9052153022
 31
0.0
  0
LINE
  5
306
330
1F
100
AcDbEntity
  8
0
  6
Continuous
 62
     7
370
    15
100
AcDbLine
 10
-855.9660967861
 20
-707.2175154478
 30
0.0
 11
-855.9660967861
 21
-709.2175157757
 31
0.0
  0
LINE
  5
307
330
1F
100
AcDbEntity
  8
0
  6
Continuous
 62
     7
370
    15
100
AcDbLine
 10
-805.9660923158
 20
-709.2175157757
 30
0.0
 11
-805.9660923158
 21
-707.2175154478
 31
0.0
  0
LINE
  5
308
330
1F
100
AcDbEntity
  8
0
  6
Continuous
 62
     7
370
    15
100
AcDbLine
 10
-855.9660967861
 20
-709.2175157757
 30
0.0
 11
-854.9660947596
 21
-710.2175159396
 31
0.0
  0
LINE
  5
309
330
1F
100
AcDbEntity
  8
0
  6
Continuous
 62
     7
370
    15
100
AcDbLine
 10
-806.9660943423
 20
-710.2175159396
 30
0.0
 11
-805.9660923158
 21
-709.2175157757
 31
0.0
  0
LINE
  5
30A
330
1F
100
AcDbEntity
  8
0
  6
Continuous
 62
     7
370
    15
100
AcDbLine
 10
854.0339339103
 20
-707.2175154478
 30
0.0
 11
854.0339339103
 21
-709.2175157757
 31
0.0
  0
LINE
  5
30B
330
1F
100
AcDbEntity
  8
0
  6
Continuous
 62
     7
370
    15
100
AcDbLine
 10
904.0338862266
 20
-709.2175157757
 30
0.0
 11
904.0338862266
 21
-707.2175154478
 31
0.0
  0
LINE
  5
30C
330
1F
100
AcDbEntity
  8
0
  6
Continuous
 62
     7
370
    15
100
AcDbLine
 10
854.0339339103
 20
-709.2175157757
 30
0.0
 11
855.033861431
 21
-710.2175159396
 31
0.0
  0
LINE
  5
30D
330
1F
100
AcDbEntity
  8
0
  6
Continuous
 62
     7
370
    15
100
AcDbLine
 10
903.0339587058
 20
-710.2175159396
 30
0.0
 11
904.0338862266
 21
-709.2175157757
 31
0.0
  0
LINE
  5
30E
330
1F
100
AcDbEntity
  8
0
  6
Continuous
 62
     7
370
    15
100
AcDbLine
 10
-285.9661113893
 20
-707.2175154478
 30
0.0
 11
-285.9661113893
 21
-709.2175157757
 31
0.0
  0
LINE
  5
30F
330
1F
100
AcDbEntity
  8
0
  6
Continuous
 62
     7
370
    15
100
AcDbLine
 10
-235.9660994683
 20
-709.2175157757
 30
0.0
 11
-235.9660994683
 21
-707.2175154478
 31
0.0
  0
LINE
  5
310
330
1F
100
AcDbEntity
  8
0
  6
Continuous
 62
     7
370
    15
100
AcDbLine
 10
-285.9661113893
 20
-709.2175157757
 30
0.0
 11
-284.9661242639
 21
-710.2175159396
 31
0.0
  0
LINE
  5
311
330
1F
100
AcDbEntity
  8
0
  6
Continuous
 62
     7
370
    15
100
AcDbLine
 10
-236.9660865937
 20
-710.2175159396
 30
0.0
 11
-235.9660994683
 21
-709.2175157757
 31
0.0
  0
LINE
  5
312
330
1F
100
AcDbEntity
  8
0
  6
Continuous
 62
     7
370
    15
100
AcDbLine
 10
1424.0339863624
 20
-707.2175154478
 30
0.0
 11
1424.0339863624
 21
-709.2175157757
 31
0.0
  0
LINE
  5
313
330
1F
100
AcDbEntity
  8
0
  6
Continuous
 62
     7
370
    15
100
AcDbLine
 10
1474.0339386786
 20
-709.2175157757
 30
0.0
 11
1474.0339386786
 21
-707.2175154478
 31
0.0
  0
LINE
  5
314
330
1F
100
AcDbEntity
  8
0
  6
Continuous
 62
     7
370
    15
100
AcDbLine
 10
1424.0339863624
 20
-709.2175157757
 30
0.0
 11
1425.0339138831
 21
-710.2175159396
 31
0.0
  0
LINE
  5
315
330
1F
100
AcDbEntity
  8
0
  6
Continuous
 62
     7
370
    15
100
AcDbLine
 10
1473.0340111579
 20
-710.2175159396
 30
0.0
 11
1474.0339386786
 21
-709.2175157757
 31
0.0
  0
LINE
  5
316
330
1F
100
AcDbEntity
  8
0
  6
Continuous
 62
     7
370
    15
100
AcDbLine
 10
284.0338814582
 20
-707.2175154478
 30
0.0
 11
284.0338814582
 21
-709.2175157757
 31
0.0
  0
LINE
  5
317
330
1F
100
AcDbEntity
  8
0
  6
Continuous
 62
     7
370
    15
100
AcDbLine
 10
334.0339529838
 20
-709.2175157757
 30
0.0
 11
334.0339529838
 21
-707.2175154478
 31
0.0
  0
LINE
  5
318
330
1F
100
AcDbEntity
  8
0
  6
Continuous
 62
     7
370
    15
100
AcDbLine
 10
284.0338814582
 20
-709.2175157757
 30
0.0
 11
285.0339281882
 21
-710.2175159396
 31
0.0
  0
LINE
  5
319
330
1F
100
AcDbEntity
  8
0
  6
Continuous
 62
     7
370
    15
100
AcDbLine
 10
333.0339062537
 20
-710.2175159396
 30
0.0
 11
334.0339529838
 21
-709.2175157757
 31
0.0
  0
LINE
  5
31A
330
1F
100
AcDbEntity
  8
0
  6
Continuous
 62
     7
370
    15
100
AcDbLine
 10
1579.0339577521
 20
-753.2175155372
 30
0.0
 11
1579.0339577521
 21
-728.2175156304
 31
0.0
  0
LINE
  5
31B
330
1F
100
AcDbEntity
  8
0
  6
Continuous
 62
     7
370
    15
100
AcDbLine
 10
-960.966097466
 20
-753.2175155372
 30
0.0
 11
-960.966097466
 21
-728.2175156304
 31
0.0
  0
LWPOLYLINE
  5
31C
330
1F
100
AcDbEntity
  8
0
  6
Continuous
 62
     7
370
    15
100
AcDbPolyline
 90
       13
 70
   128
 43
0.0
 10
301.5158045615
 20
-753.1984122486
 10
301.753150257
 20
-753.0567431838
 10
302.6097882117
 20
-752.5714980454
 10
304.1128981437
 20
-751.8289340676
 10
306.3769209708
 20
-751.0280413569
 10
308.4566462363
 20
-750.6965333612
 10
310.6114733542
 20
-750.803946519
 10
312.4940264548
 20
-751.2635895998
 10
314.3181670035
 20
-751.9945101828
 10
315.8546555366
 20
-752.7910219521
 10
316.5534603919
 20
-753.1991424055
 10
316.5838587607
 20
-753.2175155372
 10
316.5838587607
 20
-753.2175155372
  0
LWPOLYLINE
  5
31D
330
1F
100
AcDbEntity
  8
0
  6
Continuous
 62
     7
370
    15
100
AcDbPolyline
 90
       13
 70
   128
 43
0.0
 10
1441.5157902564
 20
-753.1984122486
 10
1441.7532551612
 20
-753.0567431838
 10
1442.6098931159
 20
-752.5714980454
 10
1444.1128838386
 20
-751.8289340676
 10
1446.3769066657
 20
-751.0280413569
 10
1448.4566319312
 20
-750.6965333612
 10
1450.6114590491
 20
-750.803946519
 10
1452.4940121497
 20
-751.2635895998
 10
1454.3181526984
 20
-751.9945101828
 10
1455.8545220222
 20
-752.7910219521
 10
1456.5533268775
 20
-753.1991424055
 10
1456.5838444556
 20
-753.2175155372
 10
1456.5838444556
 20
-753.2175155372
  0
LWPOLYLINE
  5
31E
330
1F
100
AcDbEntity
  8
0
  6
Continuous
 62
     7
370
    15
100
AcDbPolyline
 90
       13
 70
   128
 43
0.0
 10
-268.4841286813
 20
-753.1984122486
 10
-268.2468425904
 20
-753.0567431838
 10
-267.3902046357
 20
-752.5714980454
 10
-265.8870947038
 20
-751.8289340676
 10
-263.6230718766
 20
-751.0280413569
 10
-261.5434062158
 20
-750.6965333612
 10
-259.3885790978
 20
-750.803946519
 10
-257.5060259973
 20
-751.2635895998
 10
-255.6818854485
 20
-751.9945101828
 10
-254.1453969155
 20
-752.7910219521
 10
-253.4465324555
 20
-753.1991424055
 10
-253.4160744821
 20
-753.2175155372
 10
-253.4160744821
 20
-753.2175155372
  0
SPLINE
  5
31F
330
1F
100
AcDbEntity
  8
0
  6
Continuous
 62
     7
370
    15
100
AcDbSpline
210
0.0
220
0.0
230
1.0
 70
     8
 71
     3
 72
    11
 73
     7
 74
     0
 42
0.00000001
 43
0.00000001
 40
0.0
 40
0.0
 40
0.0
 40
0.0
 40
0.2319972353198426
 40
0.4848991721182347
 40
0.7641985638151138
 40
0.9999999999999999
 40
0.9999999999999999
 40
0.9999999999999999
 40
0.9999999999999999
 10
-838.4841364298791
 20
-753.1984122485837
 30
0.0
 10
-838.4442297047353
 20
-753.1731936310222
 30
0.0
 10
-838.3608203573895
 20
-753.1204840081651
 30
0.0
 10
-837.419794632268
 20
-752.5829254100305
 30
0.0
 10
-836.0774080731019
 20
-751.8510011201786
 30
0.0
 10
-834.7883302390359
 20
-751.4260408258493
 30
0.0
 10
-834.198219743821
 20
-751.2315036744794
 30
0.0
  0
SPLINE
  5
320
330
1F
100
AcDbEntity
  8
0
  6
Continuous
 62
     7
370
    15
100
AcDbSpline
210
0.0
220
0.0
230
1.0
 70
     8
 71
     3
 72
    15
 73
    11
 74
     0
 42
0.00000001
 43
0.00000001
 40
0.0
 40
0.0
 40
0.0
 40
0.0
 40
0.0272757129752167
 40
0.168362218560312
 40
0.309881268437726
 40
0.4441357740810374
 40
0.5989935777229357
 40
0.7798916628085647
 40
0.9555982730211056
 40
0.9999999999999999
 40
0.9999999999999999
 40
0.9999999999999999
 40
0.9999999999999999
 10
-833.9661043559045
 20
-751.1493908257207
 30
0.0
 10
-833.8533963664306
 20
-751.1077480079109
 30
0.0
 10
-833.1576943998299
 20
-750.8507033176423
 30
0.0
 10
-831.5324884096142
 20
-750.6285812610184
 30
0.0
 10
-829.3974557708647
 20
-750.7301058743527
 30
0.0
 10
-827.3598358979267
 20
-751.2623419849607
 30
0.0
 10
-825.5029942358435
 20
-752.0446323093481
 30
0.0
 10
-824.026575889761
 20
-752.8473617601719
 30
0.0
 10
-823.4536974326397
 20
-753.1949285710635
 30
0.0
 10
-823.422408870078
 20
-753.2137239979281
 30
0.0
 10
-823.4160971318215
 20
-753.2175155372342
 30
0.0
  0
LWPOLYLINE
  5
321
330
1F
100
AcDbEntity
  8
0
  6
Continuous
 62
     7
370
    15
100
AcDbPolyline
 90
       13
 70
   128
 43
0.0
 10
871.5158570136
 20
-753.1984122486
 10
871.7532027091
 20
-753.0567431838
 10
872.6097214545
 20
-752.5714980454
 10
874.1129505958
 20
-751.8289340676
 10
876.3769734229
 20
-751.0280413569
 10
878.4565794791
 20
-750.6965333612
 10
880.611406597
 20
-750.803946519
 10
882.4939596976
 20
-751.2635895998
 10
884.3181002463
 20
-751.9945101828
 10
885.8545887794
 20
-752.7910219521
 10
886.5533936347
 20
-753.1991424055
 10
886.5839112128
 20
-753.2175155372
 10
886.5839112128
 20
-753.2175155372
  0
LINE
  5
322
330
1F
100
AcDbEntity
  8
0
  6
Continuous
 62
     7
370
    15
100
AcDbLine
 10
1535.0338089789
 20
-757.3175141604
 30
0.0
 11
1495.0338471259
 21
-757.3175141604
 31
0.0
  0
LINE
  5
323
330
1F
100
AcDbEntity
  8
0
  6
Continuous
 62
     7
370
    15
100
AcDbLine
 10
1535.0338089789
 20
-765.3175154717
 30
0.0
 11
1495.0338471259
 21
-765.3175154717
 31
0.0
  0
LINE
  5
324
330
1F
100
AcDbEntity
  8
0
  6
Continuous
 62
     7
370
    15
100
AcDbLine
 10
-877.9660966669
 20
-757.3175141604
 30
0.0
 11
-916.9660974716
 21
-757.3175141604
 31
0.0
  0
LINE
  5
325
330
1F
100
AcDbEntity
  8
0
  6
Continuous
 62
     7
370
    15
100
AcDbLine
 10
-877.9660966669
 20
-765.3175154717
 30
0.0
 11
-916.9660974716
 21
-765.3175154717
 31
0.0
  0
LINE
  5
326
330
1F
100
AcDbEntity
  8
0
  6
Continuous
 62
     7
370
    15
100
AcDbLine
 10
-880.966095296
 20
-726.5175157242
 30
0.0
 11
-912.9660968159
 21
-726.5175157242
 31
0.0
  0
LINE
  5
327
330
1F
100
AcDbEntity
  8
0
  6
Continuous
 62
     7
370
    15
100
AcDbLine
 10
-911.1660961483
 20
-724.7175155223
 30
0.0
 11
-882.7660959636
 21
-724.7175155223
 31
0.0
  0
SPLINE
  5
328
330
1F
100
AcDbEntity
  8
0
  6
Continuous
 62
     7
370
    15
100
AcDbSpline
210
0.0
220
0.0
230
1.0
 70
     8
 71
     3
 72
    10
 73
     6
 74
     0
 42
0.00000001
 43
0.00000001
 40
0.0
 40
0.0
 40
0.0
 40
0.0
 40
0.2371444569449863
 40
0.6851242926397828
 40
0.9999999999999999
 40
0.9999999999999999
 40
0.9999999999999999
 40
0.9999999999999999
 10
-881.0669985090226
 20
-753.1891325504503
 30
0.0
 10
-881.0479561232175
 20
-753.2129666093923
 30
0.0
 10
-880.9929415499365
 20
-753.2818246083677
 30
0.0
 10
-881.5765645124277
 20
-752.5520853785716
 30
0.0
 10
-882.2796816845392
 20
-751.5889905752902
 30
0.0
 10
-882.5698998247117
 20
-751.1914642543516
 30
0.0
  0
SPLINE
  5
329
330
1F
100
AcDbEntity
  8
0
  6
Continuous
 62
     7
370
    15
100
AcDbSpline
210
0.0
220
0.0
230
1.0
 70
     8
 71
     3
 72
    10
 73
     6
 74
     0
 42
0.00000001
 43
0.00000001
 40
0.0
 40
0.0
 40
0.0
 40
0.0
 40
0.3258668895889891
 40
0.7941891158210508
 40
1.0
 40
1.0
 40
1.0
 40
1.0
 10
-882.5413566504449
 20
-730.1914645374736
 30
0.0
 10
-882.2531131028408
 20
-729.802585097593
 30
0.0
 10
-881.5506180181095
 20
-728.8548244370688
 30
0.0
 10
-881.0322394020002
 20
-728.2022937924673
 30
0.0
 10
-880.9815657998296
 20
-728.1373442435599
 30
0.0
 10
-880.9660952959985
 20
-728.1175153345785
 30
0.0
  0
SPLINE
  5
32A
330
1F
100
AcDbEntity
  8
0
  6
Continuous
 62
     7
370
    15
100
AcDbSpline
210
0.0
220
0.0
230
1.0
 70
     8
 71
     3
 72
    22
 73
    18
 74
     0
 42
0.00000001
 43
0.00000001
 40
0.0
 40
0.0
 40
0.0
 40
0.0
 40
0.087077761569607
 40
0.1738038466755083
 40
0.2313481938797203
 40
0.2905521466967761
 40
0.3488893421791229
 40
0.4089778387618718
 40
0.4779436857960283
 40
0.5473137237998241
 40
0.6291798655174823
 40
0.6881376889931705
 40
0.7487575738484309
 40
0.808681939450235
 40
0.8706630809709309
 40
0.9564113612324086
 40
1.0
 40
1.0
 40
1.0
 40
1.0
 10
-912.9660968159169
 20
-728.1175153345785
 30
0.0
 10
-912.8834731625325
 20
-728.221652723721
 30
0.0
 10
-912.7185595436504
 20
-728.4295069277047
 30
0.0
 10
-911.6718819526404
 20
-729.790889106965
 30
0.0
 10
-910.5452958061801
 20
-731.361745748129
 30
0.0
 10
-909.474230717003
 20
-732.9820154954671
 30
0.0
 10
-908.3937707930085
 20
-734.8604650565068
 30
0.0
 10
-907.3888483848203
 20
-737.0945286841123
 30
0.0
 10
-906.7256148960502
 20
-739.7748399865276
 30
0.0
 10
-906.907841131094
 20
-742.9029938250859
 30
0.0
 10
-907.8948273132846
 20
-745.5905765245363
 30
0.0
 10
-909.0854080368082
 20
-747.8160320812716
 30
0.0
 10
-910.1921620394126
 20
-749.5589983635933
 30
0.0
 10
-911.2569389352901
 20
-751.0746332462054
 30
0.0
 10
-912.251342980743
 20
-752.4061795170753
 30
0.0
 10
-912.9399379033988
 20
-753.2844717920457
 30
0.0
 10
-912.8840340933108
 20
-753.2131643235163
 30
0.0
 10
-912.8651936028928
 20
-753.1891325504503
 30
0.0
  0
SPLINE
  5
32B
330
1F
100
AcDbEntity
  8
0
  6
Continuous
 62
     7
370
    15
100
AcDbSpline
210
0.0
220
0.0
230
1.0
 70
     8
 71
     3
 72
    22
 73
    18
 74
     0
 42
0.00000001
 43
0.00000001
 40
0.0
 40
0.0
 40
0.0
 40
0.0
 40
0.0424483244085691
 40
0.1226355266297075
 40
0.2089114492354821
 40
0.3120089853673797
 40
0.3621946732964876
 40
0.4135778938657722
 40
0.4821779252023761
 40
0.5511345904258256
 40
0.6347836448351626
 40
0.6944692855900064
 40
0.7558514825210463
 40
0.8161937722585477
 40
0.8787131328681718
 40
0.9629715392657783
 40
1.0
 40
1.0
 40
1.0
 40
1.0
 10
1530.933009418395
 20
-753.1891325504503
 30
0.0
 10
1530.952976860811
 20
-753.2146001400758
 30
0.0
 10
1531.010663892048
 20
-753.2881773968751
 30
0.0
 10
1530.294496013706
 20
-752.374847073542
 30
0.0
 10
1528.962072147806
 20
-750.591587099298
 30
0.0
 10
1527.449488532955
 20
-748.3509726029708
 30
0.0
 10
1526.237586133864
 20
-746.1083422710674
 30
0.0
 10
1525.366231358765
 20
-744.0434123436033
 30
0.0
 10
1524.777461200993
 20
-741.4718918456226
 30
0.0
 10
1525.020159886569
 20
-738.3378470888416
 30
0.0
 10
1526.052116853091
 20
-735.6489658824568
 30
0.0
 10
1527.273578672899
 20
-733.4159870561308
 30
0.0
 10
1528.39158347979
 20
-731.6818107840123
 30
0.0
 10
1529.447058585588
 20
-730.1926491589875
 30
0.0
 10
1530.423372449456
 20
-728.8947806692856
 30
0.0
 10
1530.969508060939
 20
-728.1994994916768
 30
0.0
 10
1531.018809054624
 20
-728.1366906550156
 30
0.0
 10
1531.033860477355
 20
-728.1175153345785
 30
0.0
  0
SPLINE
  5
32C
330
1F
100
AcDbEntity
  8
0
  6
Continuous
 62
     7
370
    15
100
AcDbSpline
210
0.0
220
0.0
230
1.0
 70
     8
 71
     3
 72
    22
 73
    18
 74
     0
 42
0.00000001
 43
0.00000001
 40
0.0
 40
0.0
 40
0.0
 40
0.0
 40
0.0870777703194159
 40
0.1738044851818465
 40
0.231349639894694
 40
0.2905517357883701
 40
0.3488903097562321
 40
0.4089773360477074
 40
0.4779437343370584
 40
0.5473136821887846
 40
0.629180637040428
 40
0.6881384936680128
 40
0.7487567382967445
 40
0.8086809151523346
 40
0.8706637402765668
 40
0.9564113944007908
 40
1.0
 40
1.0
 40
1.0
 40
1.0
 10
1499.033795627502
 20
-728.1175153345785
 30
0.0
 10
1499.116426587621
 20
-728.2216521119699
 30
0.0
 10
1499.281355379789
 20
-728.4295058376291
 30
0.0
 10
1500.328083819418
 20
-729.7909083720976
 30
0.0
 10
1501.45488060339
 20
-731.3616935499854
 30
0.0
 10
1502.525604708108
 20
-732.9820894904107
 30
0.0
 10
1503.606393988229
 20
-734.8603910975701
 30
0.0
 10
1504.610960098637
 20
-737.0945913752352
 30
0.0
 10
1505.274451065182
 20
-739.7748114802318
 30
0.0
 10
1505.092238301705
 20
-742.9030214655969
 30
0.0
 10
1504.105104499203
 20
-745.5905643852061
 30
0.0
 10
1502.91449832973
 20
-747.8160006150299
 30
0.0
 10
1501.807932805514
 20
-749.5590231600489
 30
0.0
 10
1500.743207504014
 20
-751.0746559917405
 30
0.0
 10
1499.748441922546
 20
-752.4061487717998
 30
0.0
 10
1499.060047540035
 20
-753.2844752714029
 30
0.0
 10
1499.116021044635
 20
-753.2131652784943
 30
0.0
 10
1499.134885105041
 20
-753.1891325504503
 30
0.0
  0
LINE
  5
32D
330
1F
100
AcDbEntity
  8
0
  6
Continuous
 62
     7
370
    15
100
AcDbLine
 10
1531.0338604774
 20
-726.5175157242
 30
0.0
 11
1499.0337956275
 21
-726.5175157242
 31
0.0
  0
LINE
  5
32E
330
1F
100
AcDbEntity
  8
0
  6
Continuous
 62
     7
370
    15
100
AcDbLine
 10
1500.8338558997
 20
-724.7175155223
 30
0.0
 11
1529.2338002051
 21
-724.7175155223
 31
0.0
  0
LWPOLYLINE
  5
32F
330
1F
100
AcDbEntity
  8
0
  6
Continuous
 62
     7
370
    15
100
AcDbPolyline
 90
       13
 70
   128
 43
0.0
 10
1456.5061199988
 20
-728.2340512627
 10
1456.2584030952
 20
-728.3808309601
 10
1455.3972351874
 20
-728.8646311515
 10
1453.8904297675
 20
-729.6005859987
 10
1451.6302216376
 20
-730.3859554247
 10
1449.5602715339
 20
-730.7036714644
 10
1447.4218952979
 20
-730.5884268151
 10
1445.5481636848
 20
-730.1273979262
 10
1443.7361824836
 20
-729.4009225459
 10
1442.227469715
 20
-728.6208616585
 10
1441.5587056006
 20
-728.2323604465
 10
1441.5339100684
 20
-728.2175156304
 10
1441.5339100684
 20
-728.2175156304
  0
LWPOLYLINE
  5
330
330
1F
100
AcDbEntity
  8
0
  6
Continuous
 62
     7
370
    15
100
AcDbPolyline
 90
       13
 70
   128
 43
0.0
 10
886.5060675468
 20
-728.2340512627
 10
886.2584698524
 20
-728.3808309601
 10
885.3971827354
 20
-728.8646311515
 10
883.8904965247
 20
-729.6005859987
 10
881.6302883948
 20
-730.3859554247
 10
879.5602190818
 20
-730.7036714644
 10
877.4219620551
 20
-730.5884268151
 10
875.5481112327
 20
-730.1273979262
 10
873.7362492408
 20
-729.4009225459
 10
872.2274172629
 20
-728.6208616585
 10
871.5586531486
 20
-728.2323604465
 10
871.5338576163
 20
-728.2175156304
 10
871.5338576163
 20
-728.2175156304
  0
LWPOLYLINE
  5
331
330
1F
100
AcDbEntity
  8
0
  6
Continuous
 62
     7
370
    15
100
AcDbPolyline
 90
       13
 70
   128
 43
0.0
 10
-253.4939777528
 20
-728.2340512627
 10
-253.7415754472
 20
-728.3808309601
 10
-254.6028625642
 20
-728.8646311515
 10
-256.1095487748
 20
-729.6005859987
 10
-258.3696973
 20
-730.3859554247
 10
-260.4397070085
 20
-730.7036714644
 10
-262.5780832444
 20
-730.5884268151
 10
-264.4518744622
 20
-730.1273979262
 10
-266.2637364541
 20
-729.4009225459
 10
-267.7726280366
 20
-728.6208616585
 10
-268.4413325463
 20
-728.2323604465
 10
-268.4660684739
 20
-728.2175156304
 10
-268.4660684739
 20
-728.2175156304
  0
LWPOLYLINE
  5
332
330
1F
100
AcDbEntity
  8
0
  6
Continuous
 62
     7
370
    15
100
AcDbPolyline
 90
       13
 70
   128
 43
0.0
 10
316.5060150947
 20
-728.2340512627
 10
316.2584174003
 20
-728.3808309601
 10
315.3971302833
 20
-728.8646311515
 10
313.8904440726
 20
-729.6005859987
 10
311.6302359427
 20
-730.3859554247
 10
309.560285839
 20
-730.7036714644
 10
307.421909603
 20
-730.5884268151
 10
305.5481779899
 20
-730.1273979262
 10
303.7361967887
 20
-729.4009225459
 10
302.2273648109
 20
-728.6208616585
 10
301.5587199058
 20
-728.2323604465
 10
301.5339243735
 20
-728.2175156304
 10
301.5339243735
 20
-728.2175156304
  0
SPLINE
  5
333
330
1F
100
AcDbEntity
  8
0
  6
Continuous
 62
     7
370
    15
100
AcDbSpline
210
0.0
220
0.0
230
1.0
 70
     8
 71
     3
 72
    14
 73
    10
 74
     0
 42
0.00000001
 43
0.00000001
 40
0.0
 40
0.0
 40
0.0
 40
0.0
 40
0.1341811349410295
 40
0.2784527083116963
 40
0.4378221894076909
 40
0.6177869262443828
 40
0.7587634608627669
 40
0.9001421176368419
 40
0.9999999999999999
 40
0.9999999999999999
 40
0.9999999999999999
 40
0.9999999999999999
 10
-823.4939556990594
 20
-728.2340512626788
 30
0.0
 10
-823.537241304581
 20
-728.2604809646291
 30
0.0
 10
-823.62706759867
 20
-728.315327885481
 30
0.0
 10
-824.5656541543597
 20
-728.8585588436699
 30
0.0
 10
-826.0931816888059
 20
-729.6335937635685
 30
0.0
 10
-828.1327349042656
 20
-730.4033386580679
 30
0.0
 10
-830.4231329110555
 20
-730.7783591713071
 30
0.0
 10
-832.4176099212591
 20
-730.6846090161605
 30
0.0
 10
-833.512771303975
 20
-730.3750541196827
 30
0.0
 10
-833.9661043559045
 20
-730.2469164148888
 30
0.0
  0
SPLINE
  5
334
330
1F
100
AcDbEntity
  8
0
  6
Continuous
 62
     7
370
    15
100
AcDbSpline
210
0.0
220
0.0
230
1.0
 70
     8
 71
     3
 72
    12
 73
     8
 74
     0
 42
0.00000001
 43
0.00000001
 40
0.0
 40
0.0
 40
0.0
 40
0.0
 40
0.0383388761213593
 40
0.3096579525861297
 40
0.6250743344160644
 40
0.9299979209866321
 40
1.0
 40
1.0
 40
1.0
 40
1.0
 10
-834.1462444935769
 20
-730.2025947735629
 30
0.0
 10
-834.2489626807322
 20
-730.1781627914663
 30
0.0
 10
-835.078603680829
 20
-729.980828953883
 30
0.0
 10
-836.4199217641129
 20
-729.3321721551242
 30
0.0
 10
-837.8959590621561
 20
-728.5702566031721
 30
0.0
 10
-838.4331231126912
 20
-728.236790177178
 30
0.0
 10
-838.4609104265292
 20
-728.2205481639975
 30
0.0
 10
-838.4660985742539
 20
-728.2175156303665
 30
0.0
  0
LINE
  5
335
330
1F
100
AcDbEntity
  8
0
  6
Continuous
 62
     7
370
    15
100
AcDbLine
 10
-961.1660975919
 20
-753.2175155372
 30
0.0
 11
-961.1660975919
 21
-728.2182951474
 31
0.0
  0
LINE
  5
336
330
1F
100
AcDbEntity
  8
0
  6
Continuous
 62
     7
370
    15
100
AcDbLine
 10
-962.766097566
 20
-728.2182951474
 30
0.0
 11
-962.766097566
 21
-753.2175155372
 31
0.0
  0
LINE
  5
337
330
1F
100
AcDbEntity
  8
0
  6
Continuous
 62
     7
370
    15
100
AcDbLine
 10
-962.966097561
 20
-753.017515877
 30
0.0
 11
-962.966097561
 21
-728.4182827004
 31
0.0
  0
LINE
  5
338
330
1F
100
AcDbEntity
  8
0
  6
Continuous
 62
     7
370
    15
100
AcDbLine
 10
1580.8340180244
 20
-753.2170945794
 30
0.0
 11
1580.8340180244
 21
-728.2175156304
 31
0.0
  0
LINE
  5
339
330
1F
100
AcDbEntity
  8
0
  6
Continuous
 62
     7
370
    15
100
AcDbLine
 10
1579.23399094
 20
-728.2175156304
 30
0.0
 11
1579.23399094
 21
-753.2170945794
 31
0.0
  0
LINE
  5
33A
330
1F
100
AcDbEntity
  8
0
  6
Continuous
 62
     7
370
    15
100
AcDbLine
 10
1581.0338127936
 20
-728.4175152906
 30
0.0
 11
1581.0338127936
 21
-753.0171023698
 31
0.0
  0
LINE
  5
33B
330
1F
100
AcDbEntity
  8
0
  6
Continuous
 62
     7
370
    15
100
AcDbLine
 10
-877.9660966669
 20
-761.4914635212
 30
0.0
 11
-847.9660954748
 21
-761.4914635212
 31
0.0
  0
LINE
  5
33C
330
1F
100
AcDbEntity
  8
0
  6
Continuous
 62
     7
370
    15
100
AcDbLine
 10
-847.9660954748
 20
-757.8914659114
 30
0.0
 11
-877.9660966669
 21
-757.8914659114
 31
0.0
  0
LINE
  5
33D
330
1F
100
AcDbEntity
  8
0
  6
Continuous
 62
     7
370
    15
100
AcDbLine
 10
-877.7661007319
 20
-757.6914625258
 30
0.0
 11
-848.1660988604
 21
-757.6914625258
 31
0.0
  0
LINE
  5
33E
330
1F
100
AcDbEntity
  8
0
  6
Continuous
 62
     7
370
    15
100
AcDbLine
 10
-147.9660999452
 20
-757.8914659114
 30
0.0
 11
-177.9660713349
 21
-757.8914659114
 31
0.0
  0
LINE
  5
33F
330
1F
100
AcDbEntity
  8
0
  6
Continuous
 62
     7
370
    15
100
AcDbLine
 10
-177.7660977517
 20
-757.6914625258
 30
0.0
 11
-148.1660735284
 21
-757.6914625258
 31
0.0
  0
LINE
  5
340
330
1F
100
AcDbEntity
  8
0
  6
Continuous
 62
     7
370
    15
100
AcDbLine
 10
-177.9660713349
 20
-761.4914635212
 30
0.0
 11
-147.9660999452
 21
-761.4914635212
 31
0.0
  0
LINE
  5
341
330
1F
100
AcDbEntity
  8
0
  6
Continuous
 62
     7
370
    15
100
AcDbLine
 10
1527.9511082496
 20
-769.3175161273
 30
0.0
 11
1502.1167862739
 21
-769.3175161273
 31
0.0
  0
LINE
  5
342
330
1F
100
AcDbEntity
  8
0
  6
Continuous
 62
     7
370
    15
100
AcDbLine
 10
-884.0489369307
 20
-769.3175161273
 30
0.0
 11
-909.8832551812
 21
-769.3175161273
 31
0.0
  0
LINE
  5
343
330
1F
100
AcDbEntity
  8
0
  6
Continuous
 62
     7
370
    15
100
AcDbLine
 10
-875.8832570587
 20
-717.6914638855
 30
0.0
 11
-850.0489425336
 21
-717.6914638855
 31
0.0
  0
LINE
  5
344
330
1F
100
AcDbEntity
  8
0
  6
Continuous
 62
     7
370
    15
100
AcDbLine
 10
-175.8832466279
 20
-717.6914638855
 30
0.0
 11
-150.0489246522
 21
-717.6914638855
 31
0.0
  0
LINE
  5
345
330
1F
100
AcDbEntity
  8
0
  6
Continuous
 62
     7
370
    15
100
AcDbLine
 10
-877.9660966669
 20
-770.691462794
 30
0.0
 11
-847.9660954748
 21
-770.691462794
 31
0.0
  0
LINE
  5
346
330
1F
100
AcDbEntity
  8
0
  6
Continuous
 62
     7
370
    15
100
AcDbLine
 10
-877.9660966669
 20
-767.6914641649
 30
0.0
 11
-847.9660954748
 21
-767.6914641649
 31
0.0
  0
LINE
  5
347
330
1F
100
AcDbEntity
  8
0
  6
Continuous
 62
     7
370
    15
100
AcDbLine
 10
-849.9660995279
 20
-772.6914631219
 30
0.0
 11
-875.9661000644
 21
-772.6914631219
 31
0.0
  0
LINE
  5
348
330
1F
100
AcDbEntity
  8
0
  6
Continuous
 62
     7
370
    15
100
AcDbLine
 10
-177.9660713349
 20
-770.691462794
 30
0.0
 11
-147.9660999452
 21
-770.691462794
 31
0.0
  0
LINE
  5
349
330
1F
100
AcDbEntity
  8
0
  6
Continuous
 62
     7
370
    15
100
AcDbLine
 10
-149.966074196
 20
-772.6914631219
 30
0.0
 11
-175.9660970841
 21
-772.6914631219
 31
0.0
  0
LINE
  5
34A
330
1F
100
AcDbEntity
  8
0
  6
Continuous
 62
     7
370
    15
100
AcDbLine
 10
-177.9660713349
 20
-767.6914641649
 30
0.0
 11
-147.9660999452
 21
-767.6914641649
 31
0.0
  0
LINE
  5
34B
330
1F
100
AcDbEntity
  8
0
  6
Continuous
 62
     7
370
    15
100
AcDbLine
 10
-848.9743974482
 20
-729.6914644555
 30
0.0
 11
-877.7661007319
 21
-729.6914644555
 31
0.0
  0
LINE
  5
34C
330
1F
100
AcDbEntity
  8
0
  6
Continuous
 62
     7
370
    15
100
AcDbLine
 10
-848.1660988604
 20
-729.6914644555
 30
0.0
 11
-848.9743974482
 21
-729.6914644555
 31
0.0
  0
LINE
  5
34D
330
1F
100
AcDbEntity
  8
0
  6
Continuous
 62
     7
370
    15
100
AcDbLine
 10
-850.754408208
 20
-726.6914639638
 30
0.0
 11
-850.0489425336
 21
-726.6914639638
 31
0.0
  0
LINE
  5
34E
330
1F
100
AcDbEntity
  8
0
  6
Continuous
 62
     7
370
    15
100
AcDbLine
 10
-875.8832570587
 20
-726.6914639638
 30
0.0
 11
-850.754408208
 21
-726.6914639638
 31
0.0
  0
LINE
  5
34F
330
1F
100
AcDbEntity
  8
0
  6
Continuous
 62
     7
370
    15
100
AcDbLine
 10
-148.9743721162
 20
-729.6914644555
 30
0.0
 11
-177.7660977517
 21
-729.6914644555
 31
0.0
  0
LINE
  5
350
330
1F
100
AcDbEntity
  8
0
  6
Continuous
 62
     7
370
    15
100
AcDbLine
 10
-148.1660735284
 20
-729.6914644555
 30
0.0
 11
-148.9743721162
 21
-729.6914644555
 31
0.0
  0
LINE
  5
351
330
1F
100
AcDbEntity
  8
0
  6
Continuous
 62
     7
370
    15
100
AcDbLine
 10
-150.7544052278
 20
-726.6914639638
 30
0.0
 11
-150.0489246522
 21
-726.6914639638
 31
0.0
  0
LINE
  5
352
330
1F
100
AcDbEntity
  8
0
  6
Continuous
 62
     7
370
    15
100
AcDbLine
 10
-175.8832466279
 20
-726.6914639638
 30
0.0
 11
-150.7544052278
 21
-726.6914639638
 31
0.0
  0
LINE
  5
353
330
1F
100
AcDbEntity
  8
0
  6
Continuous
 62
     7
370
    15
100
AcDbLine
 10
-162.6315247689
 20
-731.691463852
 30
0.0
 11
-191.9660699044
 21
-731.691463852
 31
0.0
  0
LINE
  5
354
330
1F
100
AcDbEntity
  8
0
  6
Continuous
 62
     7
370
    15
100
AcDbLine
 10
-133.9661013757
 20
-731.691463852
 30
0.0
 11
-162.6315247689
 21
-731.691463852
 31
0.0
  0
LINE
  5
355
330
1F
100
AcDbEntity
  8
0
  6
Continuous
 62
     7
370
    15
100
AcDbLine
 10
-162.6315247689
 20
-730.1914645375
 30
0.0
 11
-191.9660699044
 21
-730.1914645375
 31
0.0
  0
LINE
  5
356
330
1F
100
AcDbEntity
  8
0
  6
Continuous
 62
     7
370
    15
100
AcDbLine
 10
-133.9661013757
 20
-730.1914645375
 30
0.0
 11
-162.6315247689
 21
-730.1914645375
 31
0.0
  0
LINE
  5
357
330
1F
100
AcDbEntity
  8
0
  6
Continuous
 62
     7
370
    15
100
AcDbLine
 10
-191.9660699044
 20
-749.6914649398
 30
0.0
 11
-133.9661013757
 21
-749.6914649398
 31
0.0
  0
LINE
  5
358
330
1F
100
AcDbEntity
  8
0
  6
Continuous
 62
     7
370
    15
100
AcDbLine
 10
-191.9660699044
 20
-751.1914642544
 30
0.0
 11
-133.9661013757
 21
-751.1914642544
 31
0.0
  0
LINE
  5
359
330
1F
100
AcDbEntity
  8
0
  6
Continuous
 62
     7
370
    15
100
AcDbLine
 10
-891.9660952364
 20
-751.1914642544
 30
0.0
 11
-833.9661043559
 21
-751.1914642544
 31
0.0
  0
LINE
  5
35A
330
1F
100
AcDbEntity
  8
0
  6
Continuous
 62
     7
370
    15
100
AcDbLine
 10
-891.9660952364
 20
-749.6914649398
 30
0.0
 11
-833.9661043559
 21
-749.6914649398
 31
0.0
  0
LINE
  5
35B
330
1F
100
AcDbEntity
  8
0
  6
Continuous
 62
     7
370
    15
100
AcDbLine
 10
-862.6315501009
 20
-730.1914645375
 30
0.0
 11
-891.9660952364
 21
-730.1914645375
 31
0.0
  0
LINE
  5
35C
330
1F
100
AcDbEntity
  8
0
  6
Continuous
 62
     7
370
    15
100
AcDbLine
 10
-833.9661043559
 20
-730.1914645375
 30
0.0
 11
-862.6315501009
 21
-730.1914645375
 31
0.0
  0
LINE
  5
35D
330
1F
100
AcDbEntity
  8
0
  6
Continuous
 62
     7
370
    15
100
AcDbLine
 10
-862.6315501009
 20
-731.691463852
 30
0.0
 11
-891.9660952364
 21
-731.691463852
 31
0.0
  0
LINE
  5
35E
330
1F
100
AcDbEntity
  8
0
  6
Continuous
 62
     7
370
    15
100
AcDbLine
 10
-833.9661043559
 20
-731.691463852
 30
0.0
 11
-862.6315501009
 21
-731.691463852
 31
0.0
  0
LINE
  5
35F
330
1F
100
AcDbEntity
  8
0
  6
Continuous
 62
     7
370
    15
100
AcDbLine
 10
-133.9661013757
 20
-748.7231390567
 30
0.0
 11
-191.9660699044
 21
-748.7231390567
 31
0.0
  0
LINE
  5
360
330
1F
100
AcDbEntity
  8
0
  6
Continuous
 62
     7
370
    15
100
AcDbLine
 10
-174.8601329003
 20
-732.7118925766
 30
0.0
 11
-133.9661013757
 21
-732.7118925766
 31
0.0
  0
LINE
  5
361
330
1F
100
AcDbEntity
  8
0
  6
Continuous
 62
     7
370
    15
100
AcDbLine
 10
-191.9660699044
 20
-732.7118925766
 30
0.0
 11
-174.8601329003
 21
-732.7118925766
 31
0.0
  0
LINE
  5
362
330
1F
100
AcDbEntity
  8
0
  6
Continuous
 62
     7
370
    15
100
AcDbLine
 10
-191.9660699044
 20
-731.691463852
 30
0.0
 11
-133.9661013757
 21
-731.691463852
 31
0.0
  0
LINE
  5
363
330
1F
100
AcDbEntity
  8
0
  6
Continuous
 62
     7
370
    15
100
AcDbLine
 10
-833.9661043559
 20
-748.7231390567
 30
0.0
 11
-891.9660952364
 21
-748.7231390567
 31
0.0
  0
LINE
  5
364
330
1F
100
AcDbEntity
  8
0
  6
Continuous
 62
     7
370
    15
100
AcDbLine
 10
-874.8601135288
 20
-732.7118925766
 30
0.0
 11
-833.9661043559
 21
-732.7118925766
 31
0.0
  0
LINE
  5
365
330
1F
100
AcDbEntity
  8
0
  6
Continuous
 62
     7
370
    15
100
AcDbLine
 10
-891.9660952364
 20
-732.7118925766
 30
0.0
 11
-874.8601135288
 21
-732.7118925766
 31
0.0
  0
LINE
  5
366
330
1F
100
AcDbEntity
  8
0
  6
Continuous
 62
     7
370
    15
100
AcDbLine
 10
-891.9660952364
 20
-731.691463852
 30
0.0
 11
-833.9661043559
 21
-731.691463852
 31
0.0
  0
LINE
  5
367
330
1F
100
AcDbEntity
  8
0
  6
Continuous
 62
     7
370
    15
100
AcDbLine
 10
-177.9660713349
 20
-761.6914631815
 30
0.0
 11
-177.9660713349
 21
-767.6914641649
 31
0.0
  0
LINE
  5
368
330
1F
100
AcDbEntity
  8
0
  6
Continuous
 62
     7
370
    15
100
AcDbLine
 10
-147.9660999452
 20
-761.6914631815
 30
0.0
 11
-147.9660999452
 21
-767.6914641649
 31
0.0
  0
LINE
  5
369
330
1F
100
AcDbEntity
  8
0
  6
Continuous
 62
     7
370
    15
100
AcDbLine
 10
-177.9660713349
 20
-761.6914631815
 30
0.0
 11
-147.9660999452
 21
-761.6914631815
 31
0.0
  0
LINE
  5
36A
330
1F
100
AcDbEntity
  8
0
  6
Continuous
 62
     7
370
    15
100
AcDbLine
 10
-877.9660966669
 20
-761.6914631815
 30
0.0
 11
-877.9660966669
 21
-767.6914641649
 31
0.0
  0
LINE
  5
36B
330
1F
100
AcDbEntity
  8
0
  6
Continuous
 62
     7
370
    15
100
AcDbLine
 10
-847.9660954748
 20
-761.6914631815
 30
0.0
 11
-847.9660954748
 21
-767.6914641649
 31
0.0
  0
LINE
  5
36C
330
1F
100
AcDbEntity
  8
0
  6
Continuous
 62
     7
370
    15
100
AcDbLine
 10
-877.9660966669
 20
-761.6914631815
 30
0.0
 11
-847.9660954748
 21
-761.6914631815
 31
0.0
  0
LINE
  5
36D
330
1F
100
AcDbEntity
  8
0
  6
Continuous
 62
     7
370
    15
100
AcDbLine
 10
-877.6660990392
 20
-751.691463405
 30
0.0
 11
-848.2661005531
 21
-751.691463405
 31
0.0
  0
LINE
  5
36E
330
1F
100
AcDbEntity
  8
0
  6
Continuous
 62
     7
370
    15
100
AcDbLine
 10
-847.9660954748
 20
-751.991464758
 30
0.0
 11
-877.9660966669
 21
-751.991464758
 31
0.0
  0
LINE
  5
36F
330
1F
100
AcDbEntity
  8
0
  6
Continuous
 62
     7
370
    15
100
AcDbLine
 10
-877.9660966669
 20
-757.3914648981
 30
0.0
 11
-847.9660954748
 21
-757.3914648981
 31
0.0
  0
LINE
  5
370
330
1F
100
AcDbEntity
  8
0
  6
Continuous
 62
     7
370
    15
100
AcDbLine
 10
-177.6660811578
 20
-751.691463405
 30
0.0
 11
-148.2660901223
 21
-751.691463405
 31
0.0
  0
LINE
  5
371
330
1F
100
AcDbEntity
  8
0
  6
Continuous
 62
     7
370
    15
100
AcDbLine
 10
-147.9660999452
 20
-751.991464758
 30
0.0
 11
-177.9660713349
 21
-751.991464758
 31
0.0
  0
LINE
  5
372
330
1F
100
AcDbEntity
  8
0
  6
Continuous
 62
     7
370
    15
100
AcDbLine
 10
-177.9660713349
 20
-757.3914648981
 30
0.0
 11
-147.9660999452
 21
-757.3914648981
 31
0.0
  0
LINE
  5
373
330
1F
100
AcDbEntity
  8
0
  6
Continuous
 62
     7
370
    15
100
AcDbLine
 10
-62.9661214028
 20
-761.6914631815
 30
0.0
 11
-62.9661214028
 21
-753.2175155372
 31
0.0
  0
LINE
  5
374
330
1F
100
AcDbEntity
  8
0
  6
Continuous
 62
     7
370
    15
100
AcDbLine
 10
-62.9661214028
 20
-728.2175156304
 30
0.0
 11
-62.9661214028
 21
-721.6914640755
 31
0.0
  0
LINE
  5
375
330
1F
100
AcDbEntity
  8
0
  6
Continuous
 62
     7
370
    15
100
AcDbLine
 10
-62.9661214028
 20
-761.6914631815
 30
0.0
 11
-147.9660999452
 21
-761.6914631815
 31
0.0
  0
LINE
  5
376
330
1F
100
AcDbEntity
  8
0
  6
Continuous
 62
     7
370
    15
100
AcDbLine
 10
-177.9660713349
 20
-761.6914631815
 30
0.0
 11
-847.9660954748
 21
-761.6914631815
 31
0.0
  0
LINE
  5
377
330
1F
100
AcDbEntity
  8
0
  6
Continuous
 62
     7
370
    15
100
AcDbLine
 10
-916.9660974716
 20
-761.6914631815
 30
0.0
 11
-962.966097561
 21
-761.6914631815
 31
0.0
  0
LINE
  5
378
330
1F
100
AcDbEntity
  8
0
  6
Continuous
 62
     7
370
    15
100
AcDbLine
 10
-962.966097561
 20
-761.6914631815
 30
0.0
 11
-962.966097561
 21
-753.017515877
 31
0.0
  0
LINE
  5
379
330
1F
100
AcDbEntity
  8
0
  6
Continuous
 62
     7
370
    15
100
AcDbLine
 10
-962.966097561
 20
-728.4175152906
 30
0.0
 11
-962.966097561
 21
-721.6914640755
 31
0.0
  0
LINE
  5
37A
330
1F
100
AcDbEntity
  8
0
  6
Continuous
 62
     7
370
    15
100
AcDbLine
 10
-62.9661214028
 20
-721.6914640755
 30
0.0
 11
-253.466082779
 21
-721.6914640755
 31
0.0
  0
LINE
  5
37B
330
1F
100
AcDbEntity
  8
0
  6
Continuous
 62
     7
370
    15
100
AcDbLine
 10
-268.4660684739
 20
-721.6914640755
 30
0.0
 11
-823.4660905276
 21
-721.6914640755
 31
0.0
  0
LINE
  5
37C
330
1F
100
AcDbEntity
  8
0
  6
Continuous
 62
     7
370
    15
100
AcDbLine
 10
-838.4660985743
 20
-721.6914640755
 30
0.0
 11
-962.966097561
 21
-721.6914640755
 31
0.0
  0
LINE
  5
37D
330
1F
100
AcDbEntity
  8
0
  6
Continuous
 62
     7
370
    15
100
AcDbLine
 10
-838.4160977279
 20
-753.9052153022
 30
0.0
 11
-823.5161137258
 21
-753.9052153022
 31
0.0
  0
LINE
  5
37E
330
1F
100
AcDbEntity
  8
0
  6
Continuous
 62
     7
370
    15
100
AcDbLine
 10
-824.5161157523
 20
-754.9052173288
 30
0.0
 11
-837.4160957013
 21
-754.9052173288
 31
0.0
  0
LINE
  5
37F
330
1F
100
AcDbEntity
  8
0
  6
Continuous
 62
     7
370
    15
100
AcDbLine
 10
1441.58397797
 20
-753.9052153022
 30
0.0
 11
1456.483947071
 21
-753.9052153022
 31
0.0
  0
LINE
  5
380
330
1F
100
AcDbEntity
  8
0
  6
Continuous
 62
     7
370
    15
100
AcDbLine
 10
1455.4837811317
 20
-754.9052173288
 30
0.0
 11
1442.5839054908
 21
-754.9052173288
 31
0.0
  0
LINE
  5
381
330
1F
100
AcDbEntity
  8
0
  6
Continuous
 62
     7
370
    15
100
AcDbLine
 10
871.5839255179
 20
-753.9052153022
 30
0.0
 11
886.4838946189
 21
-753.9052153022
 31
0.0
  0
LINE
  5
382
330
1F
100
AcDbEntity
  8
0
  6
Continuous
 62
     7
370
    15
100
AcDbLine
 10
885.4838478889
 20
-754.9052173288
 30
0.0
 11
872.5838530387
 21
-754.9052173288
 31
0.0
  0
LINE
  5
383
330
1F
100
AcDbEntity
  8
0
  6
Continuous
 62
     7
370
    15
100
AcDbLine
 10
301.5838730659
 20
-753.9052153022
 30
0.0
 11
316.4838421668
 21
-753.9052153022
 31
0.0
  0
LINE
  5
384
330
1F
100
AcDbEntity
  8
0
  6
Continuous
 62
     7
370
    15
100
AcDbLine
 10
315.4839146461
 20
-754.9052173288
 30
0.0
 11
302.5839197959
 21
-754.9052173288
 31
0.0
  0
LINE
  5
385
330
1F
100
AcDbEntity
  8
0
  6
Continuous
 62
     7
370
    15
100
AcDbLine
 10
-268.4161197816
 20
-753.9052153022
 30
0.0
 11
-253.516091076
 21
-753.9052153022
 31
0.0
  0
LINE
  5
386
330
1F
100
AcDbEntity
  8
0
  6
Continuous
 62
     7
370
    15
100
AcDbLine
 10
-254.516137806
 20
-754.9052173288
 30
0.0
 11
-267.4160730515
 21
-754.9052173288
 31
0.0
  0
LINE
  5
387
330
1F
100
AcDbEntity
  8
0
  6
Continuous
 62
     7
370
    15
100
AcDbLine
 10
-855.9660967861
 20
-709.2175157757
 30
0.0
 11
-805.9661668216
 21
-709.2175157757
 31
0.0
  0
LINE
  5
388
330
1F
100
AcDbEntity
  8
0
  6
Continuous
 62
     7
370
    15
100
AcDbLine
 10
-805.9661668216
 20
-707.2175154478
 30
0.0
 11
-855.9660967861
 21
-707.2175154478
 31
0.0
  0
LINE
  5
389
330
1F
100
AcDbEntity
  8
0
  6
Continuous
 62
     7
370
    15
100
AcDbLine
 10
-806.9661688481
 20
-710.2175159396
 30
0.0
 11
-854.9660947596
 21
-710.2175159396
 31
0.0
  0
LINE
  5
38A
330
1F
100
AcDbEntity
  8
0
  6
Continuous
 62
     7
370
    15
100
AcDbLine
 10
854.0339339103
 20
-709.2175157757
 30
0.0
 11
904.0337670173
 21
-709.2175157757
 31
0.0
  0
LINE
  5
38B
330
1F
100
AcDbEntity
  8
0
  6
Continuous
 62
     7
370
    15
100
AcDbLine
 10
904.0337670173
 20
-707.2175154478
 30
0.0
 11
854.0339339103
 21
-707.2175154478
 31
0.0
  0
LINE
  5
38C
330
1F
100
AcDbEntity
  8
0
  6
Continuous
 62
     7
370
    15
100
AcDbLine
 10
903.0338394965
 20
-710.2175159396
 30
0.0
 11
855.033861431
 21
-710.2175159396
 31
0.0
  0
LINE
  5
38D
330
1F
100
AcDbEntity
  8
0
  6
Continuous
 62
     7
370
    15
100
AcDbLine
 10
-285.9661113893
 20
-709.2175157757
 30
0.0
 11
-235.966159073
 21
-709.2175157757
 31
0.0
  0
LINE
  5
38E
330
1F
100
AcDbEntity
  8
0
  6
Continuous
 62
     7
370
    15
100
AcDbLine
 10
-235.966159073
 20
-707.2175154478
 30
0.0
 11
-285.9661113893
 21
-707.2175154478
 31
0.0
  0
LINE
  5
38F
330
1F
100
AcDbEntity
  8
0
  6
Continuous
 62
     7
370
    15
100
AcDbLine
 10
-236.9661461984
 20
-710.2175159396
 30
0.0
 11
-284.9661242639
 21
-710.2175159396
 31
0.0
  0
LINE
  5
390
330
1F
100
AcDbEntity
  8
0
  6
Continuous
 62
     7
370
    15
100
AcDbLine
 10
1424.0339863624
 20
-709.2175157757
 30
0.0
 11
1474.0339386786
 21
-709.2175157757
 31
0.0
  0
LINE
  5
391
330
1F
100
AcDbEntity
  8
0
  6
Continuous
 62
     7
370
    15
100
AcDbLine
 10
1474.0339386786
 20
-707.2175154478
 30
0.0
 11
1424.0339863624
 21
-707.2175154478
 31
0.0
  0
LINE
  5
392
330
1F
100
AcDbEntity
  8
0
  6
Continuous
 62
     7
370
    15
100
AcDbLine
 10
1473.0337727393
 20
-710.2175159396
 30
0.0
 11
1425.0339138831
 21
-710.2175159396
 31
0.0
  0
LINE
  5
393
330
1F
100
AcDbEntity
  8
0
  6
Continuous
 62
     7
370
    15
100
AcDbLine
 10
334.0338337745
 20
-707.2175154478
 30
0.0
 11
284.0338814582
 21
-707.2175154478
 31
0.0
  0
LINE
  5
394
330
1F
100
AcDbEntity
  8
0
  6
Continuous
 62
     7
370
    15
100
AcDbLine
 10
284.0338814582
 20
-709.2175157757
 30
0.0
 11
334.0338337745
 21
-709.2175157757
 31
0.0
  0
LINE
  5
395
330
1F
100
AcDbEntity
  8
0
  6
Continuous
 62
     7
370
    15
100
AcDbLine
 10
333.0337870444
 20
-710.2175159396
 30
0.0
 11
285.0339281882
 21
-710.2175159396
 31
0.0
  0
LINE
  5
396
330
1F
100
AcDbEntity
  8
0
  6
Continuous
 62
     8
370
    15
100
AcDbLine
 10
1530.0339329566
 20
-765.5175151319
 30
0.0
 11
1500.0339615668
 21
-765.5175151319
 31
0.0
  0
LINE
  5
397
330
1F
100
AcDbEntity
  8
0
  6
Continuous
 62
     8
370
    15
100
AcDbLine
 10
1528.8897621955
 20
-767.2346727938
 30
0.0
 11
1530.0339329566
 21
-767.2346727938
 31
0.0
  0
LINE
  5
398
330
1F
100
AcDbEntity
  8
0
  6
Continuous
 62
     8
370
    15
100
AcDbLine
 10
1500.0339615668
 20
-767.2346727938
 30
0.0
 11
1528.8897621955
 21
-767.2346727938
 31
0.0
  0
LINE
  5
399
330
1F
100
AcDbEntity
  8
0
  6
Continuous
 62
     8
370
    15
100
AcDbLine
 10
1529.9752819861
 20
-767.3760959894
 30
0.0
 11
1500.0923741187
 21
-767.3760959894
 31
0.0
  0
LINE
  5
39A
330
1F
100
AcDbEntity
  8
0
  6
Continuous
 62
     8
370
    15
100
AcDbLine
 10
1501.9754040565
 20
-769.2589359374
 30
0.0
 11
1528.092490467
 21
-769.2589359374
 31
0.0
  0
LINE
  5
39B
330
1F
100
AcDbEntity
  8
0
  6
Continuous
 62
     8
370
    15
100
AcDbLine
 10
-883.1101786767
 20
-767.2346727938
 30
0.0
 11
-881.9660973226
 21
-767.2346727938
 31
0.0
  0
LINE
  5
39C
330
1F
100
AcDbEntity
  8
0
  6
Continuous
 62
     8
370
    15
100
AcDbLine
 10
-911.9660985146
 20
-767.2346727938
 30
0.0
 11
-883.1101786767
 21
-767.2346727938
 31
0.0
  0
LINE
  5
39D
330
1F
100
AcDbEntity
  8
0
  6
Continuous
 62
     8
370
    15
100
AcDbLine
 10
-881.9660973226
 20
-765.5175151319
 30
0.0
 11
-911.9660985146
 21
-765.5175151319
 31
0.0
  0
LINE
  5
39E
330
1F
100
AcDbEntity
  8
0
  6
Continuous
 62
     8
370
    15
100
AcDbLine
 10
-882.0246737872
 20
-767.3760959894
 30
0.0
 11
-911.9075183247
 21
-767.3760959894
 31
0.0
  0
LINE
  5
39F
330
1F
100
AcDbEntity
  8
0
  6
Continuous
 62
     8
370
    15
100
AcDbLine
 10
-910.0246746515
 20
-769.2589359374
 30
0.0
 11
-883.9075174604
 21
-769.2589359374
 31
0.0
  0
LINE
  5
3A0
330
1F
100
AcDbEntity
  8
0
  6
Continuous
 62
     8
370
    15
100
AcDbLine
 10
-870.3909945165
 20
-719.7743067534
 30
0.0
 11
-877.9660966669
 21
-719.7743067534
 31
0.0
  0
LINE
  5
3A1
330
1F
100
AcDbEntity
  8
0
  6
Continuous
 62
     8
370
    15
100
AcDbLine
 10
-847.9660954748
 20
-719.7743067534
 30
0.0
 11
-870.3909945165
 21
-719.7743067534
 31
0.0
  0
LINE
  5
3A2
330
1F
100
AcDbEntity
  8
0
  6
Continuous
 62
     8
370
    15
100
AcDbLine
 10
-877.9660966669
 20
-721.4914640806
 30
0.0
 11
-847.9660954748
 21
-721.4914640806
 31
0.0
  0
LINE
  5
3A3
330
1F
100
AcDbEntity
  8
0
  6
Continuous
 62
     8
370
    15
100
AcDbLine
 10
-877.9075202023
 20
-719.6328854204
 30
0.0
 11
-848.02467939
 21
-719.6328854204
 31
0.0
  0
LINE
  5
3A4
330
1F
100
AcDbEntity
  8
0
  6
Continuous
 62
     8
370
    15
100
AcDbLine
 10
-849.9075156127
 20
-717.7500426785
 30
0.0
 11
-876.024676529
 21
-717.7500426785
 31
0.0
  0
LINE
  5
3A5
330
1F
100
AcDbEntity
  8
0
  6
Continuous
 62
     8
370
    15
100
AcDbLine
 10
-170.3909766351
 20
-719.7743067534
 30
0.0
 11
-177.9660713349
 21
-719.7743067534
 31
0.0
  0
LINE
  5
3A6
330
1F
100
AcDbEntity
  8
0
  6
Continuous
 62
     8
370
    15
100
AcDbLine
 10
-147.9660999452
 20
-719.7743067534
 30
0.0
 11
-170.3909766351
 21
-719.7743067534
 31
0.0
  0
LINE
  5
3A7
330
1F
100
AcDbEntity
  8
0
  6
Continuous
 62
     8
370
    15
100
AcDbLine
 10
-177.9075395738
 20
-719.6328854204
 30
0.0
 11
-148.024691311
 21
-719.6328854204
 31
0.0
  0
LINE
  5
3A8
330
1F
100
AcDbEntity
  8
0
  6
Continuous
 62
     8
370
    15
100
AcDbLine
 10
-177.9660713349
 20
-721.4914640806
 30
0.0
 11
-147.9660999452
 21
-721.4914640806
 31
0.0
  0
LINE
  5
3A9
330
1F
100
AcDbEntity
  8
0
  6
Continuous
 62
     8
370
    15
100
AcDbLine
 10
-149.9075424348
 20
-717.7500426785
 30
0.0
 11
-176.02468845
 21
-717.7500426785
 31
0.0
  0
LINE
  5
3AA
330
1F
100
AcDbEntity
  8
0
  6
Continuous
 62
     8
370
    15
100
AcDbLine
 10
-848.7853240643
 20
-729.4914638639
 30
0.0
 11
-847.9660954748
 21
-729.4914638639
 31
0.0
  0
LINE
  5
3AB
330
1F
100
AcDbEntity
  8
0
  6
Continuous
 62
     8
370
    15
100
AcDbLine
 10
-877.9660966669
 20
-729.4914638639
 30
0.0
 11
-848.7853240643
 21
-729.4914638639
 31
0.0
  0
LINE
  5
3AC
330
1F
100
AcDbEntity
  8
0
  6
Continuous
 62
     8
370
    15
100
AcDbLine
 10
-847.9660954748
 20
-728.7743068316
 30
0.0
 11
-877.9660966669
 21
-728.7743068316
 31
0.0
  0
LINE
  5
3AD
330
1F
100
AcDbEntity
  8
0
  6
Continuous
 62
     8
370
    15
100
AcDbLine
 10
-848.8407042299
 20
-728.6328854986
 30
0.0
 11
-848.02467939
 21
-728.6328854986
 31
0.0
  0
LINE
  5
3AE
330
1F
100
AcDbEntity
  8
0
  6
Continuous
 62
     8
370
    15
100
AcDbLine
 10
-877.9075202023
 20
-728.6328854986
 30
0.0
 11
-848.8407042299
 21
-728.6328854986
 31
0.0
  0
LINE
  5
3AF
330
1F
100
AcDbEntity
  8
0
  6
Continuous
 62
     8
370
    15
100
AcDbLine
 10
-850.6207149898
 20
-726.7500427567
 30
0.0
 11
-876.024676529
 21
-726.7500427567
 31
0.0
  0
LINE
  5
3B0
330
1F
100
AcDbEntity
  8
0
  6
Continuous
 62
     8
370
    15
100
AcDbLine
 10
-849.9075156127
 20
-726.7500427567
 30
0.0
 11
-850.6207149898
 21
-726.7500427567
 31
0.0
  0
LINE
  5
3B1
330
1F
100
AcDbEntity
  8
0
  6
Continuous
 62
     8
370
    15
100
AcDbLine
 10
-148.785306183
 20
-729.4914638639
 30
0.0
 11
-147.9660999452
 21
-729.4914638639
 31
0.0
  0
LINE
  5
3B2
330
1F
100
AcDbEntity
  8
0
  6
Continuous
 62
     8
370
    15
100
AcDbLine
 10
-177.9660713349
 20
-729.4914638639
 30
0.0
 11
-148.785306183
 21
-729.4914638639
 31
0.0
  0
LINE
  5
3B3
330
1F
100
AcDbEntity
  8
0
  6
Continuous
 62
     8
370
    15
100
AcDbLine
 10
-147.9660999452
 20
-728.7743068316
 30
0.0
 11
-177.9660713349
 21
-728.7743068316
 31
0.0
  0
LINE
  5
3B4
330
1F
100
AcDbEntity
  8
0
  6
Continuous
 62
     8
370
    15
100
AcDbLine
 10
-148.840678898
 20
-728.6328854986
 30
0.0
 11
-148.024691311
 21
-728.6328854986
 31
0.0
  0
LINE
  5
3B5
330
1F
100
AcDbEntity
  8
0
  6
Continuous
 62
     8
370
    15
100
AcDbLine
 10
-177.9075395738
 20
-728.6328854986
 30
0.0
 11
-148.840678898
 21
-728.6328854986
 31
0.0
  0
LINE
  5
3B6
330
1F
100
AcDbEntity
  8
0
  6
Continuous
 62
     8
370
    15
100
AcDbLine
 10
-150.6207120095
 20
-726.7500427567
 30
0.0
 11
-176.02468845
 21
-726.7500427567
 31
0.0
  0
LINE
  5
3B7
330
1F
100
AcDbEntity
  8
0
  6
Continuous
 62
     8
370
    15
100
AcDbLine
 10
-150.6207120095
 20
-726.7500427567
 30
0.0
 11
-149.9075424348
 21
-726.7500427567
 31
0.0
  0
ENDSEC
  0
SECTION
  2
OBJECTS
  0
DICTIONARY
  5
C
330
0
100
AcDbDictionary
281
     1
  3
ACAD_GROUP
350
D
  3
ACAD_LAYOUT
350
1A
  3
ACAD_MLEADERSTYLE
350
3BA
  3
ACAD_MLINESTYLE
350
17
  3
ACAD_PLOTSETTINGS
350
19
  3
ACAD_PLOTSTYLENAME
350
E
  3
ACAD_VISUALSTYLE
350
2A
  3
AcDbVariableDictionary
350
3B8
  0
DICTIONARY
  5
D
102
{ACAD_REACTORS
330
C
102
}
330
C
100
AcDbDictionary
281
     1
  0
DICTIONARY
  5
1A
102
{ACAD_REACTORS
330
C
102
}
330
C
100
AcDbDictionary
281
     1
  3
Layout1
350
1E
  3
Layout2
350
26
  3
Model
350
22
  0
DICTIONARY
  5
3BA
102
{ACAD_REACTORS
330
C
102
}
330
C
100
AcDbDictionary
281
     1
  0
DICTIONARY
  5
17
102
{ACAD_REACTORS
330
C
102
}
330
C
100
AcDbDictionary
281
     1
  3
Standard
350
18
  0
DICTIONARY
  5
19
102
{ACAD_REACTORS
330
C
102
}
330
C
100
AcDbDictionary
281
     1
  0
ACDBDICTIONARYWDFLT
  5
E
102
{ACAD_REACTORS
330
C
102
}
330
C
100
AcDbDictionary
281
     1
  3
Normal
350
F
100
AcDbDictionaryWithDefault
340
F
  0
DICTIONARY
  5
2A
102
{ACAD_REACTORS
330
C
102
}
330
C
100
AcDbDictionary
281
     1
  3
2dWireframe
350
2F
  3
3D Hidden
350
31
  3
3dWireframe
350
30
  3
Basic
350
32
  3
Brighten
350
36
  3
ColorChange
350
3A
  3
Conceptual
350
34
  3
Dim
350
35
  3
Facepattern
350
39
  3
Flat
350
2B
  3
FlatWithEdges
350
2C
  3
Gouraud
350
2D
  3
GouraudWithEdges
350
2E
  3
Linepattern
350
38
  3
Realistic
350
33
  3
Thicken
350
37
  0
DICTIONARY
  5
3B8
102
{ACAD_REACTORS
330
C
102
}
330
C
100
AcDbDictionary
281
     1
  3
DIMASSOC
350
3BD
  3
HIDETEXT
350
3BE
  3
PSOLHEIGHT
350
3BC
  3
PSOLWIDTH
350
3BB
  0
LAYOUT
  5
1E
102
{ACAD_REACTORS
330
1A
102
}
330
1A
100
AcDbPlotSettings
  1

  2
none_device
  4

  6

 40
0.0
 41
0.0
 42
0.0
 43
0.0
 44
0.0
 45
0.0
 46
0.0
 47
0.0
 48
0.0
 49
0.0
140
0.0
141
0.0
142
1.0
143
1.0
 70
   688
 72
     0
 73
     0
 74
     5
  7

 75
    16
147
1.0
148
0.0
149
0.0
100
AcDbLayout
  1
Layout1
 70
     1
 71
     1
 10
0.0
 20
0.0
 11
420.0
 21
297.0
 12
0.0
 22
0.0
 32
0.0
 14
1.0000000000E+20
 24
1.0000000000E+20
 34
1.0000000000E+20
 15
-1.0000000000E+20
 25
-1.0000000000E+20
 35
-1.0000000000E+20
146
0.0
 13
0.0
 23
0.0
 33
0.0
 16
1.0
 26
0.0
 36
0.0
 17
0.0
 27
1.0
 37
0.0
 76
     0
330
1B
  0
LAYOUT
  5
26
102
{ACAD_REACTORS
330
1A
102
}
330
1A
100
AcDbPlotSettings
  1

  2
none_device
  4

  6

 40
0.0
 41
0.0
 42
0.0
 43
0.0
 44
0.0
 45
0.0
 46
0.0
 47
0.0
 48
0.0
 49
0.0
140
0.0
141
0.0
142
1.0
143
1.0
 70
   688
 72
     0
 73
     0
 74
     5
  7

 75
    16
147
1.0
148
0.0
149
0.0
100
AcDbLayout
  1
Layout2
 70
     1
 71
     2
 10
0.0
 20
0.0
 11
0.0
 21
0.0
 12
0.0
 22
0.0
 32
0.0
 14
0.0
 24
0.0
 34
0.0
 15
0.0
 25
0.0
 35
0.0
146
0.0
 13
0.0
 23
0.0
 33
0.0
 16
1.0
 26
0.0
 36
0.0
 17
0.0
 27
1.0
 37
0.0
 76
     0
330
23
  0
LAYOUT
  5
22
102
{ACAD_REACTORS
330
1A
102
}
330
1A
100
AcDbPlotSettings
  1

  2
none_device
  4

  6

 40
0.0
 41
0.0
 42
0.0
 43
0.0
 44
0.0
 45
0.0
 46
0.0
 47
0.0
 48
0.0
 49
0.0
140
0.0
141
0.0
142
1.0
143
1.0
 70
  1712
 72
     0
 73
     0
 74
     0
  7

 75
     0
147
1.0
148
0.0
149
0.0
100
AcDbLayout
  1
Model
 70
     1
 71
     0
 10
0.0
 20
0.0
 11
841.0
 21
594.0
 12
0.0
 22
0.0
 32
0.0
 14
0.0
 24
0.0
 34
0.0
 15
841.0
 25
594.0
 35
0.0
146
0.0
 13
0.0
 23
0.0
 33
0.0
 16
1.0
 26
0.0
 36
0.0
 17
0.0
 27
1.0
 37
0.0
 76
     0
330
1F
331
29
  0
MLINESTYLE
  5
18
102
{ACAD_REACTORS
330
17
102
}
330
17
100
AcDbMlineStyle
  2
Standard
 70
     0
  3

 62
   256
 51
90.0
 52
90.0
 71
     2
 49
0.5
 62
   256
  6
BYLAYER
 49
-0.5
 62
   256
  6
BYLAYER
  0
ACDBPLACEHOLDER
  5
F
102
{ACAD_REACTORS
330
E
102
}
330
E
  0
VISUALSTYLE
  5
2F
102
{ACAD_REACTORS
330
2A
102
}
330
2A
100
AcDbVisualStyle
  2
2dWireframe
 70
     4
 71
     0
 72
     2
 73
     0
 90
        0
 40
-0.6
 41
-30.0
 62
     5
 63
     7
 74
     1
 91
        4
 64
     7
 65
   257
 75
     1
175
     1
 42
1.0
 92
        0
 66
   257
 43
1.0
 76
     1
 77
     6
 78
     2
 67
     7
 79
     5
170
     0
171
     0
290
     0
174
     0
 93
        1
 44
0.0
173
     0
291
     0
 45
0.0
1001
ACAD
1000
AcDbSavedByObjectVersion
1070
     0
  0
VISUALSTYLE
  5
31
102
{ACAD_REACTORS
330
2A
102
}
330
2A
100
AcDbVisualStyle
  2
3D Hidden
 70
     6
 71
     1
 72
     2
 73
     2
 90
        0
 40
-0.6
 41
-30.0
 62
     5
 63
     7
 74
     2
 91
        2
 64
     7
 65
   257
 75
     2
175
     1
 42
40.0
 92
        0
 66
   257
 43
1.0
 76
     1
 77
     6
 78
     2
 67
     7
 79
     3
170
     0
171
     0
290
     0
174
     0
 93
        1
 44
0.0
173
     0
291
     0
 45
0.0
1001
ACAD
1000
AcDbSavedByObjectVersion
1070
     0
  0
VISUALSTYLE
  5
30
102
{ACAD_REACTORS
330
2A
102
}
330
2A
100
AcDbVisualStyle
  2
3dWireframe
 70
     5
 71
     0
 72
     2
 73
     0
 90
        0
 40
-0.6
 41
-30.0
 62
     5
 63
     7
 74
     1
 91
        4
 64
     7
 65
   257
 75
     1
175
     1
 42
1.0
 92
        0
 66
   257
 43
1.0
 76
     1
 77
     6
 78
     2
 67
     7
 79
     5
170
     0
171
     0
290
     0
174
     0
 93
        1
 44
0.0
173
     0
291
     0
 45
0.0
1001
ACAD
1000
AcDbSavedByObjectVersion
1070
     0
  0
VISUALSTYLE
  5
32
102
{ACAD_REACTORS
330
2A
102
}
330
2A
100
AcDbVisualStyle
  2
Basic
 70
     7
 71
     1
 72
     0
 73
     1
 90
        0
 40
-0.6
 41
-30.0
 62
     5
 63
     7
 74
     0
 91
        4
 64
     7
 65
   257
 75
     1
175
     1
 42
1.0
 92
        8
 66
     7
 43
1.0
 76
     1
 77
     6
 78
     2
 67
     7
 79
     5
170
     0
171
     0
290
     0
174
     0
 93
        1
 44
0.0
173
     0
291
     1
 45
0.0
1001
ACAD
1000
AcDbSavedByObjectVersion
1070
     0
  0
VISUALSTYLE
  5
36
102
{ACAD_REACTORS
330
2A
102
}
330
2A
100
AcDbVisualStyle
  2
Brighten
 70
    12
 71
     2
 72
     2
 73
     0
 90
        0
 40
-0.6
 41
-30.0
 62
     5
 63
     7
 74
     1
 91
        4
 64
     7
 65
   257
 75
     1
175
     1
 42
1.0
 92
        8
 66
     7
 43
1.0
 76
     1
 77
     6
 78
     2
 67
     7
 79
     5
170
     0
171
     0
290
     0
174
     0
 93
        1
 44
50.0
173
     0
291
     1
 45
0.0
1001
ACAD
1000
AcDbSavedByObjectVersion
1070
     0
  0
VISUALSTYLE
  5
3A
102
{ACAD_REACTORS
330
2A
102
}
330
2A
100
AcDbVisualStyle
  2
ColorChange
 70
    16
 71
     2
 72
     2
 73
     3
 90
        0
 40
-0.6
 41
-30.0
 62
     5
 63
     8
 74
     1
 91
        4
 64
     7
 65
   257
 75
     1
175
     1
 42
1.0
 92
        8
 66
     8
 43
1.0
 76
     1
 77
     6
 78
     2
 67
     7
 79
     5
170
     0
171
     0
290
     0
174
     0
 93
        1
 44
0.0
173
     0
291
     1
 45
0.0
1001
ACAD
1000
AcDbSavedByObjectVersion
1070
     0
  0
VISUALSTYLE
  5
34
102
{ACAD_REACTORS
330
2A
102
}
330
2A
100
AcDbVisualStyle
  2
Conceptual
 70
     9
 71
     3
 72
     2
 73
     0
 90
        0
 40
-0.6
 41
-30.0
 62
     5
 63
     7
 74
     2
 91
        2
 64
     7
 65
   257
 75
     1
175
     1
 42
40.0
 92
        8
 66
     7
 43
1.0
 76
     1
 77
     6
 78
     2
 67
     7
 79
     3
170
     0
171
     0
290
     0
174
     0
 93
        1
 44
0.0
173
     0
291
     0
 45
0.0
1001
ACAD
1000
AcDbSavedByObjectVersion
1070
     0
  0
VISUALSTYLE
  5
35
102
{ACAD_REACTORS
330
2A
102
}
330
2A
100
AcDbVisualStyle
  2
Dim
 70
    11
 71
     2
 72
     2
 73
     0
 90
        0
 40
-0.6
 41
-30.0
 62
     5
 63
     7
 74
     1
 91
        4
 64
     7
 65
   257
 75
     1
175
     1
 42
1.0
 92
        8
 66
     7
 43
1.0
 76
     1
 77
     6
 78
     2
 67
     7
 79
     5
170
     0
171
     0
290
     0
174
     0
 93
        1
 44
-50.0
173
     0
291
     1
 45
0.0
1001
ACAD
1000
AcDbSavedByObjectVersion
1070
     0
  0
VISUALSTYLE
  5
39
102
{ACAD_REACTORS
330
2A
102
}
330
2A
100
AcDbVisualStyle
  2
Facepattern
 70
    15
 71
     2
 72
     2
 73
     0
 90
        0
 40
-0.6
 41
-30.0
 62
     5
 63
     7
 74
     1
 91
        4
 64
     7
 65
   257
 75
     1
175
     1
 42
1.0
 92
        8
 66
     7
 43
1.0
 76
     1
 77
     6
 78
     2
 67
     7
 79
     5
170
     0
171
     0
290
     0
174
     0
 93
        1
 44
0.0
173
     0
291
     1
 45
0.0
1001
ACAD
1000
AcDbSavedByObjectVersion
1070
     0
  0
VISUALSTYLE
  5
2B
102
{ACAD_REACTORS
330
2A
102
}
330
2A
100
AcDbVisualStyle
  2
Flat
 70
     0
 71
     2
 72
     1
 73
     1
 90
        2
 40
-0.6
 41
30.0
 62
     5
 63
     7
 74
     0
 91
        4
 64
     7
 65
   257
 75
     1
175
     1
 42
1.0
 92
        8
 66
     7
 43
1.0
 76
     1
 77
     6
 78
     2
 67
     7
 79
     5
170
     0
171
     0
290
     0
174
     0
 93
       13
 44
0.0
173
     0
291
     1
 45
0.0
1001
ACAD
1000
AcDbSavedByObjectVersion
1070
     0
  0
VISUALSTYLE
  5
2C
102
{ACAD_REACTORS
330
2A
102
}
330
2A
100
AcDbVisualStyle
  2
FlatWithEdges
 70
     1
 71
     2
 72
     1
 73
     1
 90
        2
 40
-0.6
 41
30.0
 62
     5
 63
     7
 74
     1
 91
        4
 64
     7
 65
   257
 75
     1
175
     1
 42
1.0
 92
        0
 66
   257
 43
1.0
 76
     1
 77
     6
 78
     2
 67
     7
 79
     5
170
     0
171
     0
290
     0
174
     0
 93
       13
 44
0.0
173
     0
291
     1
 45
0.0
1001
ACAD
1000
AcDbSavedByObjectVersion
1070
     0
  0
VISUALSTYLE
  5
2D
102
{ACAD_REACTORS
330
2A
102
}
330
2A
100
AcDbVisualStyle
  2
Gouraud
 70
     2
 71
     2
 72
     2
 73
     1
 90
        2
 40
-0.6
 41
30.0
 62
     5
 63
     7
 74
     0
 91
        4
 64
     7
 65
   257
 75
     1
175
     1
 42
1.0
 92
        0
 66
     7
 43
1.0
 76
     1
 77
     6
 78
     2
 67
     7
 79
     5
170
     0
171
     0
290
     0
174
     0
 93
       13
 44
0.0
173
     0
291
     1
 45
0.0
1001
ACAD
1000
AcDbSavedByObjectVersion
1070
     0
  0
VISUALSTYLE
  5
2E
102
{ACAD_REACTORS
330
2A
102
}
330
2A
100
AcDbVisualStyle
  2
GouraudWithEdges
 70
     3
 71
     2
 72
     2
 73
     1
 90
        2
 40
-0.6
 41
30.0
 62
     5
 63
     7
 74
     1
 91
        4
 64
     7
 65
   257
 75
     1
175
     1
 42
1.0
 92
        0
 66
   257
 43
1.0
 76
     1
 77
     6
 78
     2
 67
     7
 79
     5
170
     0
171
     0
290
     0
174
     0
 93
       13
 44
0.0
173
     0
291
     1
 45
0.0
1001
ACAD
1000
AcDbSavedByObjectVersion
1070
     0
  0
VISUALSTYLE
  5
38
102
{ACAD_REACTORS
330
2A
102
}
330
2A
100
AcDbVisualStyle
  2
Linepattern
 70
    14
 71
     2
 72
     2
 73
     0
 90
        0
 40
-0.6
 41
-30.0
 62
     5
 63
     7
 74
     1
 91
        4
 64
     7
 65
   257
 75
     7
175
     7
 42
1.0
 92
        8
 66
     7
 43
1.0
 76
     1
 77
     6
 78
     2
 67
     7
 79
     5
170
     0
171
     0
290
     0
174
     0
 93
        1
 44
0.0
173
     0
291
     1
 45
0.0
1001
ACAD
1000
AcDbSavedByObjectVersion
1070
     0
  0
VISUALSTYLE
  5
33
102
{ACAD_REACTORS
330
2A
102
}
330
2A
100
AcDbVisualStyle
  2
Realistic
 70
     8
 71
     2
 72
     2
 73
     0
 90
        0
 40
-0.6
 41
-30.0
 62
     5
 63
     7
 74
     1
 91
        0
 64
     7
 65
   257
 75
     1
175
     1
 42
1.0
 92
        8
 66
     8
 43
1.0
 76
     1
 77
     6
 78
     2
 67
     7
 79
     5
170
     0
171
     0
290
     0
174
     0
 93
       13
 44
0.0
173
     0
291
     0
 45
0.0
1001
ACAD
1000
AcDbSavedByObjectVersion
1070
     0
  0
VISUALSTYLE
  5
37
102
{ACAD_REACTORS
330
2A
102
}
330
2A
100
AcDbVisualStyle
  2
Thicken
 70
    13
 71
     2
 72
     2
 73
     0
 90
        0
 40
-0.6
 41
-30.0
 62
     5
 63
     7
 74
     1
 91
        4
 64
     7
 65
   257
 75
     1
175
     1
 42
1.0
 92
       12
 66
     7
 43
1.0
 76
     1
 77
     6
 78
     2
 67
     7
 79
     5
170
     0
171
     0
290
     0
174
     0
 93
        1
 44
0.0
173
     0
291
     1
 45
0.0
1001
ACAD
1000
AcDbSavedByObjectVersion
1070
     0
  0
DICTIONARYVAR
  5
3BD
102
{ACAD_REACTORS
330
3B8
102
}
330
3B8
100
DictionaryVariables
280
     0
  1
2
  0
DICTIONARYVAR
  5
3BE
102
{ACAD_REACTORS
330
3B8
102
}
330
3B8
100
DictionaryVariables
280
     0
  1
1
  0
DICTIONARYVAR
  5
3BC
102
{ACAD_REACTORS
330
3B8
102
}
330
3B8
100
DictionaryVariables
280
     0
  1
80.000000
  0
DICTIONARYVAR
  5
3BB
102
{ACAD_REACTORS
330
3B8
102
}
330
3B8
100
DictionaryVariables
280
     0
  1
5.000000
  0
ENDSEC
  0
EOF
