  0
SECTION
  2
HEADER
  9
$ACADVER
  1
AC1015
  9
$ACADMAINTVER
 70
     6
  9
$DWGCODEPAGE
  3
ANSI_1252
  9
$INSBASE
 10
0.0
 20
0.0
 30
0.0
  9
$EXTMIN
 10
0.0
 20
0.0
 30
0.0
  9
$EXTMAX
 10
841.0
 20
594.0
 30
0.0
  9
$LIMMIN
 10
0.0
 20
0.0
  9
$LIMMAX
 10
841.0
 20
594.0
  9
$ORTHOMODE
 70
     0
  9
$REGENMODE
 70
     1
  9
$FILLMODE
 70
     1
  9
$QTEXTMODE
 70
     0
  9
$MIRRTEXT
 70
     1
  9
$LTSCALE
 40
1.0
  9
$ATTMODE
 70
     1
  9
$TEXTSIZE
 40
3.5
  9
$TRACEWID
 40
1.0
  9
$TEXTSTYLE
  7
Standard
  9
$CLAYER
  8
0
  9
$CELTYPE
  6
ByLayer
  9
$CECOLOR
 62
   256
  9
$CELTSCALE
 40
1.0
  9
$DISPSILH
 70
     0
  9
$DIMSCALE
 40
1.0
  9
$DIMASZ
 40
6.0
  9
$DIMEXO
 40
1.0
  9
$DIMDLI
 40
3.75
  9
$DIMRND
 40
0.0
  9
$DIMDLE
 40
0.0
  9
$DIMEXE
 40
1.0
  9
$DIMTP
 40
0.0
  9
$DIMTM
 40
0.0
  9
$DIMTXT
 40
3.5
  9
$DIMCEN
 40
2.5
  9
$DIMTSZ
 40
0.0
  9
$DIMTOL
 70
     0
  9
$DIMLIM
 70
     0
  9
$DIMTIH
 70
     1
  9
$DIMTOH
 70
     1
  9
$DIMSE1
 70
     0
  9
$DIMSE2
 70
     0
  9
$DIMTAD
 70
     1
  9
$DIMZIN
 70
     0
  9
$DIMBLK
  1

  9
$DIMASO
 70
     1
  9
$DIMSHO
 70
     1
  9
$DIMPOST
  1

  9
$DIMAPOST
  1

  9
$DIMALT
 70
     0
  9
$DIMALTD
 70
     3
  9
$DIMALTF
 40
0.0393700787
  9
$DIMLFAC
 40
1.0
  9
$DIMTOFL
 70
     1
  9
$DIMTVP
 40
0.0
  9
$DIMTIX
 70
     0
  9
$DIMSOXD
 70
     0
  9
$DIMSAH
 70
     0
  9
$DIMBLK1
  1

  9
$DIMBLK2
  1

  9
$DIMSTYLE
  2
ISO-25
  9
$DIMCLRD
 70
     0
  9
$DIMCLRE
 70
     0
  9
$DIMCLRT
 70
     0
  9
$DIMTFAC
 40
1.0
  9
$DIMGAP
 40
1.524
  9
$DIMJUST
 70
     0
  9
$DIMSD1
 70
     0
  9
$DIMSD2
 70
     0
  9
$DIMTOLJ
 70
     0
  9
$DIMTZIN
 70
     0
  9
$DIMALTZ
 70
     0
  9
$DIMALTTZ
 70
     0
  9
$DIMUPT
 70
     0
  9
$DIMDEC
 70
     3
  9
$DIMTDEC
 70
     3
  9
$DIMALTU
 70
     2
  9
$DIMALTTD
 70
     3
  9
$DIMTXSTY
  7
Standard
  9
$DIMAUNIT
 70
     0
  9
$DIMADEC
 70
     2
  9
$DIMALTRND
 40
0.0
  9
$DIMAZIN
 70
     0
  9
$DIMDSEP
 70
    44
  9
$DIMATFIT
 70
     3
  9
$DIMFRAC
 70
     0
  9
$DIMLDRBLK
  1

  9
$DIMLUNIT
 70
     2
  9
$DIMLWD
 70
    -2
  9
$DIMLWE
 70
    -2
  9
$DIMTMOVE
 70
     0
  9
$LUNITS
 70
     2
  9
$LUPREC
 70
     2
  9
$SKETCHINC
 40
1.0
  9
$FILLETRAD
 40
10.0
  9
$AUNITS
 70
     0
  9
$AUPREC
 70
     2
  9
$MENU
  1
.
  9
$ELEVATION
 40
0.0
  9
$PELEVATION
 40
0.0
  9
$THICKNESS
 40
0.0
  9
$LIMCHECK
 70
     0
  9
$CHAMFERA
 40
10.0
  9
$CHAMFERB
 40
10.0
  9
$CHAMFERC
 40
20.0
  9
$CHAMFERD
 40
0.0
  9
$SKPOLY
 70
     0
  9
$TDCREATE
 40
2455413.439202049
  9
$TDUCREATE
 40
2455413.355868715
  9
$TDUPDATE
 40
2455413.43920206
  9
$TDUUPDATE
 40
2455413.355868727
  9
$TDINDWG
 40
0.0000000116
  9
$TDUSRTIMER
 40
0.0000000116
  9
$USRTIMER
 70
     1
  9
$ANGBASE
 50
0.0
  9
$ANGDIR
 70
     0
  9
$PDMODE
 70
     0
  9
$PDSIZE
 40
-1.0
  9
$PLINEWID
 40
0.0
  9
$SPLFRAME
 70
     0
  9
$SPLINETYPE
 70
     6
  9
$SPLINESEGS
 70
     8
  9
$HANDSEED
  5
3DF
  9
$SURFTAB1
 70
     6
  9
$SURFTAB2
 70
     6
  9
$SURFTYPE
 70
     6
  9
$SURFU
 70
     6
  9
$SURFV
 70
     6
  9
$UCSBASE
  2

  9
$UCSNAME
  2

  9
$UCSORG
 10
0.0
 20
0.0
 30
0.0
  9
$UCSXDIR
 10
1.0
 20
0.0
 30
0.0
  9
$UCSYDIR
 10
0.0
 20
1.0
 30
0.0
  9
$UCSORTHOREF
  2

  9
$UCSORTHOVIEW
 70
     0
  9
$UCSORGTOP
 10
0.0
 20
0.0
 30
0.0
  9
$UCSORGBOTTOM
 10
0.0
 20
0.0
 30
0.0
  9
$UCSORGLEFT
 10
0.0
 20
0.0
 30
0.0
  9
$UCSORGRIGHT
 10
0.0
 20
0.0
 30
0.0
  9
$UCSORGFRONT
 10
0.0
 20
0.0
 30
0.0
  9
$UCSORGBACK
 10
0.0
 20
0.0
 30
0.0
  9
$PUCSBASE
  2

  9
$PUCSNAME
  2

  9
$PUCSORG
 10
0.0
 20
0.0
 30
0.0
  9
$PUCSXDIR
 10
1.0
 20
0.0
 30
0.0
  9
$PUCSYDIR
 10
0.0
 20
1.0
 30
0.0
  9
$PUCSORTHOREF
  2

  9
$PUCSORTHOVIEW
 70
     0
  9
$PUCSORGTOP
 10
0.0
 20
0.0
 30
0.0
  9
$PUCSORGBOTTOM
 10
0.0
 20
0.0
 30
0.0
  9
$PUCSORGLEFT
 10
0.0
 20
0.0
 30
0.0
  9
$PUCSORGRIGHT
 10
0.0
 20
0.0
 30
0.0
  9
$PUCSORGFRONT
 10
0.0
 20
0.0
 30
0.0
  9
$PUCSORGBACK
 10
0.0
 20
0.0
 30
0.0
  9
$USERI1
 70
     0
  9
$USERI2
 70
     0
  9
$USERI3
 70
     0
  9
$USERI4
 70
     0
  9
$USERI5
 70
     0
  9
$USERR1
 40
0.0
  9
$USERR2
 40
0.0
  9
$USERR3
 40
0.0
  9
$USERR4
 40
0.0
  9
$USERR5
 40
0.0
  9
$WORLDVIEW
 70
     1
  9
$SHADEDGE
 70
     3
  9
$SHADEDIF
 70
    70
  9
$TILEMODE
 70
     1
  9
$MAXACTVP
 70
    64
  9
$PINSBASE
 10
0.0
 20
0.0
 30
0.0
  9
$PLIMCHECK
 70
     0
  9
$PEXTMIN
 10
1.0000000000E+20
 20
1.0000000000E+20
 30
1.0000000000E+20
  9
$PEXTMAX
 10
-1.0000000000E+20
 20
-1.0000000000E+20
 30
-1.0000000000E+20
  9
$PLIMMIN
 10
0.0
 20
0.0
  9
$PLIMMAX
 10
420.0
 20
297.0
  9
$UNITMODE
 70
     0
  9
$VISRETAIN
 70
     1
  9
$PLINEGEN
 70
     0
  9
$PSLTSCALE
 70
     1
  9
$TREEDEPTH
 70
  3020
  9
$CMLSTYLE
  2
Standard
  9
$CMLJUST
 70
     0
  9
$CMLSCALE
 40
20.0
  9
$PROXYGRAPHICS
 70
     1
  9
$MEASUREMENT
 70
     1
  9
$CELWEIGHT
370
    -1
  9
$ENDCAPS
280
     0
  9
$JOINSTYLE
280
     0
  9
$LWDISPLAY
290
     1
  9
$INSUNITS
 70
     4
  9
$HYPERLINKBASE
  1

  9
$STYLESHEET
  1

  9
$XEDIT
290
     1
  9
$CEPSNTYPE
380
     0
  9
$PSTYLEMODE
290
     1
  9
$FINGERPRINTGUID
  2
{285C7414-536D-4AF4-9352-38FAF90B4746}
  9
$VERSIONGUID
  2
{FAEB1C32-E019-11D5-929B-00C0DF256EC4}
  9
$EXTNAMES
290
     1
  9
$PSVPSCALE
 40
0.0
  9
$OLESTARTUP
290
     0
  0
ENDSEC
  0
SECTION
  2
CLASSES
  0
CLASS
  1
ACDBDICTIONARYWDFLT
  2
AcDbDictionaryWithDefault
  3
ObjectDBX Classes
 90
        0
280
     0
281
     0
  0
CLASS
  1
VISUALSTYLE
  2
AcDbVisualStyle
  3
ObjectDBX Classes
 90
     4095
280
     0
281
     0
  0
CLASS
  1
DICTIONARYVAR
  2
AcDbDictionaryVar
  3
ObjectDBX Classes
 90
        0
280
     0
281
     0
  0
CLASS
  1
ACDBPLACEHOLDER
  2
AcDbPlaceHolder
  3
ObjectDBX Classes
 90
        0
280
     0
281
     0
  0
CLASS
  1
LAYOUT
  2
AcDbLayout
  3
ObjectDBX Classes
 90
        0
280
     0
281
     0
  0
ENDSEC
  0
SECTION
  2
TABLES
  0
TABLE
  2
VPORT
  5
8
330
0
100
AcDbSymbolTable
 70
     1
  0
VPORT
  5
29
330
8
100
AcDbSymbolTableRecord
100
AcDbViewportTableRecord
  2
*Active
 70
     0
 10
0.0
 20
0.0
 11
1.0
 21
1.0
 12
420.5
 22
297.0
 13
0.0
 23
0.0
 14
10.0
 24
10.0
 15
10.0
 25
10.0
 16
0.0
 26
0.0
 36
1.0
 17
0.0
 27
0.0
 37
0.0
 40
594.0
 41
1.4158249158
 42
50.0
 43
0.0
 44
0.0
 50
0.0
 51
0.0
 71
     0
 72
  2000
 73
     1
 74
     3
 75
     0
 76
     0
 77
     0
 78
     0
281
     0
 65
     1
110
0.0
120
0.0
130
0.0
111
1.0
121
0.0
131
0.0
112
0.0
122
1.0
132
0.0
 79
     0
146
0.0
  0
ENDTAB
  0
TABLE
  2
LTYPE
  5
5
330
0
100
AcDbSymbolTable
 70
     6
  0
LTYPE
  5
14
330
5
100
AcDbSymbolTableRecord
100
AcDbLinetypeTableRecord
  2
ByBlock
 70
     0
  3

 72
    65
 73
     0
 40
0.0
  0
LTYPE
  5
15
330
5
100
AcDbSymbolTableRecord
100
AcDbLinetypeTableRecord
  2
ByLayer
 70
     0
  3

 72
    65
 73
     0
 40
0.0
  0
LTYPE
  5
16
330
5
100
AcDbSymbolTableRecord
100
AcDbLinetypeTableRecord
  2
Continuous
 70
     0
  3
Solid line
 72
    65
 73
     0
 40
0.0
  0
LTYPE
  5
3B
330
5
100
AcDbSymbolTableRecord
100
AcDbLinetypeTableRecord
  2
HIDDEN
 70
     0
  3
Hidden __ __ __ __ __ __ __ __ __ __ __ __ __ __
 72
    65
 73
     2
 40
1.905
 49
1.27
 74
     0
 49
-0.635
 74
     0
  0
LTYPE
  5
3C
330
5
100
AcDbSymbolTableRecord
100
AcDbLinetypeTableRecord
  2
PHANTOM
 70
     0
  3
Phantom ______  __  __  ______  __  __  ______
 72
    65
 73
     6
 40
12.7
 49
6.35
 74
     0
 49
-1.27
 74
     0
 49
1.27
 74
     0
 49
-1.27
 74
     0
 49
1.27
 74
     0
 49
-1.27
 74
     0
  0
LTYPE
  5
3D
330
5
100
AcDbSymbolTableRecord
100
AcDbLinetypeTableRecord
  2
CENTER
 70
     0
  3
Center ____ _ ____ _ ____ _ ____ _ ____ _ ____
 72
    65
 73
     4
 40
10.16
 49
6.35
 74
     0
 49
-1.27
 74
     0
 49
1.27
 74
     0
 49
-1.27
 74
     0
  0
LTYPE
  5
3E
330
5
100
AcDbSymbolTableRecord
100
AcDbLinetypeTableRecord
  2
CENTERX2
 70
     0
  3
Center (2x) ________  __  ________  __  _____
 72
    65
 73
     4
 40
20.32
 49
12.7
 74
     0
 49
-2.54
 74
     0
 49
2.54
 74
     0
 49
-2.54
 74
     0
  0
LTYPE
  5
3F
330
5
100
AcDbSymbolTableRecord
100
AcDbLinetypeTableRecord
  2
DOT2
 70
     0
  3
Dot (.5x) ........................................
 72
    65
 73
     2
 40
0.635
 49
0.0
 74
     0
 49
-0.635
 74
     0
  0
ENDTAB
  0
TABLE
  2
LAYER
  5
2
330
0
100
AcDbSymbolTable
 70
     1
  0
LAYER
  5
10
330
2
100
AcDbSymbolTableRecord
100
AcDbLayerTableRecord
  2
0
 70
     0
 62
     7
  6
Continuous
370
    -3
390
F
  0
ENDTAB
  0
TABLE
  2
STYLE
  5
3
330
0
100
AcDbSymbolTable
 70
     1
  0
STYLE
  5
11
330
3
100
AcDbSymbolTableRecord
100
AcDbTextStyleTableRecord
  2
Standard
 70
     0
 40
0.0
 41
1.0
 50
0.0
 71
     0
 42
2.5
  3
txt
  4

  0
ENDTAB
  0
TABLE
  2
VIEW
  5
6
330
0
100
AcDbSymbolTable
 70
     0
  0
ENDTAB
  0
TABLE
  2
UCS
  5
7
330
0
100
AcDbSymbolTable
 70
     0
  0
ENDTAB
  0
TABLE
  2
APPID
  5
9
330
0
100
AcDbSymbolTable
 70
     1
  0
APPID
  5
12
330
9
100
AcDbSymbolTableRecord
100
AcDbRegAppTableRecord
  2
ACAD
 70
     0
  0
ENDTAB
  0
TABLE
  2
DIMSTYLE
  5
A
330
0
100
AcDbSymbolTable
 70
     1
100
AcDbDimStyleTable
  0
DIMSTYLE
105
27
330
A
100
AcDbSymbolTableRecord
100
AcDbDimStyleTableRecord
  2
ISO-25
 70
     0
 41
2.5
 42
0.625
 43
3.75
 44
1.25
 73
     0
 74
     0
 77
     1
 78
     8
140
2.5
141
2.5
143
0.0393700787
147
0.625
171
     3
172
     1
271
     2
272
     2
274
     3
278
    44
283
     0
284
     8
340
11
  0
ENDTAB
  0
TABLE
  2
BLOCK_RECORD
  5
1
330
0
100
AcDbSymbolTable
 70
     1
  0
BLOCK_RECORD
  5
1F
330
1
100
AcDbSymbolTableRecord
100
AcDbBlockTableRecord
  2
*Model_Space
340
22
  0
BLOCK_RECORD
  5
1B
330
1
100
AcDbSymbolTableRecord
100
AcDbBlockTableRecord
  2
*Paper_Space
340
1E
  0
BLOCK_RECORD
  5
23
330
1
100
AcDbSymbolTableRecord
100
AcDbBlockTableRecord
  2
*Paper_Space0
340
26
  0
ENDTAB
  0
ENDSEC
  0
SECTION
  2
BLOCKS
  0
BLOCK
  5
20
330
1F
100
AcDbEntity
  8
0
100
AcDbBlockBegin
  2
*Model_Space
 70
     0
 10
0.0
 20
0.0
 30
0.0
  3
*Model_Space
  1

  0
ENDBLK
  5
21
330
1F
100
AcDbEntity
  8
0
100
AcDbBlockEnd
  0
BLOCK
  5
1C
330
1B
100
AcDbEntity
 67
     1
  8
0
100
AcDbBlockBegin
  2
*Paper_Space
 70
     0
 10
0.0
 20
0.0
 30
0.0
  3
*Paper_Space
  1

  0
ENDBLK
  5
1D
330
1B
100
AcDbEntity
 67
     1
  8
0
100
AcDbBlockEnd
  0
BLOCK
  5
24
330
23
100
AcDbEntity
  8
0
100
AcDbBlockBegin
  2
*Paper_Space0
 70
     0
 10
0.0
 20
0.0
 30
0.0
  3
*Paper_Space0
  1

  0
ENDBLK
  5
25
330
23
100
AcDbEntity
  8
0
100
AcDbBlockEnd
  0
ENDSEC
  0
SECTION
  2
ENTITIES
  0
LINE
  5
40
330
1F
100
AcDbEntity
  8
0
  6
CENTERX2
 62
     7
100
AcDbLine
 10
-944.4914634146
 20
1479.2996674438
 30
0.0
 11
-944.4764481658
 21
1266.0166974363
 31
0.0
  0
LINE
  5
41
330
1F
100
AcDbEntity
  8
0
  6
CENTERX2
 62
     7
100
AcDbLine
 10
-244.4914634146
 20
1479.2996674438
 30
0.0
 11
-244.4764481658
 21
1266.0166974363
 31
0.0
  0
LINE
  5
42
330
1F
100
AcDbEntity
  8
0
  6
Continuous
 62
     7
370
    15
100
AcDbLine
 10
1497.5085918985
 20
1453.1996688505
 30
0.0
 11
1449.1210644327
 21
1453.1996688505
 31
0.0
  0
LINE
  5
43
330
1F
100
AcDbEntity
  8
0
  6
Continuous
 62
     7
370
    15
100
AcDbLine
 10
1417.8960983835
 20
1453.1996688505
 30
0.0
 11
-229.4914657988
 21
1453.1996688505
 31
0.0
  0
LINE
  5
44
330
1F
100
AcDbEntity
  8
0
  6
Continuous
 62
     7
370
    15
100
AcDbLine
 10
-259.4914371886
 20
1453.1996688505
 30
0.0
 11
-929.4914613285
 21
1453.1996688505
 31
0.0
  0
LINE
  5
45
330
1F
100
AcDbEntity
  8
0
  6
Continuous
 62
     7
370
    15
100
AcDbLine
 10
-959.4914625206
 20
1453.1996688505
 30
0.0
 11
-962.8789658465
 21
1453.1996688505
 31
0.0
  0
LINE
  5
46
330
1F
100
AcDbEntity
  8
0
  6
Continuous
 62
     7
370
    15
100
AcDbLine
 10
-994.1039579727
 20
1453.1996688505
 30
0.0
 11
-1042.4914633196
 21
1453.1996688505
 31
0.0
  0
LINE
  5
47
330
1F
100
AcDbEntity
  8
0
  6
Continuous
 62
     7
370
    15
100
AcDbLine
 10
-1042.4914633196
 20
1428.1996666153
 30
0.0
 11
-994.1039579727
 21
1428.1996666153
 31
0.0
  0
LINE
  5
48
330
1F
100
AcDbEntity
  8
0
  6
Continuous
 62
     7
370
    15
100
AcDbLine
 10
-962.8789658465
 20
1428.1996666153
 30
0.0
 11
-959.4914625206
 21
1428.1996666153
 31
0.0
  0
LINE
  5
49
330
1F
100
AcDbEntity
  8
0
  6
Continuous
 62
     7
370
    15
100
AcDbLine
 10
-929.4914613285
 20
1428.1996666153
 30
0.0
 11
-259.4914371886
 21
1428.1996666153
 31
0.0
  0
LINE
  5
4A
330
1F
100
AcDbEntity
  8
0
  6
Continuous
 62
     7
370
    15
100
AcDbLine
 10
-229.4914657988
 20
1428.1996666153
 30
0.0
 11
1417.8960983835
 21
1428.1996666153
 31
0.0
  0
LINE
  5
4B
330
1F
100
AcDbEntity
  8
0
  6
Continuous
 62
     7
370
    15
100
AcDbLine
 10
1449.1210644327
 20
1428.1996666153
 30
0.0
 11
1497.5085918985
 21
1428.1996666153
 31
0.0
  0
LINE
  5
4C
330
1F
100
AcDbEntity
  8
0
  6
Continuous
 62
     7
370
    15
100
AcDbLine
 10
-1042.6914634456
 20
1428.1996666153
 30
0.0
 11
-1042.4914633196
 21
1428.3996681382
 31
0.0
  0
LINE
  5
4D
330
1F
100
AcDbEntity
  8
0
  6
Continuous
 62
     7
370
    15
100
AcDbLine
 10
-1042.4914633196
 20
1452.9996691903
 30
0.0
 11
-1042.6914634456
 21
1453.1996688505
 31
0.0
  0
LINE
  5
4E
330
1F
100
AcDbEntity
  8
0
  6
Continuous
 62
     7
370
    15
100
AcDbLine
 10
-1044.2914634197
 20
1428.1996666153
 30
0.0
 11
-1042.6914634456
 21
1428.1996666153
 31
0.0
  0
LINE
  5
4F
330
1F
100
AcDbEntity
  8
0
  6
Continuous
 62
     7
370
    15
100
AcDbLine
 10
-1042.6914634456
 20
1453.1996688505
 30
0.0
 11
-1044.2914634197
 21
1453.1996688505
 31
0.0
  0
LINE
  5
50
330
1F
100
AcDbEntity
  8
0
  6
Continuous
 62
     7
370
    15
100
AcDbLine
 10
-1044.2914634197
 20
1453.1996688505
 30
0.0
 11
-1044.4914634146
 21
1452.9996691903
 31
0.0
  0
LINE
  5
51
330
1F
100
AcDbEntity
  8
0
  6
Continuous
 62
     7
370
    15
100
AcDbLine
 10
-1044.4914634146
 20
1428.3996681382
 30
0.0
 11
-1044.2914634197
 21
1428.1996666153
 31
0.0
  0
LINE
  5
52
330
1F
100
AcDbEntity
  8
0
  6
Continuous
 62
     7
370
    15
100
AcDbLine
 10
1499.3086521707
 20
1428.1996666153
 30
0.0
 11
1499.50844694
 21
1428.3996681382
 31
0.0
  0
LINE
  5
53
330
1F
100
AcDbEntity
  8
0
  6
Continuous
 62
     7
370
    15
100
AcDbLine
 10
1499.50844694
 20
1452.9996691903
 30
0.0
 11
1499.3086521707
 21
1453.1996688505
 31
0.0
  0
LINE
  5
54
330
1F
100
AcDbEntity
  8
0
  6
Continuous
 62
     7
370
    15
100
AcDbLine
 10
1499.3086521707
 20
1453.1996688505
 30
0.0
 11
1497.7086250863
 21
1453.1996688505
 31
0.0
  0
LINE
  5
55
330
1F
100
AcDbEntity
  8
0
  6
Continuous
 62
     7
370
    15
100
AcDbLine
 10
1497.7086250863
 20
1428.1996666153
 30
0.0
 11
1499.3086521707
 21
1428.1996666153
 31
0.0
  0
LINE
  5
56
330
1F
100
AcDbEntity
  8
0
  6
Continuous
 62
     7
370
    15
100
AcDbLine
 10
1497.7086250863
 20
1453.1996688505
 30
0.0
 11
1497.5085918985
 21
1452.9996691903
 31
0.0
  0
LINE
  5
57
330
1F
100
AcDbEntity
  8
0
  6
Continuous
 62
     7
370
    15
100
AcDbLine
 10
1497.5085918985
 20
1428.3996681382
 30
0.0
 11
1497.7086250863
 21
1428.1996666153
 31
0.0
  0
SPLINE
  5
58
330
1F
100
AcDbEntity
  8
0
  6
Continuous
 62
     7
370
    15
100
AcDbSpline
210
0.0
220
0.0
230
1.0
 70
    11
 71
     3
 72
    28
 73
    24
 74
     0
 42
0.00000001
 43
0.00000001
 40
0.0
 40
0.0
 40
0.0
 40
0.0
 40
0.0475550802956831
 40
0.09496548886335
 40
0.1460712149938017
 40
0.2034554546495451
 40
0.246786796024621
 40
0.290187987587173
 40
0.3330325132157197
 40
0.3834849065043452
 40
0.4410932941061193
 40
0.4950497021634006
 40
0.5415918464518713
 40
0.5869424783051378
 40
0.6370245157017842
 40
0.6937084900775771
 40
0.7381353611964795
 40
0.7826966408380717
 40
0.8249707572456193
 40
0.8737322171986209
 40
0.9306922893299566
 40
0.9860187079950854
 40
1.0
 40
1.0
 40
1.0
 40
1.0
 10
1375.058478601968
 20
1440.699665870286
 30
0.0
 10
1374.988508832876
 20
1439.926874549264
 30
0.0
 10
1374.848782156227
 20
1438.383642887496
 30
0.0
 10
1373.776031151057
 20
1436.297809240226
 30
0.0
 10
1372.121426805856
 20
1434.546748824233
 30
0.0
 10
1369.993487875786
 20
1433.432972598185
 30
0.0
 10
1367.667981941643
 20
1433.050600667724
 30
0.0
 10
1365.553206608845
 20
1433.308395931285
 30
0.0
 10
1363.558142692691
 20
1434.144390912161
 30
0.0
 10
1361.741919546345
 20
1435.615446206091
 30
0.0
 10
1360.371579351667
 20
1437.785256763018
 30
0.0
 10
1359.831226210672
 20
1440.334931440757
 30
0.0
 10
1360.120221005257
 20
1442.718919277946
 30
0.0
 10
1361.035786203472
 20
1444.796470614443
 30
0.0
 10
1362.576153529542
 20
1446.591347287921
 30
0.0
 10
1364.610554111926
 20
1447.81000414414
 30
0.0
 10
1366.919332023446
 20
1448.332788194218
 30
0.0
 10
1369.082959771916
 20
1448.183993428758
 30
0.0
 10
1371.113067730989
 20
1447.446918097831
 30
0.0
 10
1372.972249493894
 20
1446.099263808723
 30
0.0
 10
1374.447820477027
 20
1444.047554606069
 30
0.0
 10
1375.020754761284
 20
1442.046857547207
 30
0.0
 10
1375.052146096893
 20
1440.925811935393
 30
0.0
 10
1375.058478601968
 20
1440.699665870286
 30
0.0
  0
SPLINE
  5
59
330
1F
100
AcDbEntity
  8
0
  6
Continuous
 62
     7
370
    15
100
AcDbSpline
210
0.0
220
0.0
230
1.0
 70
    11
 71
     3
 72
    28
 73
    24
 74
     0
 42
0.00000001
 43
0.00000001
 40
0.0
 40
0.0
 40
0.0
 40
0.0
 40
0.0475549994421435
 40
0.0949663740787705
 40
0.1460687990115139
 40
0.2034571387289784
 40
0.2467859971900352
 40
0.2901846848443719
 40
0.3330335387550798
 40
0.3834822194818872
 40
0.4410917585609272
 40
0.4950480748810787
 40
0.5415898511965956
 40
0.5869404059443439
 40
0.637023877555481
 40
0.6937077555567133
 40
0.7381345511406832
 40
0.7826957550188203
 40
0.8249697995515667
 40
0.8737311765999322
 40
0.9306925174565501
 40
0.9860188420552458
 40
0.9999999999999999
 40
0.9999999999999999
 40
0.9999999999999999
 40
0.9999999999999999
 10
235.0584929070824
 20
1440.699665870286
 30
0.0
 10
234.9885372985675
 20
1439.926866611823
 30
0.0
 10
234.8488373602839
 20
1438.383602090156
 30
0.0
 10
233.7758757373404
 20
1436.297924250101
 30
0.0
 10
232.1215615850186
 20
1434.546594332611
 30
0.0
 10
229.9934516844601
 20
1433.433054692566
 30
0.0
 10
227.6679973360726
 20
1433.050571886542
 30
0.0
 10
225.5532605183942
 20
1433.308470676274
 30
0.0
 10
223.5580852446789
 20
1434.144256147644
 30
0.0
 10
221.7420887758853
 20
1435.615574935791
 30
0.0
 10
220.3715413509021
 20
1437.785208308387
 30
0.0
 10
219.8312988408301
 20
1440.334928745109
 30
0.0
 10
220.1200803051892
 20
1442.718922664399
 30
0.0
 10
221.0356817185279
 20
1444.796507778792
 30
0.0
 10
222.5761764919979
 20
1446.591310733056
 30
0.0
 10
224.6105620849238
 20
1447.81000928622
 30
0.0
 10
226.9193480521247
 20
1448.332787194745
 30
0.0
 10
229.0829729032104
 20
1448.183992776674
 30
0.0
 10
231.1130851289566
 20
1447.44692163536
 30
0.0
 10
232.9722669254403
 20
1446.099234325685
 30
0.0
 10
234.4479183808194
 20
1444.047591679905
 30
0.0
 10
235.0210304662427
 20
1442.046864875902
 30
0.0
 10
235.0522043147928
 20
1440.925811980609
 30
0.0
 10
235.0584929070824
 20
1440.699665870286
 30
0.0
  0
LINE
  5
5A
330
1F
100
AcDbEntity
  8
0
  6
Continuous
 62
     7
370
    15
100
AcDbLine
 10
1497.5085918985
 20
1440.6996658703
 30
0.0
 11
1497.5085918985
 21
1453.1996688505
 31
0.0
  0
LINE
  5
5B
330
1F
100
AcDbEntity
  8
0
  6
Continuous
 62
     7
370
    15
100
AcDbLine
 10
1497.5085918985
 20
1428.1996666153
 30
0.0
 11
1497.5085918985
 21
1440.6996658703
 31
0.0
  0
LINE
  5
5C
330
1F
100
AcDbEntity
  8
0
  6
Continuous
 62
     7
370
    15
100
AcDbLine
 10
-1042.4914633196
 20
1440.6996658703
 30
0.0
 11
-1042.4914633196
 21
1453.1996688505
 31
0.0
  0
LINE
  5
5D
330
1F
100
AcDbEntity
  8
0
  6
Continuous
 62
     7
370
    15
100
AcDbLine
 10
-1042.4914633196
 20
1428.1996666153
 30
0.0
 11
-1042.4914633196
 21
1440.6996658703
 31
0.0
  0
SPLINE
  5
5E
330
1F
100
AcDbEntity
  8
0
  6
Continuous
 62
     7
370
    15
100
AcDbSpline
210
0.0
220
0.0
230
1.0
 70
    11
 71
     3
 72
    28
 73
    24
 74
     0
 42
0.00000001
 43
0.00000001
 40
0.0
 40
0.0
 40
0.0
 40
0.0
 40
0.0475551085890468
 40
0.0949663683926019
 40
0.1460694132410154
 40
0.2034572476244318
 40
0.2467855184045673
 40
0.2901854357699716
 40
0.3330337540003755
 40
0.3834831317651988
 40
0.441092377931357
 40
0.4950486814856493
 40
0.5415905096130255
 40
0.5869407808360846
 40
0.6370246492094731
 40
0.6937085463485646
 40
0.7381338757213403
 40
0.7826954006588828
 40
0.8249694594643773
 40
0.8737310897145885
 40
0.930692279102524
 40
0.98601878224417
 40
1.0
 40
1.0
 40
1.0
 40
1.0
 10
-904.9414629854805
 20
1440.699665870286
 30
0.0
 10
-905.0114329722187
 20
1439.926868117676
 30
0.0
 10
-905.1511612944571
 20
1438.383610237611
 30
0.0
 10
-906.2240853307751
 20
1436.297904651028
 30
0.0
 10
-907.8784556830394
 20
1434.546618169993
 30
0.0
 10
-910.0065294957894
 20
1433.433050984235
 30
0.0
 10
-912.3319869844321
 20
1433.050574597141
 30
0.0
 10
-914.4467325783149
 20
1433.308455397342
 30
0.0
 10
-916.4419067272215
 20
1434.144276891879
 30
0.0
 10
-918.2579483244958
 20
1435.615549896958
 30
0.0
 10
-919.6284502462472
 20
1437.785217955309
 30
0.0
 10
-920.1687046033794
 20
1440.334931383387
 30
0.0
 10
-919.8798809311935
 20
1442.718911293772
 30
0.0
 10
-918.9643484444953
 20
1444.796526194327
 30
0.0
 10
-917.4238016443411
 20
1446.59130085383
 30
0.0
 10
-915.3894449191164
 20
1447.80999458665
 30
0.0
 10
-913.0806846797269
 20
1448.332792874582
 30
0.0
 10
-910.9170761141348
 20
1448.183993284797
 30
0.0
 10
-908.8869586655294
 20
1447.446918146869
 30
0.0
 10
-907.0277658077778
 20
1446.099243901999
 30
0.0
 10
-905.5521120476185
 20
1444.047581980773
 30
0.0
 10
-904.9790547798345
 20
1442.046864015905
 30
0.0
 10
-904.9477732959635
 20
1440.925811994113
 30
0.0
 10
-904.9414629854805
 20
1440.699665870286
 30
0.0
  0
SPLINE
  5
5F
330
1F
100
AcDbEntity
  8
0
  6
Continuous
 62
     7
370
    15
100
AcDbSpline
210
0.0
220
0.0
230
1.0
 70
    11
 71
     3
 72
    28
 73
    24
 74
     0
 42
0.00000001
 43
0.00000001
 40
0.0
 40
0.0
 40
0.0
 40
0.0
 40
0.0475552013996637
 40
0.0949665917560898
 40
0.1460690336324435
 40
0.2034573923776873
 40
0.2467850605856765
 40
0.2901849776879639
 40
0.3330338458057134
 40
0.3834834499348189
 40
0.4410923833933036
 40
0.4950487176033067
 40
0.5415905093502971
 40
0.5869410791345554
 40
0.6370245673514567
 40
0.6937084641468958
 40
0.7381340894921944
 40
0.7826953081451229
 40
0.8249693666943262
 40
0.8737307599101
 40
0.9306921196529206
 40
0.9860187823289326
 40
1.0
 40
1.0
 40
1.0
 40
1.0
 10
-334.9414403357155
 20
1440.699665870286
 30
0.0
 10
-335.011420735195
 20
1439.92686731231
 30
0.0
 10
-335.1511699073714
 20
1438.383607206056
 30
0.0
 10
-336.2241125807678
 20
1436.297923571934
 30
0.0
 10
-337.8784324872883
 20
1434.546594400122
 30
0.0
 10
-340.0065248436307
 20
1433.43306408547
 30
0.0
 10
-342.3319728567522
 20
1433.050570992004
 30
0.0
 10
-344.4467178435892
 20
1433.308460995302
 30
0.0
 10
-346.4419087353206
 20
1434.144272219517
 30
0.0
 10
-348.2579741449795
 20
1435.615537910822
 30
0.0
 10
-349.6284362494544
 20
1437.785229186636
 30
0.0
 10
-350.1686978434009
 20
1440.334926339596
 30
0.0
 10
-349.8799116254256
 20
1442.7189233037
 30
0.0
 10
-348.9643113405271
 20
1444.796507381812
 30
0.0
 10
-347.4238165479501
 20
1446.591311784047
 30
0.0
 10
-345.3894456361225
 20
1447.809995865643
 30
0.0
 10
-343.0806866968109
 20
1448.332791980144
 30
0.0
 10
-340.9170791451451
 20
1448.183991299509
 30
0.0
 10
-338.8869672376264
 20
1447.446921846116
 30
0.0
 10
-337.0277865478712
 20
1446.099235398642
 30
0.0
 10
-335.5521264932936
 20
1444.047582276564
 30
0.0
 10
-334.9790304881568
 20
1442.046866972833
 30
0.0
 10
-334.9477503584683
 20
1440.925812056396
 30
0.0
 10
-334.9414403357155
 20
1440.699665870286
 30
0.0
  0
SPLINE
  5
60
330
1F
100
AcDbEntity
  8
0
  6
Continuous
 62
     7
370
    15
100
AcDbSpline
210
0.0
220
0.0
230
1.0
 70
    11
 71
     3
 72
    28
 73
    24
 74
     0
 42
0.00000001
 43
0.00000001
 40
0.0
 40
0.0
 40
0.0
 40
0.0
 40
0.0475550657658079
 40
0.0949665065257897
 40
0.1460706098518265
 40
0.2034569307766782
 40
0.2467858496673156
 40
0.2901870279691625
 40
0.3330337410596264
 40
0.3834843055122654
 40
0.4410926755124987
 40
0.4950490670840572
 40
0.5415909083101237
 40
0.5869405700692065
 40
0.6370256309713086
 40
0.6937095880280041
 40
0.7381340756348571
 40
0.7826953416612933
 40
0.8249694451524999
 40
0.8737308902070319
 40
0.9306923105060828
 40
0.9860187122668987
 40
1.0
 40
1.0
 40
1.0
 40
1.0
 10
805.0585453591698
 20
1440.699665870286
 30
0.0
 10
804.9885878883164
 20
1439.926868195643
 30
0.0
 10
804.8488842309805
 20
1438.383606836833
 30
0.0
 10
803.7759393528502
 20
1436.297881768827
 30
0.0
 10
802.1215005785346
 20
1434.546668478157
 30
0.0
 10
799.9934847444506
 20
1433.433023899241
 30
0.0
 10
797.6680120560272
 20
1433.050584630466
 30
0.0
 10
795.5532502395043
 20
1433.308425914955
 30
0.0
 10
793.5581170486178
 20
1434.144325132052
 30
0.0
 10
791.7419974788901
 20
1435.615496186211
 30
0.0
 10
790.3716290888826
 20
1437.785249572834
 30
0.0
 10
789.8313301293867
 20
1440.334929657635
 30
0.0
 10
790.1201745774372
 20
1442.718889485721
 30
0.0
 10
791.0355696995987
 20
1444.796574001218
 30
0.0
 10
792.5762549314329
 20
1446.591270272252
 30
0.0
 10
794.6105746611986
 20
1447.809988950405
 30
0.0
 10
796.9193193022496
 20
1448.332795240359
 30
0.0
 10
799.0829057011838
 20
1448.183990043727
 30
0.0
 10
801.1130211336487
 20
1447.446922589213
 30
0.0
 10
802.9721867647467
 20
1446.099233442159
 30
0.0
 10
804.447910197784
 20
1444.047594394886
 30
0.0
 10
805.0208200626627
 20
1442.04685664098
 30
0.0
 10
805.0522126097127
 20
1440.925811783269
 30
0.0
 10
805.0585453591698
 20
1440.699665870286
 30
0.0
  0
ARC
  5
61
330
1F
100
AcDbEntity
  8
0
  6
Continuous
 62
     7
370
    15
100
AcDbCircle
 10
-1042.4914634146
 20
1398.2996674438
 30
0.0
 40
2.0
100
AcDbArc
 50
90.0
 51
180.0
  0
LINE
  5
62
330
1F
100
AcDbEntity
  8
0
  6
Continuous
 62
     7
370
    15
100
AcDbLine
 10
-146.4914615073
 20
1400.2996674438
 30
0.0
 11
-229.4914657988
 21
1400.2996674438
 31
0.0
  0
LINE
  5
63
330
1F
100
AcDbEntity
  8
0
  6
Continuous
 62
     7
370
    15
100
AcDbLine
 10
-259.4914371886
 20
1400.2996674438
 30
0.0
 11
-929.4914613285
 21
1400.2996674438
 31
0.0
  0
LINE
  5
64
330
1F
100
AcDbEntity
  8
0
  6
Continuous
 62
     7
370
    15
100
AcDbLine
 10
-959.4914625206
 20
1400.2996674438
 30
0.0
 11
-1042.4914633196
 21
1400.2996674438
 31
0.0
  0
ARC
  5
65
330
1F
100
AcDbEntity
  8
0
  6
Continuous
 62
     7
370
    15
100
AcDbCircle
 10
-146.4914634146
 20
1398.2996674438
 30
0.0
 40
2.0
100
AcDbArc
 50
0.0
 51
90.0
  0
LINE
  5
66
330
1F
100
AcDbEntity
  8
0
  6
Continuous
 62
     7
370
    15
100
AcDbLine
 10
-144.4914872565
 20
-647.7004298309
 30
0.0
 11
-144.4914872565
 21
1398.2996673489
 31
0.0
  0
ARC
  5
67
330
1F
100
AcDbEntity
  8
0
  6
Continuous
 62
     7
370
    15
100
AcDbCircle
 10
-146.4914634146
 20
-647.7003325562
 30
0.0
 40
2.0
100
AcDbArc
 50
270.0
 51
0.0
  0
LINE
  5
68
330
1F
100
AcDbEntity
  8
0
  6
Continuous
 62
     7
370
    15
100
AcDbLine
 10
-1042.4914633196
 20
-649.7002848724
 30
0.0
 11
-204.4914896407
 21
-649.7002848724
 31
0.0
  0
LINE
  5
69
330
1F
100
AcDbEntity
  8
0
  6
Continuous
 62
     7
370
    15
100
AcDbLine
 10
-164.491468183
 20
-649.7002848724
 30
0.0
 11
-146.4914615073
 21
-649.7002848724
 31
0.0
  0
ARC
  5
6A
330
1F
100
AcDbEntity
  8
0
  6
Continuous
 62
     7
370
    15
100
AcDbCircle
 10
-1042.4914634146
 20
-647.7003325562
 30
0.0
 40
2.0
100
AcDbArc
 50
180.0
 51
270.0
  0
LINE
  5
6B
330
1F
100
AcDbEntity
  8
0
  6
Continuous
 62
     7
370
    15
100
AcDbLine
 10
-1044.4914634146
 20
1398.2996673489
 30
0.0
 11
-1044.4914634146
 21
-647.7004298309
 31
0.0
  0
LINE
  5
6C
330
1F
100
AcDbEntity
  8
0
  6
Continuous
 62
     7
370
    15
100
AcDbLine
 10
-976.3332689919
 20
1441.5215841194
 30
0.0
 11
-978.12416505
 21
1442.9796739181
 31
0.0
  0
LINE
  5
6D
330
1F
100
AcDbEntity
  8
0
  6
Continuous
 62
     7
370
    15
100
AcDbLine
 10
-980.2823598303
 20
1442.1577593943
 30
0.0
 11
-978.12416505
 21
1442.9796739181
 31
0.0
  0
LINE
  5
6E
330
1F
100
AcDbEntity
  8
0
  6
Continuous
 62
     7
370
    15
100
AcDbLine
 10
-976.3332689919
 20
1441.5215841194
 30
0.0
 11
-976.7005677142
 21
1439.2415760716
 31
0.0
  0
LINE
  5
6F
330
1F
100
AcDbEntity
  8
0
  6
Continuous
 62
     7
370
    15
100
AcDbLine
 10
-976.7005677142
 20
1439.2415760716
 30
0.0
 11
-978.8587624945
 21
1438.4196615478
 31
0.0
  0
LINE
  5
70
330
1F
100
AcDbEntity
  8
0
  6
Continuous
 62
     7
370
    15
100
AcDbLine
 10
-980.2823598303
 20
1442.1577593943
 30
0.0
 11
-980.649651102
 21
1439.8777513464
 31
0.0
  0
LINE
  5
71
330
1F
100
AcDbEntity
  8
0
  6
Continuous
 62
     7
370
    15
100
AcDbLine
 10
-980.649651102
 20
1439.8777513464
 30
0.0
 11
-978.8587624945
 21
1438.4196615478
 31
0.0
  0
LINE
  5
72
330
1F
100
AcDbEntity
  8
0
  6
Continuous
 62
     7
370
    15
100
AcDbLine
 10
1435.6666271768
 20
1441.5215841194
 30
0.0
 11
1433.8758652292
 21
1442.9796739181
 31
0.0
  0
LINE
  5
73
330
1F
100
AcDbEntity
  8
0
  6
Continuous
 62
     7
370
    15
100
AcDbLine
 10
1431.7177002511
 20
1442.1577593943
 30
0.0
 11
1433.8758652292
 21
1442.9796739181
 31
0.0
  0
LINE
  5
74
330
1F
100
AcDbEntity
  8
0
  6
Continuous
 62
     7
370
    15
100
AcDbLine
 10
1431.3502972207
 20
1439.8777513464
 30
0.0
 11
1431.7177002511
 21
1442.1577593943
 31
0.0
  0
LINE
  5
75
330
1F
100
AcDbEntity
  8
0
  6
Continuous
 62
     7
370
    15
100
AcDbLine
 10
1431.3502972207
 20
1439.8777513464
 30
0.0
 11
1433.141297587
 21
1438.4196615478
 31
0.0
  0
LINE
  5
76
330
1F
100
AcDbEntity
  8
0
  6
Continuous
 62
     7
370
    15
100
AcDbLine
 10
1435.299462565
 20
1439.2415760716
 30
0.0
 11
1433.141297587
 21
1438.4196615478
 31
0.0
  0
LINE
  5
77
330
1F
100
AcDbEntity
  8
0
  6
Continuous
 62
     7
370
    15
100
AcDbLine
 10
1435.299462565
 20
1439.2415760716
 30
0.0
 11
1435.6666271768
 21
1441.5215841194
 31
0.0
  0
CIRCLE
  5
78
330
1F
100
AcDbEntity
  8
0
  6
Continuous
 62
     7
370
    15
100
AcDbCircle
 10
-978.4914634146
 20
1440.6996674438
 30
0.0
 40
20.00000000000004
  0
CIRCLE
  5
79
330
1F
100
AcDbEntity
  8
0
  6
Continuous
 62
     7
370
    15
100
AcDbCircle
 10
1433.5085365854
 20
1440.6996674438
 30
0.0
 40
20.00000000000004
  0
CIRCLE
  5
7A
330
1F
100
AcDbEntity
  8
0
  6
Continuous
 62
     7
370
    15
100
AcDbCircle
 10
-342.4914634146
 20
1440.6996674438
 30
0.0
 40
6.449999999999911
  0
CIRCLE
  5
7B
330
1F
100
AcDbEntity
  8
0
  6
Continuous
 62
     7
370
    15
100
AcDbCircle
 10
-342.4914634146
 20
1440.6996674438
 30
0.0
 40
7.449999999999967
  0
LINE
  5
7C
330
1F
100
AcDbEntity
  8
0
  6
Continuous
 62
     7
370
    15
100
AcDbLine
 10
-339.7725160041
 20
1441.6695079466
 30
0.0
 11
-341.9718677916
 21
1443.5392758509
 31
0.0
  0
LINE
  5
7D
330
1F
100
AcDbEntity
  8
0
  6
Continuous
 62
     7
370
    15
100
AcDbLine
 10
-341.9718677916
 20
1443.5392758509
 30
0.0
 11
-344.6908528723
 21
1442.5694337746
 31
0.0
  0
LINE
  5
7E
330
1F
100
AcDbEntity
  8
0
  6
Continuous
 62
     7
370
    15
100
AcDbLine
 10
-344.6908528723
 20
1442.5694337746
 30
0.0
 11
-345.2104265608
 21
1439.729823794
 31
0.0
  0
LINE
  5
7F
330
1F
100
AcDbEntity
  8
0
  6
Continuous
 62
     7
370
    15
100
AcDbLine
 10
-345.2104265608
 20
1439.729823794
 30
0.0
 11
-343.0110151686
 21
1437.860059615
 31
0.0
  0
LINE
  5
80
330
1F
100
AcDbEntity
  8
0
  6
Continuous
 62
     7
370
    15
100
AcDbLine
 10
-343.0110151686
 20
1437.860059615
 30
0.0
 11
-340.2920896926
 21
1438.8299016913
 31
0.0
  0
LINE
  5
81
330
1F
100
AcDbEntity
  8
0
  6
Continuous
 62
     7
370
    15
100
AcDbLine
 10
-340.2920896926
 20
1438.8299016913
 30
0.0
 11
-339.7725160041
 21
1441.6695079466
 31
0.0
  0
CIRCLE
  5
82
330
1F
100
AcDbEntity
  8
0
  6
Continuous
 62
     7
370
    15
100
AcDbCircle
 10
227.5085365854
 20
1440.6996674438
 30
0.0
 40
6.449999999999911
  0
CIRCLE
  5
83
330
1F
100
AcDbEntity
  8
0
  6
Continuous
 62
     7
370
    15
100
AcDbCircle
 10
227.5085365854
 20
1440.6996674438
 30
0.0
 40
7.449999999999939
  0
LINE
  5
84
330
1F
100
AcDbEntity
  8
0
  6
Continuous
 62
     7
370
    15
100
AcDbLine
 10
226.9889776788
 20
1437.860059615
 30
0.0
 11
229.7079031549
 21
1438.8299016913
 31
0.0
  0
LINE
  5
85
330
1F
100
AcDbEntity
  8
0
  6
Continuous
 62
     7
370
    15
100
AcDbLine
 10
225.3091995798
 20
1442.5694337746
 30
0.0
 11
224.7895662866
 21
1439.729823794
 31
0.0
  0
LINE
  5
86
330
1F
100
AcDbEntity
  8
0
  6
Continuous
 62
     7
370
    15
100
AcDbLine
 10
224.7895662866
 20
1439.729823794
 30
0.0
 11
226.9889776788
 21
1437.860059615
 31
0.0
  0
LINE
  5
87
330
1F
100
AcDbEntity
  8
0
  6
Continuous
 62
     7
370
    15
100
AcDbLine
 10
229.7079031549
 20
1438.8299016913
 30
0.0
 11
230.227536448
 21
1441.6695079466
 31
0.0
  0
LINE
  5
88
330
1F
100
AcDbEntity
  8
0
  6
Continuous
 62
     7
370
    15
100
AcDbLine
 10
230.227536448
 20
1441.6695079466
 30
0.0
 11
228.0281250558
 21
1443.5392758509
 31
0.0
  0
LINE
  5
89
330
1F
100
AcDbEntity
  8
0
  6
Continuous
 62
     7
370
    15
100
AcDbLine
 10
228.0281250558
 20
1443.5392758509
 30
0.0
 11
225.3091995798
 21
1442.5694337746
 31
0.0
  0
CIRCLE
  5
8A
330
1F
100
AcDbEntity
  8
0
  6
Continuous
 62
     7
370
    15
100
AcDbCircle
 10
797.5085365854
 20
1440.6996674438
 30
0.0
 40
6.449999999999855
  0
LINE
  5
8B
330
1F
100
AcDbEntity
  8
0
  6
Continuous
 62
     7
370
    15
100
AcDbLine
 10
794.7896187387
 20
1439.729823794
 30
0.0
 11
796.9889109216
 21
1437.860059615
 31
0.0
  0
LINE
  5
8C
330
1F
100
AcDbEntity
  8
0
  6
Continuous
 62
     7
370
    15
100
AcDbLine
 10
796.9889109216
 20
1437.860059615
 30
0.0
 11
799.707955607
 21
1438.8299016913
 31
0.0
  0
LINE
  5
8D
330
1F
100
AcDbEntity
  8
0
  6
Continuous
 62
     7
370
    15
100
AcDbLine
 10
799.707955607
 20
1438.8299016913
 30
0.0
 11
800.2274696908
 21
1441.6695079466
 31
0.0
  0
LINE
  5
8E
330
1F
100
AcDbEntity
  8
0
  6
Continuous
 62
     7
370
    15
100
AcDbLine
 10
798.0280582986
 20
1443.5392758509
 30
0.0
 11
795.3091328225
 21
1442.5694337746
 31
0.0
  0
LINE
  5
8F
330
1F
100
AcDbEntity
  8
0
  6
Continuous
 62
     7
370
    15
100
AcDbLine
 10
795.3091328225
 20
1442.5694337746
 30
0.0
 11
794.7896187387
 21
1439.729823794
 31
0.0
  0
LINE
  5
90
330
1F
100
AcDbEntity
  8
0
  6
Continuous
 62
     7
370
    15
100
AcDbLine
 10
800.2274696908
 20
1441.6695079466
 30
0.0
 11
798.0280582986
 21
1443.5392758509
 31
0.0
  0
CIRCLE
  5
91
330
1F
100
AcDbEntity
  8
0
  6
Continuous
 62
     7
370
    15
100
AcDbCircle
 10
797.5085365854
 20
1440.6996674438
 30
0.0
 40
7.449999999999855
  0
CIRCLE
  5
92
330
1F
100
AcDbEntity
  8
0
  6
Continuous
 62
     7
370
    15
100
AcDbCircle
 10
1367.5085365854
 20
1440.6996674438
 30
0.0
 40
6.450000000000011
  0
CIRCLE
  5
93
330
1F
100
AcDbEntity
  8
0
  6
Continuous
 62
     7
370
    15
100
AcDbCircle
 10
1367.5085365854
 20
1440.6996674438
 30
0.0
 40
7.450000000000122
  0
LINE
  5
94
330
1F
100
AcDbEntity
  8
0
  6
Continuous
 62
     7
370
    15
100
AcDbLine
 10
1365.3090660653
 20
1442.5694337746
 30
0.0
 11
1364.7895519815
 21
1439.729823794
 31
0.0
  0
LINE
  5
95
330
1F
100
AcDbEntity
  8
0
  6
Continuous
 62
     7
370
    15
100
AcDbLine
 10
1370.2274029336
 20
1441.6695079466
 30
0.0
 11
1368.0279915414
 21
1443.5392758509
 31
0.0
  0
LINE
  5
96
330
1F
100
AcDbEntity
  8
0
  6
Continuous
 62
     7
370
    15
100
AcDbLine
 10
1368.0279915414
 20
1443.5392758509
 30
0.0
 11
1365.3090660653
 21
1442.5694337746
 31
0.0
  0
LINE
  5
97
330
1F
100
AcDbEntity
  8
0
  6
Continuous
 62
     7
370
    15
100
AcDbLine
 10
1369.7078888498
 20
1438.8299016913
 30
0.0
 11
1370.2274029336
 21
1441.6695079466
 31
0.0
  0
LINE
  5
98
330
1F
100
AcDbEntity
  8
0
  6
Continuous
 62
     7
370
    15
100
AcDbLine
 10
1364.7895519815
 20
1439.729823794
 30
0.0
 11
1366.9889633737
 21
1437.860059615
 31
0.0
  0
LINE
  5
99
330
1F
100
AcDbEntity
  8
0
  6
Continuous
 62
     7
370
    15
100
AcDbLine
 10
1366.9889633737
 20
1437.860059615
 30
0.0
 11
1369.7078888498
 21
1438.8299016913
 31
0.0
  0
CIRCLE
  5
9A
330
1F
100
AcDbEntity
  8
0
  6
Continuous
 62
     7
370
    15
100
AcDbCircle
 10
-912.4914634146
 20
1440.6996674438
 30
0.0
 40
6.449999999999899
  0
LINE
  5
9B
330
1F
100
AcDbEntity
  8
0
  6
Continuous
 62
     7
370
    15
100
AcDbLine
 10
-909.7725088515
 20
1441.6695079466
 30
0.0
 11
-911.9718904414
 21
1443.5392758509
 31
0.0
  0
LINE
  5
9C
330
1F
100
AcDbEntity
  8
0
  6
Continuous
 62
     7
370
    15
100
AcDbLine
 10
-911.9718904414
 20
1443.5392758509
 30
0.0
 11
-914.6908457198
 21
1442.5694337746
 31
0.0
  0
LINE
  5
9D
330
1F
100
AcDbEntity
  8
0
  6
Continuous
 62
     7
370
    15
100
AcDbLine
 10
-914.6908457198
 20
1442.5694337746
 30
0.0
 11
-915.2104194083
 21
1439.729823794
 31
0.0
  0
LINE
  5
9E
330
1F
100
AcDbEntity
  8
0
  6
Continuous
 62
     7
370
    15
100
AcDbLine
 10
-915.2104194083
 20
1439.729823794
 30
0.0
 11
-913.0110378184
 21
1437.860059615
 31
0.0
  0
LINE
  5
9F
330
1F
100
AcDbEntity
  8
0
  6
Continuous
 62
     7
370
    15
100
AcDbLine
 10
-913.0110378184
 20
1437.860059615
 30
0.0
 11
-910.29208254
 21
1438.8299016913
 31
0.0
  0
LINE
  5
A0
330
1F
100
AcDbEntity
  8
0
  6
Continuous
 62
     7
370
    15
100
AcDbLine
 10
-910.29208254
 20
1438.8299016913
 30
0.0
 11
-909.7725088515
 21
1441.6695079466
 31
0.0
  0
CIRCLE
  5
A1
330
1F
100
AcDbEntity
  8
0
  6
Continuous
 62
     7
370
    15
100
AcDbCircle
 10
-912.4914634146
 20
1440.6996674438
 30
0.0
 40
7.45000000000001
  0
ARC
  5
A2
330
1F
100
AcDbEntity
  8
0
  6
Continuous
 62
     7
370
    15
100
AcDbCircle
 10
-912.4914634146
 20
1440.6996674438
 30
0.0
 40
24.00000000000011
100
AcDbArc
 50
31.3881664644
 51
108.8005444417
  0
ARC
  5
A3
330
1F
100
AcDbEntity
  8
0
  6
Continuous
 62
     7
370
    15
100
AcDbCircle
 10
-912.4914634146
 20
1440.6996674438
 30
0.0
 40
24.00000000000005
100
AcDbArc
 50
224.9005279607
 51
328.6118335357
  0
ARC
  5
A4
330
1F
100
AcDbEntity
  8
0
  6
Continuous
 62
     7
370
    15
100
AcDbCircle
 10
-912.4914634146
 20
1440.6996674438
 30
0.0
 40
25.00000000000014
100
AcDbArc
 50
227.1563569564
 51
330.0
  0
ARC
  5
A5
330
1F
100
AcDbEntity
  8
0
  6
Continuous
 62
     7
370
    15
100
AcDbCircle
 10
-912.4914634146
 20
1440.6996674438
 30
0.0
 40
24.99999999999999
100
AcDbArc
 50
30.0
 51
106.0973005297
  0
ARC
  5
A6
330
1F
100
AcDbEntity
  8
0
  6
Continuous
 62
     7
370
    15
100
AcDbCircle
 10
227.5085365854
 20
1440.6996674438
 30
0.0
 40
24.0000000000001
100
AcDbArc
 50
31.3881664644
 51
148.6118335356
  0
ARC
  5
A7
330
1F
100
AcDbEntity
  8
0
  6
Continuous
 62
     7
370
    15
100
AcDbCircle
 10
227.5085365854
 20
1440.6996674438
 30
0.0
 40
23.9999999999999
100
AcDbArc
 50
211.3881664643
 51
328.6118335357
  0
ARC
  5
A8
330
1F
100
AcDbEntity
  8
0
  6
Continuous
 62
     7
370
    15
100
AcDbCircle
 10
227.5085365854
 20
1440.6996674438
 30
0.0
 40
25.00000000000002
100
AcDbArc
 50
210.0
 51
330.0
  0
ARC
  5
A9
330
1F
100
AcDbEntity
  8
0
  6
Continuous
 62
     7
370
    15
100
AcDbCircle
 10
227.5085365854
 20
1440.6996674438
 30
0.0
 40
25.00000000000006
100
AcDbArc
 50
30.0
 51
150.0
  0
ARC
  5
AA
330
1F
100
AcDbEntity
  8
0
  6
Continuous
 62
     7
370
    15
100
AcDbCircle
 10
-342.4914634146
 20
1440.6996674438
 30
0.0
 40
24.0
100
AcDbArc
 50
31.3881664644
 51
148.6118335356
  0
ARC
  5
AB
330
1F
100
AcDbEntity
  8
0
  6
Continuous
 62
     7
370
    15
100
AcDbCircle
 10
-342.4914634146
 20
1440.6996674438
 30
0.0
 40
23.99999999999998
100
AcDbArc
 50
211.3881664643
 51
328.6118335357
  0
ARC
  5
AC
330
1F
100
AcDbEntity
  8
0
  6
Continuous
 62
     7
370
    15
100
AcDbCircle
 10
-342.4914634146
 20
1440.6996674438
 30
0.0
 40
25.00000000000002
100
AcDbArc
 50
210.0
 51
330.0
  0
ARC
  5
AD
330
1F
100
AcDbEntity
  8
0
  6
Continuous
 62
     7
370
    15
100
AcDbCircle
 10
-342.4914634146
 20
1440.6996674438
 30
0.0
 40
24.99999999999995
100
AcDbArc
 50
30.0
 51
150.0
  0
ARC
  5
AE
330
1F
100
AcDbEntity
  8
0
  6
Continuous
 62
     7
370
    15
100
AcDbCircle
 10
797.5085365854
 20
1440.6996674438
 30
0.0
 40
24.00000000000015
100
AcDbArc
 50
31.3881664644
 51
148.6118335356
  0
ARC
  5
AF
330
1F
100
AcDbEntity
  8
0
  6
Continuous
 62
     7
370
    15
100
AcDbCircle
 10
797.5085365854
 20
1440.6996674438
 30
0.0
 40
24.0000000000001
100
AcDbArc
 50
211.3881664643
 51
328.6118335357
  0
ARC
  5
B0
330
1F
100
AcDbEntity
  8
0
  6
Continuous
 62
     7
370
    15
100
AcDbCircle
 10
797.5085365854
 20
1440.6996674438
 30
0.0
 40
25.00000000000014
100
AcDbArc
 50
210.0
 51
330.0
  0
ARC
  5
B1
330
1F
100
AcDbEntity
  8
0
  6
Continuous
 62
     7
370
    15
100
AcDbCircle
 10
797.5085365854
 20
1440.6996674438
 30
0.0
 40
25.00000000000024
100
AcDbArc
 50
30.0
 51
150.0
  0
ARC
  5
B2
330
1F
100
AcDbEntity
  8
0
  6
Continuous
 62
     7
370
    15
100
AcDbCircle
 10
1367.5085365854
 20
1440.6996674438
 30
0.0
 40
23.99999999999986
100
AcDbArc
 50
31.3881664644
 51
148.6118335356
  0
ARC
  5
B3
330
1F
100
AcDbEntity
  8
0
  6
Continuous
 62
     7
370
    15
100
AcDbCircle
 10
1367.5085365854
 20
1440.6996674438
 30
0.0
 40
24.00000000000007
100
AcDbArc
 50
211.3881664643
 51
328.6118335357
  0
ARC
  5
B4
330
1F
100
AcDbEntity
  8
0
  6
Continuous
 62
     7
370
    15
100
AcDbCircle
 10
1367.5085365854
 20
1440.6996674438
 30
0.0
 40
24.99999999999994
100
AcDbArc
 50
210.0
 51
330.0
  0
ARC
  5
B5
330
1F
100
AcDbEntity
  8
0
  6
Continuous
 62
     7
370
    15
100
AcDbCircle
 10
1367.5085365854
 20
1440.6996674438
 30
0.0
 40
24.99999999999995
100
AcDbArc
 50
30.0
 51
150.0
  0
LINE
  5
B6
330
1F
100
AcDbEntity
  8
0
  6
Continuous
 62
     7
370
    15
100
AcDbLine
 10
-1042.6914634456
 20
1428.1996666153
 30
0.0
 11
-1042.6914634456
 21
1453.1996688505
 31
0.0
  0
LINE
  5
B7
330
1F
100
AcDbEntity
  8
0
  6
Continuous
 62
     7
370
    15
100
AcDbLine
 10
-1044.2914634197
 20
1453.1996688505
 30
0.0
 11
-1044.2914634197
 21
1428.1996666153
 31
0.0
  0
LINE
  5
B8
330
1F
100
AcDbEntity
  8
0
  6
Continuous
 62
     7
370
    15
100
AcDbLine
 10
-1044.4914634146
 20
1428.3996681382
 30
0.0
 11
-1044.4914634146
 21
1452.9996691903
 31
0.0
  0
LINE
  5
B9
330
1F
100
AcDbEntity
  8
0
  6
Continuous
 62
     7
370
    15
100
AcDbLine
 10
1499.3086521707
 20
1428.1996666153
 30
0.0
 11
1499.3086521707
 21
1453.1996688505
 31
0.0
  0
LINE
  5
BA
330
1F
100
AcDbEntity
  8
0
  6
Continuous
 62
     7
370
    15
100
AcDbLine
 10
1499.50844694
 20
1452.9996691903
 30
0.0
 11
1499.50844694
 21
1428.3996681382
 31
0.0
  0
LINE
  5
BB
330
1F
100
AcDbEntity
  8
0
  6
Continuous
 62
     7
370
    15
100
AcDbLine
 10
1497.7086250863
 20
1453.1996688505
 30
0.0
 11
1497.7086250863
 21
1428.1996666153
 31
0.0
  0
LINE
  5
BC
330
1F
100
AcDbEntity
  8
0
  6
Continuous
 62
     7
370
    15
100
AcDbLine
 10
-164.6914417662
 20
-657.7004202942
 30
0.0
 11
-204.2914564528
 21
-657.7004202942
 31
0.0
  0
LINE
  5
BD
330
1F
100
AcDbEntity
  8
0
  6
Continuous
 62
     7
370
    15
100
AcDbLine
 10
-204.2914564528
 20
-657.7004202942
 30
0.0
 11
-204.2914564528
 21
-657.5003871063
 31
0.0
  0
LINE
  5
BE
330
1F
100
AcDbEntity
  8
0
  6
Continuous
 62
     7
370
    15
100
AcDbLine
 10
-204.2914564528
 20
-657.5003871063
 30
0.0
 11
-164.6914417662
 21
-657.5003871063
 31
0.0
  0
LINE
  5
BF
330
1F
100
AcDbEntity
  8
0
  6
Continuous
 62
     7
370
    15
100
AcDbLine
 10
-164.6914417662
 20
-657.7004202942
 30
0.0
 11
-164.6914417662
 21
-657.5003871063
 31
0.0
  0
LINE
  5
C0
330
1F
100
AcDbEntity
  8
0
  6
Continuous
 62
     7
370
    15
100
AcDbLine
 10
-204.4914896407
 20
-657.5003871063
 30
0.0
 11
-204.2914564528
 21
-657.5003871063
 31
0.0
  0
LINE
  5
C1
330
1F
100
AcDbEntity
  8
0
  6
Continuous
 62
     7
370
    15
100
AcDbLine
 10
-204.4914896407
 20
-657.5003871063
 30
0.0
 11
-204.2914564528
 21
-657.7004202942
 31
0.0
  0
LINE
  5
C2
330
1F
100
AcDbEntity
  8
0
  6
Continuous
 62
     7
370
    15
100
AcDbLine
 10
-204.2914564528
 20
-640.2002581696
 30
0.0
 11
-204.2914564528
 21
-657.5003871063
 31
0.0
  0
LINE
  5
C3
330
1F
100
AcDbEntity
  8
0
  6
Continuous
 62
     7
370
    15
100
AcDbLine
 10
-204.4914896407
 20
-657.5003871063
 30
0.0
 11
-204.4914896407
 21
-640.2002581696
 31
0.0
  0
LINE
  5
C4
330
1F
100
AcDbEntity
  8
0
  6
Continuous
 62
     7
370
    15
100
AcDbLine
 10
-204.2914564528
 20
-640.2002581696
 30
0.0
 11
-204.4914896407
 21
-640.2002581696
 31
0.0
  0
LINE
  5
C5
330
1F
100
AcDbEntity
  8
0
  6
Continuous
 62
     7
370
    15
100
AcDbLine
 10
-164.491468183
 20
-657.5003871063
 30
0.0
 11
-164.6914417662
 21
-657.5003871063
 31
0.0
  0
LINE
  5
C6
330
1F
100
AcDbEntity
  8
0
  6
Continuous
 62
     7
370
    15
100
AcDbLine
 10
-164.6914417662
 20
-657.7004202942
 30
0.0
 11
-164.491468183
 21
-657.5003871063
 31
0.0
  0
LINE
  5
C7
330
1F
100
AcDbEntity
  8
0
  6
Continuous
 62
     7
370
    15
100
AcDbLine
 10
-166.9914657988
 20
-637.900234137
 30
0.0
 11
-201.9914920249
 21
-637.900234137
 31
0.0
  0
ARC
  5
C8
330
1F
100
AcDbEntity
  8
0
  6
Continuous
 62
     7
370
    15
100
AcDbCircle
 10
-166.9914634146
 20
-640.2003325562
 30
0.0
 40
2.300000000000097
100
AcDbArc
 50
0.0
 51
90.0
  0
LINE
  5
C9
330
1F
100
AcDbEntity
  8
0
  6
Continuous
 62
     7
370
    15
100
AcDbLine
 10
-164.6914417662
 20
-657.5003871063
 30
0.0
 11
-164.6914417662
 21
-640.2002581696
 31
0.0
  0
ARC
  5
CA
330
1F
100
AcDbEntity
  8
0
  6
Continuous
 62
     7
370
    15
100
AcDbCircle
 10
-201.9914634146
 20
-640.2003325562
 30
0.0
 40
2.300000000000068
100
AcDbArc
 50
90.0
 51
180.0
  0
LINE
  5
CB
330
1F
100
AcDbEntity
  8
0
  6
Continuous
 62
     7
370
    15
100
AcDbLine
 10
-164.6914417662
 20
-640.2002581696
 30
0.0
 11
-164.491468183
 21
-640.2002581696
 31
0.0
  0
LINE
  5
CC
330
1F
100
AcDbEntity
  8
0
  6
Continuous
 62
     7
370
    15
100
AcDbLine
 10
-164.491468183
 20
-640.2002581696
 30
0.0
 11
-164.491468183
 21
-657.5003871063
 31
0.0
  0
LINE
  5
CD
330
1F
100
AcDbEntity
  8
0
  6
Continuous
 62
     7
370
    15
100
AcDbLine
 10
-201.9914920249
 20
-637.900234137
 30
0.0
 11
-201.9914920249
 21
-637.7004393677
 31
0.0
  0
LINE
  5
CE
330
1F
100
AcDbEntity
  8
0
  6
Continuous
 62
     7
370
    15
100
AcDbLine
 10
-201.9914920249
 20
-637.7004393677
 30
0.0
 11
-166.9914657988
 21
-637.7004393677
 31
0.0
  0
LINE
  5
CF
330
1F
100
AcDbEntity
  8
0
  6
Continuous
 62
     7
370
    15
100
AcDbLine
 10
-166.9914657988
 20
-637.900234137
 30
0.0
 11
-166.9914657988
 21
-637.7004393677
 31
0.0
  0
ARC
  5
D0
330
1F
100
AcDbEntity
  8
0
  6
Continuous
 62
     7
370
    15
100
AcDbCircle
 10
-201.9914634146
 20
-640.2003325562
 30
0.0
 40
2.500000000000057
100
AcDbArc
 50
90.0
 51
180.0
  0
ARC
  5
D1
330
1F
100
AcDbEntity
  8
0
  6
Continuous
 62
     7
370
    15
100
AcDbCircle
 10
-166.9914634146
 20
-640.2003325562
 30
0.0
 40
2.500000000000057
100
AcDbArc
 50
0.0
 51
90.0
  0
LINE
  5
D2
330
1F
100
AcDbEntity
  8
0
  6
Continuous
 62
     7
370
    15
100
AcDbLine
 10
-941.6774074354
 20
1345.9933801254
 30
0.0
 11
-942.4836645641
 21
1343.2094818612
 31
0.0
  0
LINE
  5
D3
330
1F
100
AcDbEntity
  8
0
  6
Continuous
 62
     7
370
    15
100
AcDbLine
 10
-945.2977190532
 20
1342.5157694777
 30
0.0
 11
-947.3055164137
 21
1344.6059553584
 31
0.0
  0
LINE
  5
D4
330
1F
100
AcDbEntity
  8
0
  6
Continuous
 62
     7
370
    15
100
AcDbLine
 10
-943.6852047958
 20
1348.083566006
 30
0.0
 11
-941.6774074354
 21
1345.9933801254
 31
0.0
  0
LINE
  5
D5
330
1F
100
AcDbEntity
  8
0
  6
Continuous
 62
     7
370
    15
100
AcDbLine
 10
-942.4836645641
 20
1343.2094818612
 30
0.0
 11
-945.2977190532
 21
1342.5157694777
 31
0.0
  0
LINE
  5
D6
330
1F
100
AcDbEntity
  8
0
  6
Continuous
 62
     7
370
    15
100
AcDbLine
 10
-947.3055164137
 20
1344.6059553584
 30
0.0
 11
-946.4992592849
 21
1347.3898536225
 31
0.0
  0
LINE
  5
D7
330
1F
100
AcDbEntity
  8
0
  6
Continuous
 62
     7
370
    15
100
AcDbLine
 10
-946.4992592849
 20
1347.3898536225
 30
0.0
 11
-943.6852047958
 21
1348.083566006
 31
0.0
  0
CIRCLE
  5
D8
330
1F
100
AcDbEntity
  8
0
  6
Continuous
 62
     7
370
    15
100
AcDbCircle
 10
-944.4914634146
 20
1345.2996674438
 30
0.0
 40
7.784999999999713
  0
ARC
  5
D9
330
1F
100
AcDbEntity
  8
0
  6
Continuous
 62
     7
370
    15
100
AcDbCircle
 10
-944.4914634146
 20
1345.2996674438
 30
0.0
 40
2.51000000000003
100
AcDbArc
 50
223.8482527894
 51
283.8482527894
  0
ARC
  5
DA
330
1F
100
AcDbEntity
  8
0
  6
Continuous
 62
     7
370
    15
100
AcDbCircle
 10
-944.4914634146
 20
1345.2996674438
 30
0.0
 40
2.510000000000174
100
AcDbArc
 50
163.8482527894
 51
223.8482527894
  0
ARC
  5
DB
330
1F
100
AcDbEntity
  8
0
  6
Continuous
 62
     7
370
    15
100
AcDbCircle
 10
-944.4914634146
 20
1345.2996674438
 30
0.0
 40
2.510000000000174
100
AcDbArc
 50
103.8482527894
 51
163.8482527894
  0
ARC
  5
DC
330
1F
100
AcDbEntity
  8
0
  6
Continuous
 62
     7
370
    15
100
AcDbCircle
 10
-944.4914634146
 20
1345.2996674438
 30
0.0
 40
2.510000000000099
100
AcDbArc
 50
43.8482527894
 51
103.8482527894
  0
ARC
  5
DD
330
1F
100
AcDbEntity
  8
0
  6
Continuous
 62
     7
370
    15
100
AcDbCircle
 10
-944.4914634146
 20
1345.2996674438
 30
0.0
 40
2.510000000000099
100
AcDbArc
 50
343.8482527894
 51
43.8482527894
  0
ARC
  5
DE
330
1F
100
AcDbEntity
  8
0
  6
Continuous
 62
     7
370
    15
100
AcDbCircle
 10
-944.4914634146
 20
1345.2996674438
 30
0.0
 40
2.51
100
AcDbArc
 50
283.8482527894
 51
343.8482527894
  0
LINE
  5
DF
330
1F
100
AcDbEntity
  8
0
  6
Continuous
 62
     7
370
    15
100
AcDbLine
 10
-241.6773970046
 20
1345.9933801254
 30
0.0
 11
-242.4836690344
 21
1343.2094818612
 31
0.0
  0
LINE
  5
E0
330
1F
100
AcDbEntity
  8
0
  6
Continuous
 62
     7
370
    15
100
AcDbLine
 10
-243.6851794638
 20
1348.083566006
 30
0.0
 11
-241.6773970046
 21
1345.9933801254
 31
0.0
  0
LINE
  5
E1
330
1F
100
AcDbEntity
  8
0
  6
Continuous
 62
     7
370
    15
100
AcDbLine
 10
-247.3055059828
 20
1344.6059553584
 30
0.0
 11
-246.499233953
 21
1347.3898536225
 31
0.0
  0
LINE
  5
E2
330
1F
100
AcDbEntity
  8
0
  6
Continuous
 62
     7
370
    15
100
AcDbLine
 10
-242.4836690344
 20
1343.2094818612
 30
0.0
 11
-245.2977235236
 21
1342.5157694777
 31
0.0
  0
LINE
  5
E3
330
1F
100
AcDbEntity
  8
0
  6
Continuous
 62
     7
370
    15
100
AcDbLine
 10
-246.499233953
 20
1347.3898536225
 30
0.0
 11
-243.6851794638
 21
1348.083566006
 31
0.0
  0
LINE
  5
E4
330
1F
100
AcDbEntity
  8
0
  6
Continuous
 62
     7
370
    15
100
AcDbLine
 10
-245.2977235236
 20
1342.5157694777
 30
0.0
 11
-247.3055059828
 21
1344.6059553584
 31
0.0
  0
CIRCLE
  5
E5
330
1F
100
AcDbEntity
  8
0
  6
Continuous
 62
     7
370
    15
100
AcDbCircle
 10
-244.4914634146
 20
1345.2996674438
 30
0.0
 40
7.784999999999713
  0
ARC
  5
E6
330
1F
100
AcDbEntity
  8
0
  6
Continuous
 62
     7
370
    15
100
AcDbCircle
 10
-244.4914634146
 20
1345.2996674438
 30
0.0
 40
2.510000000000099
100
AcDbArc
 50
343.8482527894
 51
43.8482527894
  0
ARC
  5
E7
330
1F
100
AcDbEntity
  8
0
  6
Continuous
 62
     7
370
    15
100
AcDbCircle
 10
-244.4914634146
 20
1345.2996674438
 30
0.0
 40
2.510000000000255
100
AcDbArc
 50
43.8482527894
 51
103.8482527894
  0
ARC
  5
E8
330
1F
100
AcDbEntity
  8
0
  6
Continuous
 62
     7
370
    15
100
AcDbCircle
 10
-244.4914634146
 20
1345.2996674438
 30
0.0
 40
2.510000000000027
100
AcDbArc
 50
223.8482527894
 51
283.8482527894
  0
ARC
  5
E9
330
1F
100
AcDbEntity
  8
0
  6
Continuous
 62
     7
370
    15
100
AcDbCircle
 10
-244.4914634146
 20
1345.2996674438
 30
0.0
 40
2.509999999999983
100
AcDbArc
 50
163.8482527894
 51
223.8482527894
  0
ARC
  5
EA
330
1F
100
AcDbEntity
  8
0
  6
Continuous
 62
     7
370
    15
100
AcDbCircle
 10
-244.4914634146
 20
1345.2996674438
 30
0.0
 40
2.510000000000255
100
AcDbArc
 50
103.8482527894
 51
163.8482527894
  0
ARC
  5
EB
330
1F
100
AcDbEntity
  8
0
  6
Continuous
 62
     7
370
    15
100
AcDbCircle
 10
-244.4914634146
 20
1345.2996674438
 30
0.0
 40
2.510000000000027
100
AcDbArc
 50
283.8482527894
 51
343.8482527894
  0
LINE
  5
EC
330
1F
100
AcDbEntity
  8
0
  6
Continuous
 62
     7
370
    15
100
AcDbLine
 10
-241.9815595069
 20
1291.7489922305
 30
0.0
 11
-241.9813806929
 21
1288.8506940266
 31
0.0
  0
LINE
  5
ED
330
1F
100
AcDbEntity
  8
0
  6
Continuous
 62
     7
370
    15
100
AcDbLine
 10
-244.4916899123
 20
1293.1979662438
 30
0.0
 11
-241.9815595069
 21
1291.7489922305
 31
0.0
  0
LINE
  5
EE
330
1F
100
AcDbEntity
  8
0
  6
Continuous
 62
     7
370
    15
100
AcDbLine
 10
-247.0015818991
 20
1291.7486420532
 30
0.0
 11
-244.4916899123
 21
1293.1979662438
 31
0.0
  0
LINE
  5
EF
330
1F
100
AcDbEntity
  8
0
  6
Continuous
 62
     7
370
    15
100
AcDbLine
 10
-244.4912726798
 20
1287.4013698359
 30
0.0
 11
-247.0013434806
 21
1288.8503438493
 31
0.0
  0
LINE
  5
F0
330
1F
100
AcDbEntity
  8
0
  6
Continuous
 62
     7
370
    15
100
AcDbLine
 10
-241.9813806929
 20
1288.8506940266
 30
0.0
 11
-244.4912726798
 21
1287.4013698359
 31
0.0
  0
CIRCLE
  5
F1
330
1F
100
AcDbEntity
  8
0
  6
Continuous
 62
     7
370
    15
100
AcDbCircle
 10
-244.4914634146
 20
1290.2996674438
 30
0.0
 40
7.784999999999976
  0
LINE
  5
F2
330
1F
100
AcDbEntity
  8
0
  6
Continuous
 62
     7
370
    15
100
AcDbLine
 10
-247.0013434806
 20
1288.8503438493
 30
0.0
 11
-247.0015818991
 21
1291.7486420532
 31
0.0
  0
ARC
  5
F3
330
1F
100
AcDbEntity
  8
0
  6
Continuous
 62
     7
370
    15
100
AcDbCircle
 10
-244.4914634146
 20
1290.2996674438
 30
0.0
 40
2.510000000000264
100
AcDbArc
 50
0.0040336572
 51
60.0040336572
  0
ARC
  5
F4
330
1F
100
AcDbEntity
  8
0
  6
Continuous
 62
     7
370
    15
100
AcDbCircle
 10
-244.4914634146
 20
1290.2996674438
 30
0.0
 40
2.510000000000093
100
AcDbArc
 50
120.0040336572
 51
180.0040336572
  0
ARC
  5
F5
330
1F
100
AcDbEntity
  8
0
  6
Continuous
 62
     7
370
    15
100
AcDbCircle
 10
-244.4914634146
 20
1290.2996674438
 30
0.0
 40
2.510000000000264
100
AcDbArc
 50
60.0040336572
 51
120.0040336572
  0
ARC
  5
F6
330
1F
100
AcDbEntity
  8
0
  6
Continuous
 62
     7
370
    15
100
AcDbCircle
 10
-244.4914634146
 20
1290.2996674438
 30
0.0
 40
2.509999999999885
100
AcDbArc
 50
240.0040336572
 51
300.0040336572
  0
ARC
  5
F7
330
1F
100
AcDbEntity
  8
0
  6
Continuous
 62
     7
370
    15
100
AcDbCircle
 10
-244.4914634146
 20
1290.2996674438
 30
0.0
 40
2.509999999999958
100
AcDbArc
 50
300.0040336572
 51
0.0040336572
  0
ARC
  5
F8
330
1F
100
AcDbEntity
  8
0
  6
Continuous
 62
     7
370
    15
100
AcDbCircle
 10
-244.4914634146
 20
1290.2996674438
 30
0.0
 40
2.509999999999986
100
AcDbArc
 50
180.0040336572
 51
240.0040336572
  0
LINE
  5
F9
330
1F
100
AcDbEntity
  8
0
  6
Continuous
 62
     7
370
    15
100
AcDbLine
 10
-944.4912607588
 20
1287.4013698359
 30
0.0
 11
-947.0013613619
 21
1288.8503438493
 31
0.0
  0
LINE
  5
FA
330
1F
100
AcDbEntity
  8
0
  6
Continuous
 62
     7
370
    15
100
AcDbLine
 10
-941.9813613214
 20
1288.8506940266
 30
0.0
 11
-944.4912607588
 21
1287.4013698359
 31
0.0
  0
LINE
  5
FB
330
1F
100
AcDbEntity
  8
0
  6
Continuous
 62
     7
370
    15
100
AcDbLine
 10
-944.4916705408
 20
1293.1979662438
 30
0.0
 11
-941.9815624871
 21
1291.7489922305
 31
0.0
  0
CIRCLE
  5
FC
330
1F
100
AcDbEntity
  8
0
  6
Continuous
 62
     7
370
    15
100
AcDbCircle
 10
-944.4914634146
 20
1290.2996674438
 30
0.0
 40
7.784999999999948
  0
LINE
  5
FD
330
1F
100
AcDbEntity
  8
0
  6
Continuous
 62
     7
370
    15
100
AcDbLine
 10
-947.0013613619
 20
1288.8503438493
 30
0.0
 11
-947.0015625276
 21
1291.7486420532
 31
0.0
  0
LINE
  5
FE
330
1F
100
AcDbEntity
  8
0
  6
Continuous
 62
     7
370
    15
100
AcDbLine
 10
-947.0015625276
 20
1291.7486420532
 30
0.0
 11
-944.4916705408
 21
1293.1979662438
 31
0.0
  0
LINE
  5
FF
330
1F
100
AcDbEntity
  8
0
  6
Continuous
 62
     7
370
    15
100
AcDbLine
 10
-941.9815624871
 20
1291.7489922305
 30
0.0
 11
-941.9813613214
 21
1288.8506940266
 31
0.0
  0
ARC
  5
100
330
1F
100
AcDbEntity
  8
0
  6
Continuous
 62
     7
370
    15
100
AcDbCircle
 10
-944.4914634146
 20
1290.2996674438
 30
0.0
 40
2.510000000000271
100
AcDbArc
 50
120.0040336572
 51
180.0040336572
  0
ARC
  5
101
330
1F
100
AcDbEntity
  8
0
  6
Continuous
 62
     7
370
    15
100
AcDbCircle
 10
-944.4914634146
 20
1290.2996674438
 30
0.0
 40
2.50999999999993
100
AcDbArc
 50
300.0040336572
 51
0.0040336572
  0
ARC
  5
102
330
1F
100
AcDbEntity
  8
0
  6
Continuous
 62
     7
370
    15
100
AcDbCircle
 10
-944.4914634146
 20
1290.2996674438
 30
0.0
 40
2.510000000000164
100
AcDbArc
 50
60.0040336572
 51
120.0040336572
  0
ARC
  5
103
330
1F
100
AcDbEntity
  8
0
  6
Continuous
 62
     7
370
    15
100
AcDbCircle
 10
-944.4914634146
 20
1290.2996674438
 30
0.0
 40
2.509999999999899
100
AcDbArc
 50
240.0040336572
 51
300.0040336572
  0
ARC
  5
104
330
1F
100
AcDbEntity
  8
0
  6
Continuous
 62
     7
370
    15
100
AcDbCircle
 10
-944.4914634146
 20
1290.2996674438
 30
0.0
 40
2.510000000000271
100
AcDbArc
 50
180.0040336572
 51
240.0040336572
  0
ARC
  5
105
330
1F
100
AcDbEntity
  8
0
  6
Continuous
 62
     7
370
    15
100
AcDbCircle
 10
-944.4914634146
 20
1290.2996674438
 30
0.0
 40
2.50999999999993
100
AcDbArc
 50
0.0040336572
 51
60.0040336572
  0
LINE
  5
106
330
1F
100
AcDbEntity
  8
0
  6
Continuous
 62
     7
370
    15
100
AcDbLine
 10
-247.0015818991
 20
1420.7486389836
 30
0.0
 11
-244.4916899123
 21
1422.1979650368
 31
0.0
  0
LINE
  5
107
330
1F
100
AcDbEntity
  8
0
  6
Continuous
 62
     7
370
    15
100
AcDbLine
 10
-244.4912726798
 20
1416.401368629
 30
0.0
 11
-247.0013434806
 21
1417.8503407796
 31
0.0
  0
LINE
  5
108
330
1F
100
AcDbEntity
  8
0
  6
Continuous
 62
     7
370
    15
100
AcDbLine
 10
-244.4916899123
 20
1422.1979650368
 30
0.0
 11
-241.9815595069
 21
1420.7489928862
 31
0.0
  0
LINE
  5
109
330
1F
100
AcDbEntity
  8
0
  6
Continuous
 62
     7
370
    15
100
AcDbLine
 10
-247.0013434806
 20
1417.8503407796
 30
0.0
 11
-247.0015818991
 21
1420.7486389836
 31
0.0
  0
CIRCLE
  5
10A
330
1F
100
AcDbEntity
  8
0
  6
Continuous
 62
     7
370
    15
100
AcDbCircle
 10
-244.4914634146
 20
1419.2996674438
 30
0.0
 40
7.784999999999976
  0
LINE
  5
10B
330
1F
100
AcDbEntity
  8
0
  6
Continuous
 62
     7
370
    15
100
AcDbLine
 10
-241.9813806929
 20
1417.8506946822
 30
0.0
 11
-244.4912726798
 21
1416.401368629
 31
0.0
  0
LINE
  5
10C
330
1F
100
AcDbEntity
  8
0
  6
Continuous
 62
     7
370
    15
100
AcDbLine
 10
-241.9815595069
 20
1420.7489928862
 30
0.0
 11
-241.9813806929
 21
1417.8506946822
 31
0.0
  0
ARC
  5
10D
330
1F
100
AcDbEntity
  8
0
  6
Continuous
 62
     7
370
    15
100
AcDbCircle
 10
-244.4914634146
 20
1419.2996674438
 30
0.0
 40
2.510000000000079
100
AcDbArc
 50
300.0040336572
 51
0.0040336572
  0
ARC
  5
10E
330
1F
100
AcDbEntity
  8
0
  6
Continuous
 62
     7
370
    15
100
AcDbCircle
 10
-244.4914634146
 20
1419.2996674438
 30
0.0
 40
2.510000000000079
100
AcDbArc
 50
240.0040336572
 51
300.0040336572
  0
ARC
  5
10F
330
1F
100
AcDbEntity
  8
0
  6
Continuous
 62
     7
370
    15
100
AcDbCircle
 10
-244.4914634146
 20
1419.2996674438
 30
0.0
 40
2.509999999999986
100
AcDbArc
 50
180.0040336572
 51
240.0040336572
  0
ARC
  5
110
330
1F
100
AcDbEntity
  8
0
  6
Continuous
 62
     7
370
    15
100
AcDbCircle
 10
-244.4914634146
 20
1419.2996674438
 30
0.0
 40
2.510000000000093
100
AcDbArc
 50
120.0040336572
 51
180.0040336572
  0
ARC
  5
111
330
1F
100
AcDbEntity
  8
0
  6
Continuous
 62
     7
370
    15
100
AcDbCircle
 10
-244.4914634146
 20
1419.2996674438
 30
0.0
 40
2.510000000000093
100
AcDbArc
 50
60.0040336572
 51
120.0040336572
  0
ARC
  5
112
330
1F
100
AcDbEntity
  8
0
  6
Continuous
 62
     7
370
    15
100
AcDbCircle
 10
-244.4914634146
 20
1419.2996674438
 30
0.0
 40
2.510000000000067
100
AcDbArc
 50
0.0040336572
 51
60.0040336572
  0
CIRCLE
  5
113
330
1F
100
AcDbEntity
  8
0
  6
Continuous
 62
     7
370
    15
100
AcDbCircle
 10
-944.4914634146
 20
1419.2996674438
 30
0.0
 40
7.784999999999948
  0
LINE
  5
114
330
1F
100
AcDbEntity
  8
0
  6
Continuous
 62
     7
370
    15
100
AcDbLine
 10
-941.9813613214
 20
1417.8506946822
 30
0.0
 11
-944.4912607588
 21
1416.401368629
 31
0.0
  0
LINE
  5
115
330
1F
100
AcDbEntity
  8
0
  6
Continuous
 62
     7
370
    15
100
AcDbLine
 10
-941.9815624871
 20
1420.7489928862
 30
0.0
 11
-941.9813613214
 21
1417.8506946822
 31
0.0
  0
LINE
  5
116
330
1F
100
AcDbEntity
  8
0
  6
Continuous
 62
     7
370
    15
100
AcDbLine
 10
-944.4912607588
 20
1416.401368629
 30
0.0
 11
-947.0013613619
 21
1417.8503407796
 31
0.0
  0
LINE
  5
117
330
1F
100
AcDbEntity
  8
0
  6
Continuous
 62
     7
370
    15
100
AcDbLine
 10
-947.0015625276
 20
1420.7486389836
 30
0.0
 11
-944.4916705408
 21
1422.1979650368
 31
0.0
  0
LINE
  5
118
330
1F
100
AcDbEntity
  8
0
  6
Continuous
 62
     7
370
    15
100
AcDbLine
 10
-947.0013613619
 20
1417.8503407796
 30
0.0
 11
-947.0015625276
 21
1420.7486389836
 31
0.0
  0
LINE
  5
119
330
1F
100
AcDbEntity
  8
0
  6
Continuous
 62
     7
370
    15
100
AcDbLine
 10
-944.4916705408
 20
1422.1979650368
 30
0.0
 11
-941.9815624871
 21
1420.7489928862
 31
0.0
  0
ARC
  5
11A
330
1F
100
AcDbEntity
  8
0
  6
Continuous
 62
     7
370
    15
100
AcDbCircle
 10
-944.4914634146
 20
1419.2996674438
 30
0.0
 40
2.510000000000039
100
AcDbArc
 50
0.0040336572
 51
60.0040336572
  0
ARC
  5
11B
330
1F
100
AcDbEntity
  8
0
  6
Continuous
 62
     7
370
    15
100
AcDbCircle
 10
-944.4914634146
 20
1419.2996674438
 30
0.0
 40
2.510000000000043
100
AcDbArc
 50
120.0040336572
 51
180.0040336572
  0
ARC
  5
11C
330
1F
100
AcDbEntity
  8
0
  6
Continuous
 62
     7
370
    15
100
AcDbCircle
 10
-944.4914634146
 20
1419.2996674438
 30
0.0
 40
2.510000000000043
100
AcDbArc
 50
180.0040336572
 51
240.0040336572
  0
ARC
  5
11D
330
1F
100
AcDbEntity
  8
0
  6
Continuous
 62
     7
370
    15
100
AcDbCircle
 10
-944.4914634146
 20
1419.2996674438
 30
0.0
 40
2.510000000000039
100
AcDbArc
 50
60.0040336572
 51
120.0040336572
  0
ARC
  5
11E
330
1F
100
AcDbEntity
  8
0
  6
Continuous
 62
     7
370
    15
100
AcDbCircle
 10
-944.4914634146
 20
1419.2996674438
 30
0.0
 40
2.509999999999994
100
AcDbArc
 50
300.0040336572
 51
0.0040336572
  0
ARC
  5
11F
330
1F
100
AcDbEntity
  8
0
  6
Continuous
 62
     7
370
    15
100
AcDbCircle
 10
-944.4914634146
 20
1419.2996674438
 30
0.0
 40
2.509999999999994
100
AcDbArc
 50
240.0040336572
 51
300.0040336572
  0
LINE
  5
120
330
1F
100
AcDbEntity
  8
0
  6
Continuous
 62
     7
370
    15
100
AcDbLine
 10
-947.3226751008
 20
1479.9196338912
 30
0.0
 11
-945.370168499
 21
1482.0615566035
 31
0.0
  0
LINE
  5
121
330
1F
100
AcDbEntity
  8
0
  6
Continuous
 62
     7
370
    15
100
AcDbLine
 10
-946.4439759769
 20
1477.1577483674
 30
0.0
 11
-947.3226751008
 21
1479.9196338912
 31
0.0
  0
LINE
  5
122
330
1F
100
AcDbEntity
  8
0
  6
Continuous
 62
     7
370
    15
100
AcDbLine
 10
-943.6127628007
 20
1476.5377781054
 30
0.0
 11
-946.4439759769
 21
1477.1577483674
 31
0.0
  0
LINE
  5
123
330
1F
100
AcDbEntity
  8
0
  6
Continuous
 62
     7
370
    15
100
AcDbLine
 10
-941.6602487483
 20
1478.6797008177
 30
0.0
 11
-943.6127628007
 21
1476.5377781054
 31
0.0
  0
LINE
  5
124
330
1F
100
AcDbEntity
  8
0
  6
Continuous
 62
     7
370
    15
100
AcDbLine
 10
-942.5389478721
 20
1481.4415863415
 30
0.0
 11
-941.6602487483
 21
1478.6797008177
 31
0.0
  0
CIRCLE
  5
125
330
1F
100
AcDbEntity
  8
0
  6
Continuous
 62
     7
370
    15
100
AcDbCircle
 10
-944.4914634146
 20
1479.2996674438
 30
0.0
 40
7.784999999999807
  0
LINE
  5
126
330
1F
100
AcDbEntity
  8
0
  6
Continuous
 62
     7
370
    15
100
AcDbLine
 10
-945.370168499
 20
1482.0615566035
 30
0.0
 11
-942.5389478721
 21
1481.4415863415
 31
0.0
  0
ARC
  5
127
330
1F
100
AcDbEntity
  8
0
  6
Continuous
 62
     7
370
    15
100
AcDbCircle
 10
-944.4914634146
 20
1479.2996674438
 30
0.0
 40
2.510000000000077
100
AcDbArc
 50
257.6486180877
 51
317.6486180877
  0
ARC
  5
128
330
1F
100
AcDbEntity
  8
0
  6
Continuous
 62
     7
370
    15
100
AcDbCircle
 10
-944.4914634146
 20
1479.2996674438
 30
0.0
 40
2.510000000000192
100
AcDbArc
 50
77.6486180877
 51
137.6486180877
  0
ARC
  5
129
330
1F
100
AcDbEntity
  8
0
  6
Continuous
 62
     7
370
    15
100
AcDbCircle
 10
-944.4914634146
 20
1479.2996674438
 30
0.0
 40
2.510000000000213
100
AcDbArc
 50
197.6486180877
 51
257.6486180877
  0
ARC
  5
12A
330
1F
100
AcDbEntity
  8
0
  6
Continuous
 62
     7
370
    15
100
AcDbCircle
 10
-944.4914634146
 20
1479.2996674438
 30
0.0
 40
2.510000000000053
100
AcDbArc
 50
17.6486180877
 51
77.6486180877
  0
ARC
  5
12B
330
1F
100
AcDbEntity
  8
0
  6
Continuous
 62
     7
370
    15
100
AcDbCircle
 10
-944.4914634146
 20
1479.2996674438
 30
0.0
 40
2.50999999999994
100
AcDbArc
 50
317.6486180877
 51
17.6486180877
  0
ARC
  5
12C
330
1F
100
AcDbEntity
  8
0
  6
Continuous
 62
     7
370
    15
100
AcDbCircle
 10
-944.4914634146
 20
1479.2996674438
 30
0.0
 40
2.510000000000213
100
AcDbArc
 50
137.6486180877
 51
197.6486180877
  0
LINE
  5
12D
330
1F
100
AcDbEntity
  8
0
  6
Continuous
 62
     7
370
    15
100
AcDbLine
 10
-245.370143167
 20
1482.0615566035
 30
0.0
 11
-242.5389225402
 21
1481.4415863415
 31
0.0
  0
LINE
  5
12E
330
1F
100
AcDbEntity
  8
0
  6
Continuous
 62
     7
370
    15
100
AcDbLine
 10
-247.3226721205
 20
1479.9196338912
 30
0.0
 11
-245.370143167
 21
1482.0615566035
 31
0.0
  0
LINE
  5
12F
330
1F
100
AcDbEntity
  8
0
  6
Continuous
 62
     7
370
    15
100
AcDbLine
 10
-246.4439804473
 20
1477.1577483674
 30
0.0
 11
-247.3226721205
 21
1479.9196338912
 31
0.0
  0
LINE
  5
130
330
1F
100
AcDbEntity
  8
0
  6
Continuous
 62
     7
370
    15
100
AcDbLine
 10
-243.6127598204
 20
1476.5377781054
 30
0.0
 11
-246.4439804473
 21
1477.1577483674
 31
0.0
  0
LINE
  5
131
330
1F
100
AcDbEntity
  8
0
  6
Continuous
 62
     7
370
    15
100
AcDbLine
 10
-241.6602308669
 20
1478.6797008177
 30
0.0
 11
-243.6127598204
 21
1476.5377781054
 31
0.0
  0
LINE
  5
132
330
1F
100
AcDbEntity
  8
0
  6
Continuous
 62
     7
370
    15
100
AcDbLine
 10
-242.5389225402
 20
1481.4415863415
 30
0.0
 11
-241.6602308669
 21
1478.6797008177
 31
0.0
  0
CIRCLE
  5
133
330
1F
100
AcDbEntity
  8
0
  6
Continuous
 62
     7
370
    15
100
AcDbCircle
 10
-244.4914634146
 20
1479.2996674438
 30
0.0
 40
7.784999999999843
  0
ARC
  5
134
330
1F
100
AcDbEntity
  8
0
  6
Continuous
 62
     7
370
    15
100
AcDbCircle
 10
-244.4914634146
 20
1479.2996674438
 30
0.0
 40
2.510000000000059
100
AcDbArc
 50
77.6486180877
 51
137.6486180877
  0
ARC
  5
135
330
1F
100
AcDbEntity
  8
0
  6
Continuous
 62
     7
370
    15
100
AcDbCircle
 10
-244.4914634146
 20
1479.2996674438
 30
0.0
 40
2.510000000000059
100
AcDbArc
 50
17.6486180877
 51
77.6486180877
  0
ARC
  5
136
330
1F
100
AcDbEntity
  8
0
  6
Continuous
 62
     7
370
    15
100
AcDbCircle
 10
-244.4914634146
 20
1479.2996674438
 30
0.0
 40
2.510000000000003
100
AcDbArc
 50
317.6486180877
 51
17.6486180877
  0
ARC
  5
137
330
1F
100
AcDbEntity
  8
0
  6
Continuous
 62
     7
370
    15
100
AcDbCircle
 10
-244.4914634146
 20
1479.2996674438
 30
0.0
 40
2.510000000000053
100
AcDbArc
 50
257.6486180877
 51
317.6486180877
  0
ARC
  5
138
330
1F
100
AcDbEntity
  8
0
  6
Continuous
 62
     7
370
    15
100
AcDbCircle
 10
-244.4914634146
 20
1479.2996674438
 30
0.0
 40
2.510000000000053
100
AcDbArc
 50
197.6486180877
 51
257.6486180877
  0
ARC
  5
139
330
1F
100
AcDbEntity
  8
0
  6
Continuous
 62
     7
370
    15
100
AcDbCircle
 10
-244.4914634146
 20
1479.2996674438
 30
0.0
 40
2.509999999999982
100
AcDbArc
 50
137.6486180877
 51
197.6486180877
  0
LINE
  5
13A
330
1F
100
AcDbEntity
  8
0
  6
Continuous
 62
     7
370
    15
100
AcDbLine
 10
-975.6115610518
 20
1441.8938970824
 30
0.0
 11
-976.0172824182
 21
1438.8027145227
 31
0.0
  0
LWPOLYLINE
  5
13B
330
1F
100
AcDbEntity
  8
0
  6
Continuous
 62
     7
370
    15
100
AcDbPolyline
 90
       10
 70
   128
 43
0.0
 10
-976.0172824182
 20
1438.8027145227
 10
-976.0491038479
 20
1438.8271151742
 10
-976.0799641528
 20
1438.8507744928
 10
-976.108917109
 20
1438.8729734977
 10
-976.135083548
 20
1438.8930379113
 10
-976.1576737084
 20
1438.9103567859
 10
-976.1760021367
 20
1438.9244048556
 10
-976.1895025887
 20
1438.9347574373
 10
-976.1977727332
 20
1438.9410978814
 10
-976.2005517997
 20
1438.9432324728
  0
LINE
  5
13C
330
1F
100
AcDbEntity
  8
0
  6
Continuous
 62
     7
370
    15
100
AcDbLine
 10
-976.2005517997
 20
1438.9432324728
 30
0.0
 11
-975.824893526
 21
1441.805436339
 31
0.0
  0
LWPOLYLINE
  5
13D
330
1F
100
AcDbEntity
  8
0
  6
Continuous
 62
     7
370
    15
100
AcDbPolyline
 90
       10
 70
   128
 43
0.0
 10
-975.6115610518
 20
1441.8938970824
 10
-975.6486053385
 20
1441.8785339852
 10
-975.6845245876
 20
1441.8636402746
 10
-975.7182310142
 20
1441.8496667107
 10
-975.7486889877
 20
1441.8370342513
 10
-975.7749820866
 20
1441.8261303266
 10
-975.7963130989
 20
1441.8172864874
 10
-975.8120263734
 20
1441.8107709547
 10
-975.8216525235
 20
1441.8067774435
 10
-975.824893526
 20
1441.805436339
  0
CIRCLE
  5
13E
330
1F
100
AcDbEntity
  8
0
  6
Continuous
 62
     7
370
    15
100
AcDbCircle
 10
-978.4914634146
 20
1440.6996674438
 30
0.0
 40
12.91715728752545
  0
CIRCLE
  5
13F
330
1F
100
AcDbEntity
  8
0
  6
Continuous
 62
     7
370
    15
100
AcDbCircle
 10
-978.4914634146
 20
1440.6996674438
 30
0.0
 40
13.0585786437627
  0
LINE
  5
140
330
1F
100
AcDbEntity
  8
0
  6
Continuous
 62
     7
370
    15
100
AcDbLine
 10
-975.824893526
 20
1441.805436339
 30
0.0
 11
-978.115798048
 21
1443.5618697365
 31
0.0
  0
LWPOLYLINE
  5
141
330
1F
100
AcDbEntity
  8
0
  6
Continuous
 62
     7
370
    15
100
AcDbPolyline
 90
       10
 70
   128
 43
0.0
 10
-978.115798048
 20
1443.5618697365
 10
-978.1153435626
 20
1443.5653491577
 10
-978.1139875569
 20
1443.5756793877
 10
-978.1117747345
 20
1443.5925475021
 10
-978.1087646999
 20
1443.6154431363
 10
-978.1050617613
 20
1443.6436659356
 10
-978.1007702269
 20
1443.6763590833
 10
-978.0960242071
 20
1443.7125316521
 10
-978.0909652629
 20
1443.7510846814
 10
-978.0857498564
 20
1443.79084843
  0
LINE
  5
142
330
1F
100
AcDbEntity
  8
0
  6
Continuous
 62
     7
370
    15
100
AcDbLine
 10
-978.0857498564
 20
1443.79084843
 30
0.0
 11
-975.6115610518
 21
1441.8938970824
 31
0.0
  0
LINE
  5
143
330
1F
100
AcDbEntity
  8
0
  6
Continuous
 62
     7
370
    15
100
AcDbLine
 10
-978.115798048
 20
1443.5618697365
 30
0.0
 11
-980.7823757448
 21
1442.4561029931
 31
0.0
  0
LWPOLYLINE
  5
144
330
1F
100
AcDbEntity
  8
0
  6
Continuous
 62
     7
370
    15
100
AcDbPolyline
 90
        9
 70
   128
 43
0.0
 10
-980.7823757448
 20
1442.4561029931
 10
-980.7858924188
 20
1442.4588038286
 10
-980.7963232317
 20
1442.4667983016
 10
-980.8132584014
 20
1442.4797846635
 10
-980.8360497274
 20
1442.4972600003
 10
-980.8638254919
 20
1442.5185537597
 10
-980.8955128111
 20
1442.5428463777
 10
-980.92988979
 20
1442.5692065319
 10
-980.9656451263
 20
1442.5966172179
  0
LINE
  5
145
330
1F
100
AcDbEntity
  8
0
  6
Continuous
 62
     7
370
    15
100
AcDbLine
 10
-980.9656451263
 20
1442.5966172179
 30
0.0
 11
-978.0857498564
 21
1443.79084843
 31
0.0
  0
LINE
  5
146
330
1F
100
AcDbEntity
  8
0
  6
Continuous
 62
     7
370
    15
100
AcDbLine
 10
-976.0172824182
 20
1438.8027145227
 30
0.0
 11
-978.8971776881
 21
1437.6084870358
 31
0.0
  0
LWPOLYLINE
  5
147
330
1F
100
AcDbEntity
  8
0
  6
Continuous
 62
     7
370
    15
100
AcDbPolyline
 90
        9
 70
   128
 43
0.0
 10
-978.8971776881
 20
1437.6084870358
 10
-978.8913140812
 20
1437.6531569918
 10
-978.8856814422
 20
1437.6961133142
 10
-978.880480937
 20
1437.735698249
 10
-978.8759286322
 20
1437.7703993281
 10
-978.8721958913
 20
1437.7988754471
 10
-978.8694168248
 20
1437.820035096
 10
-978.8677031912
 20
1437.8330624362
 10
-978.8671294965
 20
1437.837462004
  0
LINE
  5
148
330
1F
100
AcDbEntity
  8
0
  6
Continuous
 62
     7
370
    15
100
AcDbLine
 10
-978.8671294965
 20
1437.837462004
 30
0.0
 11
-976.2005517997
 21
1438.9432324728
 31
0.0
  0
LINE
  5
149
330
1F
100
AcDbEntity
  8
0
  6
Continuous
 62
     7
370
    15
100
AcDbLine
 10
-980.7823757448
 20
1442.4561029931
 30
0.0
 11
-981.1580340185
 21
1439.5938991269
 31
0.0
  0
LWPOLYLINE
  5
14A
330
1F
100
AcDbEntity
  8
0
  6
Continuous
 62
     7
370
    15
100
AcDbPolyline
 90
        9
 70
   128
 43
0.0
 10
-981.1580340185
 20
1439.5938991269
 10
-981.1621318378
 20
1439.5922003945
 10
-981.1742762842
 20
1439.5871675273
 10
-981.1939905204
 20
1439.5789905151
 10
-981.2205145874
 20
1439.5679897328
 10
-981.2528426566
 20
1439.5545861383
 10
-981.2897230305
 20
1439.5392900964
 10
-981.3297475495
 20
1439.5226976534
 10
-981.3713590421
 20
1439.5054383834
  0
LINE
  5
14B
330
1F
100
AcDbEntity
  8
0
  6
Continuous
 62
     7
370
    15
100
AcDbLine
 10
-981.3713590421
 20
1439.5054383834
 30
0.0
 11
-980.9656451263
 21
1442.5966172179
 31
0.0
  0
LINE
  5
14C
330
1F
100
AcDbEntity
  8
0
  6
Continuous
 62
     7
370
    15
100
AcDbLine
 10
-981.1580340185
 20
1439.5938991269
 30
0.0
 11
-978.8671294965
 21
1437.837462004
 31
0.0
  0
LINE
  5
14D
330
1F
100
AcDbEntity
  8
0
  6
Continuous
 62
     7
370
    15
100
AcDbLine
 10
-978.8971776881
 20
1437.6084870358
 30
0.0
 11
-981.3713590421
 21
1439.5054383834
 31
0.0
  0
CIRCLE
  5
14E
330
1F
100
AcDbEntity
  8
0
  6
Continuous
 62
     7
370
    15
100
AcDbCircle
 10
-978.4914634146
 20
1440.6996674438
 30
0.0
 40
14.94142135623723
  0
CIRCLE
  5
14F
330
1F
100
AcDbEntity
  8
0
  6
Continuous
 62
     7
370
    15
100
AcDbCircle
 10
-978.4914634146
 20
1440.6996674438
 30
0.0
 40
15.00000000000001
  0
LINE
  5
150
330
1F
100
AcDbEntity
  8
0
  6
Continuous
 62
     7
370
    15
100
AcDbLine
 10
1433.1329529367
 20
1437.837462004
 30
0.0
 11
1435.7994263254
 21
1438.9432324728
 31
0.0
  0
ARC
  5
151
330
1F
100
AcDbEntity
  8
0
  6
Continuous
 62
     7
370
    15
100
AcDbCircle
 10
1432.0278839485
 20
1433.832359606
 30
0.0
 40
6.351814965886327
100
AcDbArc
 50
51.4909113834
 51
53.5747196704
  0
LINE
  5
152
330
1F
100
AcDbEntity
  8
0
  6
Continuous
 62
     7
370
    15
100
AcDbLine
 10
1435.9827702127
 20
1438.8027145227
 30
0.0
 11
1433.1029121957
 21
1437.6084870358
 31
0.0
  0
LWPOLYLINE
  5
153
330
1F
100
AcDbEntity
  8
0
  6
Continuous
 62
     7
370
    15
100
AcDbPolyline
 90
       10
 70
   128
 43
0.0
 10
1433.1329529367
 20
1437.837462004
 10
1433.1324760995
 20
1437.8339863082
 10
1433.1310455881
 20
1437.8236560782
 10
1433.1288998208
 20
1437.8067879637
 10
1433.1258003793
 20
1437.7838923296
 10
1433.1222241006
 20
1437.7556695302
 10
1433.1179325662
 20
1437.7229763826
 10
1433.1131641946
 20
1437.6868038138
 10
1433.1079189859
 20
1437.6482470592
 10
1433.1029121957
 20
1437.6084870358
  0
LINE
  5
154
330
1F
100
AcDbEntity
  8
0
  6
Continuous
 62
     7
370
    15
100
AcDbLine
 10
1430.6286041818
 20
1439.5054383834
 30
0.0
 11
1431.0343926034
 21
1442.5966172179
 31
0.0
  0
LWPOLYLINE
  5
155
330
1F
100
AcDbEntity
  8
0
  6
Continuous
 62
     7
370
    15
100
AcDbPolyline
 90
       10
 70
   128
 43
0.0
 10
1431.0343926034
 20
1442.5966172179
 10
1431.0661022745
 20
1442.5722202917
 10
1431.0970966897
 20
1442.548560973
 10
1431.1259453378
 20
1442.5263619681
 10
1431.1521713815
 20
1442.5062975546
 10
1431.1748211465
 20
1442.48897868
 10
1431.1931793771
 20
1442.4749306103
 10
1431.2065308175
 20
1442.4645780285
 10
1431.2148754678
 20
1442.4582375844
 10
1431.2177364908
 20
1442.4561029931
  0
LINE
  5
156
330
1F
100
AcDbEntity
  8
0
  6
Continuous
 62
     7
370
    15
100
AcDbLine
 10
1431.2177364908
 20
1442.4561029931
 30
0.0
 11
1430.8419888101
 21
1439.5938991269
 31
0.0
  0
LINE
  5
157
330
1F
100
AcDbEntity
  8
0
  6
Continuous
 62
     7
370
    15
100
AcDbLine
 10
1430.8419888101
 20
1439.5938991269
 30
0.0
 11
1430.6286041818
 21
1439.5054383834
 31
0.0
  0
LINE
  5
158
330
1F
100
AcDbEntity
  8
0
  6
Continuous
 62
     7
370
    15
100
AcDbLine
 10
1435.7994263254
 20
1438.9432324728
 30
0.0
 11
1436.175174006
 21
1441.805436339
 31
0.0
  0
ARC
  5
159
330
1F
100
AcDbEntity
  8
0
  6
Continuous
 62
     7
370
    15
100
AcDbCircle
 10
1412.6642616767
 20
1498.756010794
 30
0.0
 40
61.61274973017225
100
AcDbArc
 50
292.432309529
 51
292.6469141422
  0
LINE
  5
15A
330
1F
100
AcDbEntity
  8
0
  6
Continuous
 62
     7
370
    15
100
AcDbLine
 10
1436.3883202157
 20
1441.8938970824
 30
0.0
 11
1435.9827702127
 21
1438.8027145227
 31
0.0
  0
LINE
  5
15B
330
1F
100
AcDbEntity
  8
0
  6
Continuous
 62
     7
370
    15
100
AcDbLine
 10
1431.0343926034
 20
1442.5966172179
 30
0.0
 11
1433.9142506204
 21
1443.79084843
 31
0.0
  0
LWPOLYLINE
  5
15C
330
1F
100
AcDbEntity
  8
0
  6
Continuous
 62
     7
370
    15
100
AcDbPolyline
 90
        9
 70
   128
 43
0.0
 10
1433.9142506204
 20
1443.79084843
 10
1433.9082901559
 20
1443.7461747488
 10
1433.9028065286
 20
1443.7032221516
 10
1433.8975613199
 20
1443.6636334916
 10
1433.8930313669
 20
1443.6289361378
 10
1433.8892166696
 20
1443.6004600187
 10
1433.8865940652
 20
1443.5793003698
 10
1433.8846867166
 20
1443.5662693044
 10
1433.8842098794
 20
1443.5618697365
  0
LINE
  5
15D
330
1F
100
AcDbEntity
  8
0
  6
Continuous
 62
     7
370
    15
100
AcDbLine
 10
1433.8842098794
 20
1443.5618697365
 30
0.0
 11
1431.2177364908
 21
1442.4561029931
 31
0.0
  0
LINE
  5
15E
330
1F
100
AcDbEntity
  8
0
  6
Continuous
 62
     7
370
    15
100
AcDbLine
 10
1436.175174006
 20
1441.805436339
 30
0.0
 11
1433.8842098794
 21
1443.5618697365
 31
0.0
  0
LINE
  5
15F
330
1F
100
AcDbEntity
  8
0
  6
Continuous
 62
     7
370
    15
100
AcDbLine
 10
1433.9142506204
 20
1443.79084843
 30
0.0
 11
1436.3883202157
 21
1441.8938970824
 31
0.0
  0
LINE
  5
160
330
1F
100
AcDbEntity
  8
0
  6
Continuous
 62
     7
370
    15
100
AcDbLine
 10
1430.8419888101
 20
1439.5938991269
 30
0.0
 11
1433.1329529367
 21
1437.837462004
 31
0.0
  0
LINE
  5
161
330
1F
100
AcDbEntity
  8
0
  6
Continuous
 62
     7
370
    15
100
AcDbLine
 10
1433.1029121957
 20
1437.6084870358
 30
0.0
 11
1430.6286041818
 21
1439.5054383834
 31
0.0
  0
CIRCLE
  5
162
330
1F
100
AcDbEntity
  8
0
  6
Continuous
 62
     7
370
    15
100
AcDbCircle
 10
1433.5085365854
 20
1440.6996674438
 30
0.0
 40
12.91715728752534
  0
CIRCLE
  5
163
330
1F
100
AcDbEntity
  8
0
  6
Continuous
 62
     7
370
    15
100
AcDbCircle
 10
1433.5085365854
 20
1440.6996674438
 30
0.0
 40
13.05857864376257
  0
CIRCLE
  5
164
330
1F
100
AcDbEntity
  8
0
  6
Continuous
 62
     7
370
    15
100
AcDbCircle
 10
1433.5085365854
 20
1440.6996674438
 30
0.0
 40
14.94142135623763
  0
CIRCLE
  5
165
330
1F
100
AcDbEntity
  8
0
  6
Continuous
 62
     7
370
    15
100
AcDbCircle
 10
1433.5085365854
 20
1440.6996674438
 30
0.0
 40
15.00000000000022
  0
CIRCLE
  5
166
330
1F
100
AcDbEntity
  8
0
  6
Continuous
 62
     7
370
    15
100
AcDbCircle
 10
-244.4914634146
 20
1345.2996674438
 30
0.0
 40
8.750000000000163
  0
CIRCLE
  5
167
330
1F
100
AcDbEntity
  8
0
  6
Continuous
 62
     7
370
    15
100
AcDbCircle
 10
-244.4914634146
 20
1345.2996674438
 30
0.0
 40
12.99999999999983
  0
CIRCLE
  5
168
330
1F
100
AcDbEntity
  8
0
  6
Continuous
 62
     7
370
    15
100
AcDbCircle
 10
-244.4914634146
 20
1345.2996674438
 30
0.0
 40
14.99999999999986
  0
CIRCLE
  5
169
330
1F
100
AcDbEntity
  8
0
  6
Continuous
 62
     7
370
    15
100
AcDbCircle
 10
-244.4914634146
 20
1290.2996674438
 30
0.0
 40
8.750000000000123
  0
CIRCLE
  5
16A
330
1F
100
AcDbEntity
  8
0
  6
Continuous
 62
     7
370
    15
100
AcDbCircle
 10
-244.4914634146
 20
1290.2996674438
 30
0.0
 40
12.99999999999994
  0
CIRCLE
  5
16B
330
1F
100
AcDbEntity
  8
0
  6
Continuous
 62
     7
370
    15
100
AcDbCircle
 10
-244.4914634146
 20
1290.2996674438
 30
0.0
 40
14.99999999999995
  0
CIRCLE
  5
16C
330
1F
100
AcDbEntity
  8
0
  6
Continuous
 62
     7
370
    15
100
AcDbCircle
 10
-944.4914634146
 20
1345.2996674438
 30
0.0
 40
8.750000000000139
  0
CIRCLE
  5
16D
330
1F
100
AcDbEntity
  8
0
  6
Continuous
 62
     7
370
    15
100
AcDbCircle
 10
-944.4914634146
 20
1345.2996674438
 30
0.0
 40
12.99999999999987
  0
CIRCLE
  5
16E
330
1F
100
AcDbEntity
  8
0
  6
Continuous
 62
     7
370
    15
100
AcDbCircle
 10
-944.4914634146
 20
1345.2996674438
 30
0.0
 40
14.99999999999986
  0
CIRCLE
  5
16F
330
1F
100
AcDbEntity
  8
0
  6
Continuous
 62
     7
370
    15
100
AcDbCircle
 10
-944.4914634146
 20
1290.2996674438
 30
0.0
 40
8.75000000000005
  0
CIRCLE
  5
170
330
1F
100
AcDbEntity
  8
0
  6
Continuous
 62
     7
370
    15
100
AcDbCircle
 10
-944.4914634146
 20
1290.2996674438
 30
0.0
 40
13.00000000000004
  0
CIRCLE
  5
171
330
1F
100
AcDbEntity
  8
0
  6
Continuous
 62
     7
370
    15
100
AcDbCircle
 10
-944.4914634146
 20
1290.2996674438
 30
0.0
 40
14.9999999999999
  0
CIRCLE
  5
172
330
1F
100
AcDbEntity
  8
0
  6
Continuous
 62
     7
370
    15
100
AcDbCircle
 10
-944.4914634146
 20
1419.2996674438
 30
0.0
 40
8.749999999999964
  0
CIRCLE
  5
173
330
1F
100
AcDbEntity
  8
0
  6
Continuous
 62
     7
370
    15
100
AcDbCircle
 10
-944.4914634146
 20
1419.2996674438
 30
0.0
 40
12.99999999999992
  0
CIRCLE
  5
174
330
1F
100
AcDbEntity
  8
0
  6
Continuous
 62
     7
370
    15
100
AcDbCircle
 10
-944.4914634146
 20
1419.2996674438
 30
0.0
 40
14.99999999999999
  0
CIRCLE
  5
175
330
1F
100
AcDbEntity
  8
0
  6
Continuous
 62
     7
370
    15
100
AcDbCircle
 10
-244.4914634146
 20
1419.2996674438
 30
0.0
 40
15.00000000000005
  0
CIRCLE
  5
176
330
1F
100
AcDbEntity
  8
0
  6
Continuous
 62
     7
370
    15
100
AcDbCircle
 10
-244.4914634146
 20
1419.2996674438
 30
0.0
 40
13.00000000000009
  0
CIRCLE
  5
177
330
1F
100
AcDbEntity
  8
0
  6
Continuous
 62
     7
370
    15
100
AcDbCircle
 10
-244.4914634146
 20
1419.2996674438
 30
0.0
 40
8.749999999999936
  0
CIRCLE
  5
178
330
1F
100
AcDbEntity
  8
0
  6
Continuous
 62
     7
370
    15
100
AcDbCircle
 10
-944.4914634146
 20
1479.2996674438
 30
0.0
 40
15.00000000000022
  0
CIRCLE
  5
179
330
1F
100
AcDbEntity
  8
0
  6
Continuous
 62
     7
370
    15
100
AcDbCircle
 10
-944.4914634146
 20
1479.2996674438
 30
0.0
 40
13.00000000000015
  0
CIRCLE
  5
17A
330
1F
100
AcDbEntity
  8
0
  6
Continuous
 62
     7
370
    15
100
AcDbCircle
 10
-944.4914634146
 20
1479.2996674438
 30
0.0
 40
8.749999999999737
  0
CIRCLE
  5
17B
330
1F
100
AcDbEntity
  8
0
  6
Continuous
 62
     7
370
    15
100
AcDbCircle
 10
-244.4914634146
 20
1479.2996674438
 30
0.0
 40
15.00000000000002
  0
CIRCLE
  5
17C
330
1F
100
AcDbEntity
  8
0
  6
Continuous
 62
     7
370
    15
100
AcDbCircle
 10
-244.4914634146
 20
1479.2996674438
 30
0.0
 40
13.00000000000006
  0
CIRCLE
  5
17D
330
1F
100
AcDbEntity
  8
0
  6
Continuous
 62
     7
370
    15
100
AcDbCircle
 10
-244.4914634146
 20
1479.2996674438
 30
0.0
 40
8.749999999999964
  0
ARC
  5
17E
330
1F
100
AcDbEntity
  8
0
  6
Continuous
 62
     7
370
    15
100
AcDbCircle
 10
-944.4914634146
 20
1479.2996674438
 30
0.0
 40
29.00000000000011
100
AcDbArc
 50
301.1473899215
 51
180.0040336572
  0
ARC
  5
17F
330
1F
100
AcDbEntity
  8
0
  6
Continuous
 62
     7
370
    15
100
AcDbCircle
 10
-944.4914634146
 20
1479.2996674438
 30
0.0
 40
29.00000000000011
100
AcDbArc
 50
180.0040336572
 51
238.8526100785
  0
ARC
  5
180
330
1F
100
AcDbEntity
  8
0
  6
Continuous
 62
     7
370
    15
100
AcDbCircle
 10
-244.4914634146
 20
1479.2996674438
 30
0.0
 40
28.99999999999997
100
AcDbArc
 50
301.1473899215
 51
180.0040336572
  0
ARC
  5
181
330
1F
100
AcDbEntity
  8
0
  6
Continuous
 62
     7
370
    15
100
AcDbCircle
 10
-244.4914634146
 20
1479.2996674438
 30
0.0
 40
29.00000000000006
100
AcDbArc
 50
180.0040336572
 51
238.8526100785
  0
LINE
  5
182
330
1F
100
AcDbEntity
  8
0
  6
Continuous
 62
     7
370
    15
100
AcDbLine
 10
-229.4914657988
 20
1479.2996710797
 30
0.0
 11
-229.4914657988
 21
1290.2996680399
 31
0.0
  0
LINE
  5
183
330
1F
100
AcDbEntity
  8
0
  6
Continuous
 62
     7
370
    15
100
AcDbLine
 10
-259.4914371886
 20
1290.2996680399
 30
0.0
 11
-259.4914371886
 21
1479.2996710797
 31
0.0
  0
LINE
  5
184
330
1F
100
AcDbEntity
  8
0
  6
Continuous
 62
     7
370
    15
100
AcDbLine
 10
-959.4914625206
 20
1290.2996680399
 30
0.0
 11
-959.4914625206
 21
1434.4546711703
 31
0.0
  0
LINE
  5
185
330
1F
100
AcDbEntity
  8
0
  6
Continuous
 62
     7
370
    15
100
AcDbLine
 10
-959.4914625206
 20
1446.9446642955
 30
0.0
 11
-959.4914625206
 21
1479.2996710797
 31
0.0
  0
LINE
  5
186
330
1F
100
AcDbEntity
  8
0
  6
Continuous
 62
     7
370
    15
100
AcDbLine
 10
-929.4914613285
 20
1479.2996710797
 30
0.0
 11
-929.4914613285
 21
1290.2996680399
 31
0.0
  0
LINE
  5
187
330
1F
100
AcDbEntity
  8
0
  6
Continuous
 62
     7
370
    15
100
AcDbLine
 10
1644.763819685
 20
1420.69966818
 30
0.0
 11
1652.7638209963
 21
1420.69966818
 31
0.0
  0
LINE
  5
188
330
1F
100
AcDbEntity
  8
0
  6
Continuous
 62
     7
370
    15
100
AcDbLine
 10
1652.7638209963
 20
1460.6996691485
 30
0.0
 11
1644.763819685
 21
1460.6996691485
 31
0.0
  0
LINE
  5
189
330
1F
100
AcDbEntity
  8
0
  6
Continuous
 62
     7
370
    15
100
AcDbLine
 10
1613.9638198519
 20
1456.6996684929
 30
0.0
 11
1612.1638201157
 21
1454.8996678253
 31
0.0
  0
LINE
  5
18A
330
1F
100
AcDbEntity
  8
0
  6
Continuous
 62
     7
370
    15
100
AcDbLine
 10
1612.1638201157
 20
1426.4996676405
 30
0.0
 11
1613.9638198519
 21
1424.699666973
 31
0.0
  0
LINE
  5
18B
330
1F
100
AcDbEntity
  8
0
  6
Continuous
 62
     7
370
    15
100
AcDbLine
 10
1613.9638198519
 20
1424.699666973
 30
0.0
 11
1644.763819685
 21
1424.699666973
 31
0.0
  0
LINE
  5
18C
330
1F
100
AcDbEntity
  8
0
  6
Continuous
 62
     7
370
    15
100
AcDbLine
 10
1644.763819685
 20
1456.6996684929
 30
0.0
 11
1613.9638198519
 21
1456.6996684929
 31
0.0
  0
LINE
  5
18D
330
1F
100
AcDbEntity
  8
0
  6
Continuous
 62
     7
370
    15
100
AcDbLine
 10
1611.6638200337
 20
1433.1996692976
 30
0.0
 11
1612.1638201157
 21
1433.1996692976
 31
0.0
  0
LINE
  5
18E
330
1F
100
AcDbEntity
  8
0
  6
Continuous
 62
     7
370
    15
100
AcDbLine
 10
1612.1638201157
 20
1448.1996661683
 30
0.0
 11
1611.6638200337
 21
1448.1996661683
 31
0.0
  0
LINE
  5
18F
330
1F
100
AcDbEntity
  8
0
  6
Continuous
 62
     7
370
    15
100
AcDbLine
 10
1610.6638198698
 20
1415.6996673604
 30
0.0
 11
1611.6638200337
 21
1416.6996675243
 31
0.0
  0
LINE
  5
190
330
1F
100
AcDbEntity
  8
0
  6
Continuous
 62
     7
370
    15
100
AcDbLine
 10
1611.6638200337
 20
1464.6996698042
 30
0.0
 11
1610.6638198698
 21
1465.6996643802
 31
0.0
  0
LINE
  5
191
330
1F
100
AcDbEntity
  8
0
  6
Continuous
 62
     7
370
    15
100
AcDbLine
 10
1608.663819542
 20
1415.6996673604
 30
0.0
 11
1610.6638198698
 21
1415.6996673604
 31
0.0
  0
LINE
  5
192
330
1F
100
AcDbEntity
  8
0
  6
Continuous
 62
     7
370
    15
100
AcDbLine
 10
1610.6638198698
 20
1465.6996643802
 30
0.0
 11
1608.663819542
 21
1465.6996643802
 31
0.0
  0
LINE
  5
193
330
1F
100
AcDbEntity
  8
0
  6
Continuous
 62
     7
370
    15
100
AcDbLine
 10
1635.637768356
 20
1304.7996676227
 30
0.0
 11
1634.1377690414
 21
1304.7996676227
 31
0.0
  0
LINE
  5
194
330
1F
100
AcDbEntity
  8
0
  6
Continuous
 62
     7
370
    15
100
AcDbLine
 10
1634.1377690414
 20
1275.7996684571
 30
0.0
 11
1635.637768356
 21
1275.7996684571
 31
0.0
  0
LINE
  5
195
330
1F
100
AcDbEntity
  8
0
  6
Continuous
 62
     7
370
    15
100
AcDbLine
 10
1635.637768356
 20
1359.7996673246
 30
0.0
 11
1634.1377690414
 21
1359.7996673246
 31
0.0
  0
LINE
  5
196
330
1F
100
AcDbEntity
  8
0
  6
Continuous
 62
     7
370
    15
100
AcDbLine
 10
1634.1377690414
 20
1330.7996681591
 30
0.0
 11
1635.637768356
 21
1330.7996681591
 31
0.0
  0
LINE
  5
197
330
1F
100
AcDbEntity
  8
0
  6
Continuous
 62
     7
370
    15
100
AcDbLine
 10
1626.1377686614
 20
1359.2996663114
 30
0.0
 11
1624.1377685664
 21
1359.2996663114
 31
0.0
  0
LINE
  5
198
330
1F
100
AcDbEntity
  8
0
  6
Continuous
 62
     7
370
    15
100
AcDbLine
 10
1624.1377685664
 20
1331.2996691724
 30
0.0
 11
1626.1377686614
 21
1331.2996691724
 31
0.0
  0
LINE
  5
199
330
1F
100
AcDbEntity
  8
0
  6
Continuous
 62
     7
370
    15
100
AcDbLine
 10
1626.1377686614
 20
1304.2996666094
 30
0.0
 11
1624.1377685664
 21
1304.2996666094
 31
0.0
  0
LINE
  5
19A
330
1F
100
AcDbEntity
  8
0
  6
Continuous
 62
     7
370
    15
100
AcDbLine
 10
1624.1377685664
 20
1276.2996694704
 30
0.0
 11
1626.1377686614
 21
1276.2996694704
 31
0.0
  0
ARC
  5
19B
330
1F
100
AcDbEntity
  8
0
  6
Continuous
 62
     7
370
    15
100
AcDbCircle
 10
1652.9638200847
 20
1425.8996674438
 30
0.0
 40
0.2000000000000455
100
AcDbArc
 50
180.0
 51
270.0
  0
ARC
  5
19C
330
1F
100
AcDbEntity
  8
0
  6
Continuous
 62
     7
370
    15
100
AcDbCircle
 10
1652.9638200847
 20
1455.4996674438
 30
0.0
 40
0.2000000000000455
100
AcDbArc
 50
90.0
 51
180.0
  0
LINE
  5
19D
330
1F
100
AcDbEntity
  8
0
  6
Continuous
 62
     7
370
    15
100
AcDbLine
 10
1654.6809764559
 20
1455.6996664663
 30
0.0
 11
1652.9638206566
 21
1455.6996664663
 31
0.0
  0
LINE
  5
19E
330
1F
100
AcDbEntity
  8
0
  6
Continuous
 62
     7
370
    15
100
AcDbLine
 10
1652.9638206566
 20
1425.6996671369
 30
0.0
 11
1654.6809764559
 21
1425.6996671369
 31
0.0
  0
ARC
  5
19F
330
1F
100
AcDbEntity
  8
0
  6
Continuous
 62
     7
370
    15
100
AcDbCircle
 10
1654.6809773722
 20
1455.4996674438
 30
0.0
 40
0.2000000000001302
100
AcDbArc
 50
45.0
 51
90.0
  0
ARC
  5
1A0
330
1F
100
AcDbEntity
  8
0
  6
Continuous
 62
     7
370
    15
100
AcDbCircle
 10
1654.6809773722
 20
1425.8996674438
 30
0.0
 40
0.200000000000291
100
AcDbArc
 50
270.0
 51
315.0
  0
LINE
  5
1A1
330
1F
100
AcDbEntity
  8
0
  6
Continuous
 62
     7
370
    15
100
AcDbLine
 10
1654.8223996515
 20
1425.7582454642
 30
0.0
 11
1656.705241462
 21
1427.6410891374
 31
0.0
  0
LINE
  5
1A2
330
1F
100
AcDbEntity
  8
0
  6
Continuous
 62
     7
370
    15
100
AcDbLine
 10
1656.705241462
 20
1453.7582463284
 30
0.0
 11
1654.8223996515
 21
1455.6410900017
 31
0.0
  0
ARC
  5
1A3
330
1F
100
AcDbEntity
  8
0
  6
Continuous
 62
     7
370
    15
100
AcDbCircle
 10
1656.5638200847
 20
1427.7825101563
 30
0.0
 40
0.2000000000000455
100
AcDbArc
 50
315.0
 51
0.0
  0
ARC
  5
1A4
330
1F
100
AcDbEntity
  8
0
  6
Continuous
 62
     7
370
    15
100
AcDbCircle
 10
1656.5638200847
 20
1453.6168247314
 30
0.0
 40
0.2000000000000455
100
AcDbArc
 50
0.0
 51
45.0
  0
LINE
  5
1A5
330
1F
100
AcDbEntity
  8
0
  6
Continuous
 62
     7
370
    15
100
AcDbLine
 10
1622.2206114771
 20
1330.2996671458
 30
0.0
 11
1623.9377686734
 21
1330.2996671458
 31
0.0
  0
LINE
  5
1A6
330
1F
100
AcDbEntity
  8
0
  6
Continuous
 62
     7
370
    15
100
AcDbLine
 10
1623.9377686734
 20
1360.2996683379
 30
0.0
 11
1622.2206114771
 21
1360.2996683379
 31
0.0
  0
ARC
  5
1A7
330
1F
100
AcDbEntity
  8
0
  6
Continuous
 62
     7
370
    15
100
AcDbCircle
 10
1623.9377686614
 20
1360.0996674438
 30
0.0
 40
0.2000000000000455
100
AcDbArc
 50
0.0
 51
90.0
  0
ARC
  5
1A8
330
1F
100
AcDbEntity
  8
0
  6
Continuous
 62
     7
370
    15
100
AcDbCircle
 10
1623.9377686614
 20
1330.4996674438
 30
0.0
 40
0.2000000000000455
100
AcDbArc
 50
270.0
 51
0.0
  0
ARC
  5
1A9
330
1F
100
AcDbEntity
  8
0
  6
Continuous
 62
     7
370
    15
100
AcDbCircle
 10
1622.2206113739
 20
1330.4996674438
 30
0.0
 40
0.1999999999998181
100
AcDbArc
 50
225.0
 51
270.0
  0
ARC
  5
1AA
330
1F
100
AcDbEntity
  8
0
  6
Continuous
 62
     7
370
    15
100
AcDbCircle
 10
1622.2206113739
 20
1360.0996674438
 30
0.0
 40
0.2000000000000455
100
AcDbArc
 50
90.0
 51
135.0
  0
LINE
  5
1AB
330
1F
100
AcDbEntity
  8
0
  6
Continuous
 62
     7
370
    15
100
AcDbLine
 10
1622.0791901441
 20
1360.241088148
 30
0.0
 11
1620.1963474022
 21
1358.3582444747
 31
0.0
  0
LINE
  5
1AC
330
1F
100
AcDbEntity
  8
0
  6
Continuous
 62
     7
370
    15
100
AcDbLine
 10
1620.1963474022
 20
1332.2410872837
 30
0.0
 11
1622.0791901441
 21
1330.3582436105
 31
0.0
  0
ARC
  5
1AD
330
1F
100
AcDbEntity
  8
0
  6
Continuous
 62
     7
370
    15
100
AcDbCircle
 10
1620.3377686614
 20
1358.2168247314
 30
0.0
 40
0.2000000000001302
100
AcDbArc
 50
135.0
 51
180.0
  0
ARC
  5
1AE
330
1F
100
AcDbEntity
  8
0
  6
Continuous
 62
     7
370
    15
100
AcDbCircle
 10
1620.3377686614
 20
1332.3825101563
 30
0.0
 40
0.2000000000001302
100
AcDbArc
 50
180.0
 51
225.0
  0
LINE
  5
1AF
330
1F
100
AcDbEntity
  8
0
  6
Continuous
 62
     7
370
    15
100
AcDbLine
 10
1622.2206114771
 20
1275.2996674438
 30
0.0
 11
1623.9377686734
 21
1275.2996674438
 31
0.0
  0
LINE
  5
1B0
330
1F
100
AcDbEntity
  8
0
  6
Continuous
 62
     7
370
    15
100
AcDbLine
 10
1623.9377686734
 20
1305.2996686359
 30
0.0
 11
1622.2206114771
 21
1305.2996686359
 31
0.0
  0
ARC
  5
1B1
330
1F
100
AcDbEntity
  8
0
  6
Continuous
 62
     7
370
    15
100
AcDbCircle
 10
1623.9377686614
 20
1305.0996674438
 30
0.0
 40
0.2000000000000455
100
AcDbArc
 50
0.0
 51
90.0
  0
ARC
  5
1B2
330
1F
100
AcDbEntity
  8
0
  6
Continuous
 62
     7
370
    15
100
AcDbCircle
 10
1623.9377686614
 20
1275.4996674438
 30
0.0
 40
0.2000000000000455
100
AcDbArc
 50
270.0
 51
0.0
  0
ARC
  5
1B3
330
1F
100
AcDbEntity
  8
0
  6
Continuous
 62
     7
370
    15
100
AcDbCircle
 10
1622.2206113739
 20
1275.4996674438
 30
0.0
 40
0.2000000000001302
100
AcDbArc
 50
225.0
 51
270.0
  0
ARC
  5
1B4
330
1F
100
AcDbEntity
  8
0
  6
Continuous
 62
     7
370
    15
100
AcDbCircle
 10
1622.2206113739
 20
1305.0996674438
 30
0.0
 40
0.2000000000001302
100
AcDbArc
 50
90.0
 51
135.0
  0
LINE
  5
1B5
330
1F
100
AcDbEntity
  8
0
  6
Continuous
 62
     7
370
    15
100
AcDbLine
 10
1622.0791901441
 20
1305.2410921713
 30
0.0
 11
1620.1963474022
 21
1303.3582484981
 31
0.0
  0
LINE
  5
1B6
330
1F
100
AcDbEntity
  8
0
  6
Continuous
 62
     7
370
    15
100
AcDbLine
 10
1620.1963474022
 20
1277.2410875817
 30
0.0
 11
1622.0791901441
 21
1275.3582439085
 31
0.0
  0
ARC
  5
1B7
330
1F
100
AcDbEntity
  8
0
  6
Continuous
 62
     7
370
    15
100
AcDbCircle
 10
1620.3377686614
 20
1303.2168247314
 30
0.0
 40
0.2000000000001302
100
AcDbArc
 50
135.0
 51
180.0
  0
ARC
  5
1B8
330
1F
100
AcDbEntity
  8
0
  6
Continuous
 62
     7
370
    15
100
AcDbCircle
 10
1620.3377686614
 20
1277.3825101563
 30
0.0
 40
0.2000000000001302
100
AcDbArc
 50
180.0
 51
225.0
  0
LINE
  5
1B9
330
1F
100
AcDbEntity
  8
0
  6
Continuous
 62
     7
370
    15
100
AcDbLine
 10
1635.8377689475
 20
1305.2996686359
 30
0.0
 11
1635.637768356
 21
1305.0996652504
 31
0.0
  0
LINE
  5
1BA
330
1F
100
AcDbEntity
  8
0
  6
Continuous
 62
     7
370
    15
100
AcDbLine
 10
1635.637768356
 20
1275.4996708294
 30
0.0
 11
1635.8377689475
 21
1275.2996674438
 31
0.0
  0
LINE
  5
1BB
330
1F
100
AcDbEntity
  8
0
  6
Continuous
 62
     7
370
    15
100
AcDbLine
 10
1644.9377683902
 20
1305.2996686359
 30
0.0
 11
1635.8377689475
 21
1305.2996686359
 31
0.0
  0
LINE
  5
1BC
330
1F
100
AcDbEntity
  8
0
  6
Continuous
 62
     7
370
    15
100
AcDbLine
 10
1635.8377689475
 20
1275.2996674438
 30
0.0
 11
1644.9377683902
 21
1275.2996674438
 31
0.0
  0
LINE
  5
1BD
330
1F
100
AcDbEntity
  8
0
  6
Continuous
 62
     7
370
    15
100
AcDbLine
 10
1644.9377683902
 20
1275.2996674438
 30
0.0
 11
1645.1377680505
 21
1275.4996708294
 31
0.0
  0
LINE
  5
1BE
330
1F
100
AcDbEntity
  8
0
  6
Continuous
 62
     7
370
    15
100
AcDbLine
 10
1645.1377680505
 20
1305.0996652504
 30
0.0
 11
1644.9377683902
 21
1305.2996686359
 31
0.0
  0
LINE
  5
1BF
330
1F
100
AcDbEntity
  8
0
  6
Continuous
 62
     7
370
    15
100
AcDbLine
 10
1644.9377683902
 20
1360.2996683379
 30
0.0
 11
1635.8377689475
 21
1360.2996683379
 31
0.0
  0
LINE
  5
1C0
330
1F
100
AcDbEntity
  8
0
  6
Continuous
 62
     7
370
    15
100
AcDbLine
 10
1635.8377689475
 20
1330.2996671458
 30
0.0
 11
1644.9377683902
 21
1330.2996671458
 31
0.0
  0
LINE
  5
1C1
330
1F
100
AcDbEntity
  8
0
  6
Continuous
 62
     7
370
    15
100
AcDbLine
 10
1635.8377689475
 20
1360.2996683379
 30
0.0
 11
1635.637768356
 21
1360.0996686777
 31
0.0
  0
LINE
  5
1C2
330
1F
100
AcDbEntity
  8
0
  6
Continuous
 62
     7
370
    15
100
AcDbLine
 10
1635.637768356
 20
1330.4996705314
 30
0.0
 11
1635.8377689475
 21
1330.2996671458
 31
0.0
  0
LINE
  5
1C3
330
1F
100
AcDbEntity
  8
0
  6
Continuous
 62
     7
370
    15
100
AcDbLine
 10
1644.9377683902
 20
1330.2996671458
 30
0.0
 11
1645.1377680505
 21
1330.4996705314
 31
0.0
  0
LINE
  5
1C4
330
1F
100
AcDbEntity
  8
0
  6
Continuous
 62
     7
370
    15
100
AcDbLine
 10
1645.1377680505
 20
1360.0996686777
 30
0.0
 11
1644.9377683902
 21
1360.2996683379
 31
0.0
  0
LINE
  5
1C5
330
1F
100
AcDbEntity
  8
0
  6
Continuous
 62
     7
370
    15
100
AcDbLine
 10
1654.1377695257
 20
1360.2996683379
 30
0.0
 11
1651.137769034
 21
1360.2996683379
 31
0.0
  0
LINE
  5
1C6
330
1F
100
AcDbEntity
  8
0
  6
Continuous
 62
     7
370
    15
100
AcDbLine
 10
1651.137769034
 20
1330.2996671458
 30
0.0
 11
1654.1377695257
 21
1330.2996671458
 31
0.0
  0
LINE
  5
1C7
330
1F
100
AcDbEntity
  8
0
  6
Continuous
 62
     7
370
    15
100
AcDbLine
 10
1654.1377695257
 20
1330.2996671458
 30
0.0
 11
1656.1377679909
 21
1332.2996637484
 31
0.0
  0
LINE
  5
1C8
330
1F
100
AcDbEntity
  8
0
  6
Continuous
 62
     7
370
    15
100
AcDbLine
 10
1656.1377679909
 20
1358.2996680101
 30
0.0
 11
1654.1377695257
 21
1360.2996683379
 31
0.0
  0
LINE
  5
1C9
330
1F
100
AcDbEntity
  8
0
  6
Continuous
 62
     7
370
    15
100
AcDbLine
 10
1654.1377695257
 20
1305.2996686359
 30
0.0
 11
1651.137769034
 21
1305.2996686359
 31
0.0
  0
LINE
  5
1CA
330
1F
100
AcDbEntity
  8
0
  6
Continuous
 62
     7
370
    15
100
AcDbLine
 10
1651.137769034
 20
1275.2996674438
 30
0.0
 11
1654.1377695257
 21
1275.2996674438
 31
0.0
  0
LINE
  5
1CB
330
1F
100
AcDbEntity
  8
0
  6
Continuous
 62
     7
370
    15
100
AcDbLine
 10
1654.1377695257
 20
1275.2996674438
 30
0.0
 11
1656.1377679909
 21
1277.2996640464
 31
0.0
  0
LINE
  5
1CC
330
1F
100
AcDbEntity
  8
0
  6
Continuous
 62
     7
370
    15
100
AcDbLine
 10
1656.1377679909
 20
1303.2996645828
 30
0.0
 11
1654.1377695257
 21
1305.2996686359
 31
0.0
  0
LINE
  5
1CD
330
1F
100
AcDbEntity
  8
0
  6
Continuous
 62
     7
370
    15
100
AcDbLine
 10
1651.137769034
 20
1404.2996676338
 30
0.0
 11
1654.1377695257
 21
1404.2996676338
 31
0.0
  0
LINE
  5
1CE
330
1F
100
AcDbEntity
  8
0
  6
Continuous
 62
     7
370
    15
100
AcDbLine
 10
1654.1377695257
 20
1404.2996676338
 30
0.0
 11
1656.1377679909
 21
1406.299667496
 31
0.0
  0
LINE
  5
1CF
330
1F
100
AcDbEntity
  8
0
  6
Continuous
 62
     7
370
    15
100
AcDbLine
 10
1654.1377695257
 20
1494.2996642252
 30
0.0
 11
1651.137769034
 21
1494.2996642252
 31
0.0
  0
LINE
  5
1D0
330
1F
100
AcDbEntity
  8
0
  6
Continuous
 62
     7
370
    15
100
AcDbLine
 10
1651.137769034
 20
1464.2996704837
 30
0.0
 11
1654.1377695257
 21
1464.2996704837
 31
0.0
  0
LINE
  5
1D1
330
1F
100
AcDbEntity
  8
0
  6
Continuous
 62
     7
370
    15
100
AcDbLine
 10
1654.1377695257
 20
1464.2996704837
 30
0.0
 11
1656.1377679909
 21
1466.2996670862
 31
0.0
  0
LINE
  5
1D2
330
1F
100
AcDbEntity
  8
0
  6
Continuous
 62
     7
370
    15
100
AcDbLine
 10
1656.1377679909
 20
1492.2996676227
 30
0.0
 11
1654.1377695257
 21
1494.2996642252
 31
0.0
  0
LINE
  5
1D3
330
1F
100
AcDbEntity
  8
0
  6
Continuous
 62
     7
370
    15
100
AcDbLine
 10
1616.137768885
 20
1412.2996675482
 30
0.0
 11
1617.1377690489
 21
1411.2996673842
 31
0.0
  0
LINE
  5
1D4
330
1F
100
AcDbEntity
  8
0
  6
Continuous
 62
     7
370
    15
100
AcDbLine
 10
1617.1377690489
 20
1411.2996673842
 30
0.0
 11
1644.9377683902
 21
1411.2996673842
 31
0.0
  0
LINE
  5
1D5
330
1F
100
AcDbEntity
  8
0
  6
Continuous
 62
     7
370
    15
100
AcDbLine
 10
1644.9377683902
 20
1411.2996673842
 30
0.0
 11
1645.1377680505
 21
1411.4996670445
 31
0.0
  0
ARC
  5
1D6
330
1F
100
AcDbEntity
  8
0
  6
Continuous
 62
     7
370
    15
100
AcDbCircle
 10
1616.2206113739
 20
1464.4996674438
 30
0.0
 40
0.2000000000000455
100
AcDbArc
 50
225.0
 51
270.0
  0
ARC
  5
1D7
330
1F
100
AcDbEntity
  8
0
  6
Continuous
 62
     7
370
    15
100
AcDbCircle
 10
1616.2206113739
 20
1494.0996674438
 30
0.0
 40
0.2000000000000455
100
AcDbArc
 50
90.0
 51
135.0
  0
LINE
  5
1D8
330
1F
100
AcDbEntity
  8
0
  6
Continuous
 62
     7
370
    15
100
AcDbLine
 10
1616.2206109593
 20
1464.2996704837
 30
0.0
 11
1616.9377684573
 21
1464.2996704837
 31
0.0
  0
LINE
  5
1D9
330
1F
100
AcDbEntity
  8
0
  6
Continuous
 62
     7
370
    15
100
AcDbLine
 10
1616.9377684573
 20
1494.2996642252
 30
0.0
 11
1616.2206109593
 21
1494.2996642252
 31
0.0
  0
ARC
  5
1DA
330
1F
100
AcDbEntity
  8
0
  6
Continuous
 62
     7
370
    15
100
AcDbCircle
 10
1616.9377686614
 20
1494.0996674438
 30
0.0
 40
0.2000000000000455
100
AcDbArc
 50
359.9999999999
 51
90.0
  0
ARC
  5
1DB
330
1F
100
AcDbEntity
  8
0
  6
Continuous
 62
     7
370
    15
100
AcDbCircle
 10
1616.9377686614
 20
1464.4996674438
 30
0.0
 40
0.2000000000000455
100
AcDbArc
 50
270.0
 51
0.0
  0
LINE
  5
1DC
330
1F
100
AcDbEntity
  8
0
  6
Continuous
 62
     7
370
    15
100
AcDbLine
 10
1616.0791896263
 20
1494.2410877605
 30
0.0
 11
1614.1963468844
 21
1492.3582440873
 31
0.0
  0
LINE
  5
1DD
330
1F
100
AcDbEntity
  8
0
  6
Continuous
 62
     7
370
    15
100
AcDbLine
 10
1614.1963468844
 20
1466.2410906216
 30
0.0
 11
1616.0791896263
 21
1464.3582469483
 31
0.0
  0
ARC
  5
1DE
330
1F
100
AcDbEntity
  8
0
  6
Continuous
 62
     7
370
    15
100
AcDbCircle
 10
1614.3377686614
 20
1492.2168247314
 30
0.0
 40
0.2000000000000455
100
AcDbArc
 50
135.0000000001
 51
180.0
  0
ARC
  5
1DF
330
1F
100
AcDbEntity
  8
0
  6
Continuous
 62
     7
370
    15
100
AcDbCircle
 10
1614.3377686614
 20
1466.3825101563
 30
0.0
 40
0.2000000000000455
100
AcDbArc
 50
180.0
 51
224.9999999999
  0
LINE
  5
1E0
330
1F
100
AcDbEntity
  8
0
  6
Continuous
 62
     7
370
    15
100
AcDbLine
 10
1617.6377681995
 20
1489.0496647616
 30
0.0
 11
1617.1377690489
 21
1489.0496647616
 31
0.0
  0
LINE
  5
1E1
330
1F
100
AcDbEntity
  8
0
  6
Continuous
 62
     7
370
    15
100
AcDbLine
 10
1617.1377690489
 20
1469.5496699472
 30
0.0
 11
1617.6377681995
 21
1469.5496699472
 31
0.0
  0
LINE
  5
1E2
330
1F
100
AcDbEntity
  8
0
  6
Continuous
 62
     7
370
    15
100
AcDbLine
 10
1619.1377684454
 20
1508.2996702453
 30
0.0
 11
1617.6377681995
 21
1508.2996702453
 31
0.0
  0
LINE
  5
1E3
330
1F
100
AcDbEntity
  8
0
  6
Continuous
 62
     7
370
    15
100
AcDbLine
 10
1638.6377688477
 20
1508.2996702453
 30
0.0
 11
1637.1377686018
 21
1508.2996702453
 31
0.0
  0
LINE
  5
1E4
330
1F
100
AcDbEntity
  8
0
  6
Continuous
 62
     7
370
    15
100
AcDbLine
 10
1620.15819717
 20
1508.2996702453
 30
0.0
 11
1619.1377684454
 21
1508.2996702453
 31
0.0
  0
ARC
  5
1E5
330
1F
100
AcDbEntity
  8
0
  6
Continuous
 62
     7
370
    15
100
AcDbCircle
 10
1628.1638200847
 20
1517.8996674438
 30
0.0
 40
12.50000000000006
100
AcDbArc
 50
230.1746287392
 51
309.8253712608
  0
LINE
  5
1E6
330
1F
100
AcDbEntity
  8
0
  6
Continuous
 62
     7
370
    15
100
AcDbLine
 10
1637.1377686018
 20
1508.2996702453
 30
0.0
 11
1636.1694427187
 21
1508.2996702453
 31
0.0
  0
LINE
  5
1E7
330
1F
100
AcDbEntity
  8
0
  6
Continuous
 62
     7
370
    15
100
AcDbLine
 10
1649.7877685333
 20
1275.2996674438
 30
0.0
 11
1651.137769034
 21
1275.2996674438
 31
0.0
  0
LINE
  5
1E8
330
1F
100
AcDbEntity
  8
0
  6
Continuous
 62
     7
370
    15
100
AcDbLine
 10
1645.1377680505
 20
1275.2996674438
 30
0.0
 11
1646.5083917583
 21
1275.2996674438
 31
0.0
  0
LINE
  5
1E9
330
1F
100
AcDbEntity
  8
0
  6
Continuous
 62
     7
370
    15
100
AcDbLine
 10
1651.137769034
 20
1494.2996642252
 30
0.0
 11
1645.1377680505
 21
1494.2996642252
 31
0.0
  0
LINE
  5
1EA
330
1F
100
AcDbEntity
  8
0
  6
Continuous
 62
     7
370
    15
100
AcDbLine
 10
1639.43776842
 20
1494.2996642252
 30
0.0
 11
1639.1377689297
 21
1493.9996665975
 31
0.0
  0
LINE
  5
1EB
330
1F
100
AcDbEntity
  8
0
  6
Continuous
 62
     7
370
    15
100
AcDbLine
 10
1639.1377689297
 20
1464.5996681114
 30
0.0
 11
1639.43776842
 21
1464.2996704837
 31
0.0
  0
LINE
  5
1EC
330
1F
100
AcDbEntity
  8
0
  6
Continuous
 62
     7
370
    15
100
AcDbLine
 10
1644.8377685601
 20
1494.2996642252
 30
0.0
 11
1639.43776842
 21
1494.2996642252
 31
0.0
  0
LINE
  5
1ED
330
1F
100
AcDbEntity
  8
0
  6
Continuous
 62
     7
370
    15
100
AcDbLine
 10
1639.43776842
 20
1464.2996704837
 30
0.0
 11
1644.8377685601
 21
1464.2996704837
 31
0.0
  0
LINE
  5
1EE
330
1F
100
AcDbEntity
  8
0
  6
Continuous
 62
     7
370
    15
100
AcDbLine
 10
1644.8377685601
 20
1464.2996704837
 30
0.0
 11
1645.1377680505
 21
1464.5996681114
 31
0.0
  0
LINE
  5
1EF
330
1F
100
AcDbEntity
  8
0
  6
Continuous
 62
     7
370
    15
100
AcDbLine
 10
1645.1377680505
 20
1493.9996665975
 30
0.0
 11
1644.8377685601
 21
1494.2996642252
 31
0.0
  0
LINE
  5
1F0
330
1F
100
AcDbEntity
  8
0
  6
Continuous
 62
     7
370
    15
100
AcDbLine
 10
1639.1377689297
 20
1489.0496647616
 30
0.0
 11
1638.6377688477
 21
1489.0496647616
 31
0.0
  0
LINE
  5
1F1
330
1F
100
AcDbEntity
  8
0
  6
Continuous
 62
     7
370
    15
100
AcDbLine
 10
1638.6377688477
 20
1469.5496699472
 30
0.0
 11
1639.1377689297
 21
1469.5496699472
 31
0.0
  0
LINE
  5
1F2
330
1F
100
AcDbEntity
  8
0
  6
Continuous
 62
     7
370
    15
100
AcDbLine
 10
1634.1377690414
 20
1398.2996673489
 30
0.0
 11
1626.1377686614
 21
1398.2996673489
 31
0.0
  0
LINE
  5
1F3
330
1F
100
AcDbEntity
  8
0
  6
Continuous
 62
     7
370
    15
100
AcDbLine
 10
1626.1377686614
 20
1398.2996673489
 30
0.0
 11
1626.1377686614
 21
1400.2996674438
 31
0.0
  0
LINE
  5
1F4
330
1F
100
AcDbEntity
  8
0
  6
Continuous
 62
     7
370
    15
100
AcDbLine
 10
1626.1377686614
 20
1400.2996674438
 30
0.0
 11
1634.1377690414
 21
1400.2996674438
 31
0.0
  0
LINE
  5
1F5
330
1F
100
AcDbEntity
  8
0
  6
Continuous
 62
     7
370
    15
100
AcDbLine
 10
1634.1377690414
 20
1400.2996674438
 30
0.0
 11
1634.1377690414
 21
1398.2996673489
 31
0.0
  0
LINE
  5
1F6
330
1F
100
AcDbEntity
  8
0
  6
Continuous
 62
     7
370
    15
100
AcDbLine
 10
1634.1377690414
 20
1398.2996673489
 30
0.0
 11
1634.1377690414
 21
-647.7004298309
 31
0.0
  0
LINE
  5
1F7
330
1F
100
AcDbEntity
  8
0
  6
Continuous
 62
     7
370
    15
100
AcDbLine
 10
1626.1377686614
 20
-647.7004298309
 30
0.0
 11
1634.1377690414
 21
-647.7004298309
 31
0.0
  0
LINE
  5
1F8
330
1F
100
AcDbEntity
  8
0
  6
Continuous
 62
     7
370
    15
100
AcDbLine
 10
1626.1377686614
 20
1398.2996673489
 30
0.0
 11
1626.1377686614
 21
-647.7004298309
 31
0.0
  0
LINE
  5
1F9
330
1F
100
AcDbEntity
  8
0
  6
Continuous
 62
     7
370
    15
100
AcDbLine
 10
1634.1377690414
 20
-649.7002848724
 30
0.0
 11
1626.1377686614
 21
-649.7002848724
 31
0.0
  0
LINE
  5
1FA
330
1F
100
AcDbEntity
  8
0
  6
Continuous
 62
     7
370
    15
100
AcDbLine
 10
1634.1377690414
 20
-647.7004298309
 30
0.0
 11
1634.1377690414
 21
-649.7002848724
 31
0.0
  0
LINE
  5
1FB
330
1F
100
AcDbEntity
  8
0
  6
Continuous
 62
     7
370
    15
100
AcDbLine
 10
1626.1377686614
 20
-649.7002848724
 30
0.0
 11
1626.1377686614
 21
-647.7004298309
 31
0.0
  0
LINE
  5
1FC
330
1F
100
AcDbEntity
  8
0
  6
Continuous
 62
     7
370
    15
100
AcDbLine
 10
1652.7638209963
 20
1460.6996691485
 30
0.0
 11
1652.7638209963
 21
1420.69966818
 31
0.0
  0
LINE
  5
1FD
330
1F
100
AcDbEntity
  8
0
  6
Continuous
 62
     7
370
    15
100
AcDbLine
 10
1644.763819685
 20
1460.6996691485
 30
0.0
 11
1644.763819685
 21
1420.69966818
 31
0.0
  0
LINE
  5
1FE
330
1F
100
AcDbEntity
  8
0
  6
Continuous
 62
     7
370
    15
100
AcDbLine
 10
1613.9638198519
 20
1456.6996684929
 30
0.0
 11
1613.9638198519
 21
1424.699666973
 31
0.0
  0
LINE
  5
1FF
330
1F
100
AcDbEntity
  8
0
  6
Continuous
 62
     7
370
    15
100
AcDbLine
 10
1612.1638201157
 20
1426.4996676405
 30
0.0
 11
1612.1638201157
 21
1454.8996678253
 31
0.0
  0
LINE
  5
200
330
1F
100
AcDbEntity
  8
0
  6
Continuous
 62
     7
370
    15
100
AcDbLine
 10
1615.5638199279
 20
1440.6996658703
 30
0.0
 11
1615.769350713
 21
1442.1198545655
 31
0.0
  0
SPLINE
  5
201
330
1F
100
AcDbEntity
  8
0
  6
Continuous
 62
     7
370
    15
100
AcDbSpline
210
0.0
220
0.0
230
1.0
 70
     8
 71
     3
 72
     9
 73
     5
 74
     0
 42
0.00000001
 43
0.00000001
 40
0.0
 40
0.0
 40
0.0
 40
0.0
 40
0.4131069906119217
 40
0.9999999999999999
 40
0.9999999999999999
 40
0.9999999999999999
 40
0.9999999999999999
 10
1615.932072324512
 20
1438.129450257636
 30
0.0
 10
1615.826523524556
 20
1438.469270043298
 30
0.0
 10
1615.571023612052
 20
1439.291865141868
 30
0.0
 10
1615.566484122571
 20
1440.179007954956
 30
0.0
 10
1615.563819927928
 20
1440.699665870286
 30
0.0
  0
LINE
  5
202
330
1F
100
AcDbEntity
  8
0
  6
Continuous
 62
     7
370
    15
100
AcDbLine
 10
1611.6638200337
 20
1464.6996698042
 30
0.0
 11
1611.6638200337
 21
1416.6996675243
 31
0.0
  0
LINE
  5
203
330
1F
100
AcDbEntity
  8
0
  6
Continuous
 62
     7
370
    15
100
AcDbLine
 10
1610.6638198698
 20
1415.6996673604
 30
0.0
 11
1610.6638198698
 21
1465.6996643802
 31
0.0
  0
LINE
  5
204
330
1F
100
AcDbEntity
  8
0
  6
Continuous
 62
     7
370
    15
100
AcDbLine
 10
1608.663819542
 20
1465.6996643802
 30
0.0
 11
1608.663819542
 21
1415.6996673604
 31
0.0
  0
CIRCLE
  5
205
330
1F
100
AcDbEntity
  8
0
  6
Continuous
 62
     7
370
    15
100
AcDbCircle
 10
1628.1638200847
 20
1440.6996674438
 30
0.0
 40
12.49999999999955
  0
CIRCLE
  5
206
330
1F
100
AcDbEntity
  8
0
  6
Continuous
 62
     7
370
    15
100
AcDbCircle
 10
1628.1638200847
 20
1440.6996674438
 30
0.0
 40
12.29999999999977
  0
LINE
  5
207
330
1F
100
AcDbEntity
  8
0
  6
Continuous
 62
     7
370
    15
100
AcDbLine
 10
1637.6377686838
 20
-639.7002944092
 30
0.0
 11
1634.6377691234
 21
-639.7002944092
 31
0.0
  0
LINE
  5
208
330
1F
100
AcDbEntity
  8
0
  6
Continuous
 62
     7
370
    15
100
AcDbLine
 10
1634.6377691234
 20
-639.7002944092
 30
0.0
 11
1634.6377691234
 21
-653.700233374
 31
0.0
  0
LINE
  5
209
330
1F
100
AcDbEntity
  8
0
  6
Continuous
 62
     7
370
    15
100
AcDbLine
 10
1625.6377686377
 20
-639.7002944092
 30
0.0
 11
1625.6377686377
 21
-653.700233374
 31
0.0
  0
LINE
  5
20A
330
1F
100
AcDbEntity
  8
0
  6
Continuous
 62
     7
370
    15
100
AcDbLine
 10
1625.6377686377
 20
-639.7002944092
 30
0.0
 11
1622.6377685534
 21
-639.7002944092
 31
0.0
  0
LINE
  5
20B
330
1F
100
AcDbEntity
  8
0
  6
Continuous
 62
     7
370
    15
100
AcDbLine
 10
1620.3377687352
 20
-640.2002581696
 30
0.0
 11
1620.3377687352
 21
-657.5003871063
 31
0.0
  0
LINE
  5
20C
330
1F
100
AcDbEntity
  8
0
  6
Continuous
 62
     7
370
    15
100
AcDbLine
 10
1620.3377687352
 20
-657.5003871063
 30
0.0
 11
1620.1377686093
 21
-657.5003871063
 31
0.0
  0
LINE
  5
20D
330
1F
100
AcDbEntity
  8
0
  6
Continuous
 62
     7
370
    15
100
AcDbLine
 10
1620.1377686093
 20
-657.5003871063
 30
0.0
 11
1620.1377686093
 21
-640.2002581696
 31
0.0
  0
LINE
  5
20E
330
1F
100
AcDbEntity
  8
0
  6
Continuous
 62
     7
370
    15
100
AcDbLine
 10
1620.3377687352
 20
-640.2002581696
 30
0.0
 11
1620.1377686093
 21
-640.2002581696
 31
0.0
  0
LINE
  5
20F
330
1F
100
AcDbEntity
  8
0
  6
Continuous
 62
     7
370
    15
100
AcDbLine
 10
1639.937768502
 20
-657.5003871063
 30
0.0
 11
1640.1377690936
 21
-657.5003871063
 31
0.0
  0
LINE
  5
210
330
1F
100
AcDbEntity
  8
0
  6
Continuous
 62
     7
370
    15
100
AcDbLine
 10
1639.937768502
 20
-657.7004202942
 30
0.0
 11
1640.1377690936
 21
-657.5003871063
 31
0.0
  0
LINE
  5
211
330
1F
100
AcDbEntity
  8
0
  6
Continuous
 62
     7
370
    15
100
AcDbLine
 10
1639.937768502
 20
-657.5003871063
 30
0.0
 11
1639.937768502
 21
-657.7004202942
 31
0.0
  0
LINE
  5
212
330
1F
100
AcDbEntity
  8
0
  6
Continuous
 62
     7
370
    15
100
AcDbLine
 10
1640.1377690936
 20
-637.900234137
 30
0.0
 11
1640.1377690936
 21
-640.2002581696
 31
0.0
  0
LINE
  5
213
330
1F
100
AcDbEntity
  8
0
  6
Continuous
 62
     7
370
    15
100
AcDbLine
 10
1640.1377690936
 20
-640.2002581696
 30
0.0
 11
1639.937768502
 21
-640.2002581696
 31
0.0
  0
LINE
  5
214
330
1F
100
AcDbEntity
  8
0
  6
Continuous
 62
     7
370
    15
100
AcDbLine
 10
1639.937768502
 20
-640.2002581696
 30
0.0
 11
1639.937768502
 21
-637.7004393677
 31
0.0
  0
LINE
  5
215
330
1F
100
AcDbEntity
  8
0
  6
Continuous
 62
     7
370
    15
100
AcDbLine
 10
1640.1377690936
 20
-637.900234137
 30
0.0
 11
1639.937768502
 21
-637.7004393677
 31
0.0
  0
LINE
  5
216
330
1F
100
AcDbEntity
  8
0
  6
Continuous
 62
     7
370
    15
100
AcDbLine
 10
1637.837768344
 20
-637.7004393677
 30
0.0
 11
1637.837768344
 21
-640.2002581696
 31
0.0
  0
LINE
  5
217
330
1F
100
AcDbEntity
  8
0
  6
Continuous
 62
     7
370
    15
100
AcDbLine
 10
1637.837768344
 20
-640.2002581696
 30
0.0
 11
1637.6377686838
 21
-640.2002581696
 31
0.0
  0
LINE
  5
218
330
1F
100
AcDbEntity
  8
0
  6
Continuous
 62
     7
370
    15
100
AcDbLine
 10
1637.6377686838
 20
-640.2002581696
 30
0.0
 11
1637.6377686838
 21
-637.900234137
 31
0.0
  0
LINE
  5
219
330
1F
100
AcDbEntity
  8
0
  6
Continuous
 62
     7
370
    15
100
AcDbLine
 10
1637.837768344
 20
-637.7004393677
 30
0.0
 11
1637.6377686838
 21
-637.900234137
 31
0.0
  0
LINE
  5
21A
330
1F
100
AcDbEntity
  8
0
  6
Continuous
 62
     7
370
    15
100
AcDbLine
 10
1620.3377687352
 20
-637.7004393677
 30
0.0
 11
1620.3377687352
 21
-640.2002581696
 31
0.0
  0
LINE
  5
21B
330
1F
100
AcDbEntity
  8
0
  6
Continuous
 62
     7
370
    15
100
AcDbLine
 10
1620.1377686093
 20
-640.2002581696
 30
0.0
 11
1620.1377686093
 21
-637.900234137
 31
0.0
  0
LINE
  5
21C
330
1F
100
AcDbEntity
  8
0
  6
Continuous
 62
     7
370
    15
100
AcDbLine
 10
1620.3377687352
 20
-637.7004393677
 30
0.0
 11
1620.1377686093
 21
-637.900234137
 31
0.0
  0
LINE
  5
21D
330
1F
100
AcDbEntity
  8
0
  6
Continuous
 62
     7
370
    15
100
AcDbLine
 10
1620.3377687352
 20
-657.5003871063
 30
0.0
 11
1620.3377687352
 21
-657.7004202942
 31
0.0
  0
LINE
  5
21E
330
1F
100
AcDbEntity
  8
0
  6
Continuous
 62
     7
370
    15
100
AcDbLine
 10
1620.1377686093
 20
-657.5003871063
 30
0.0
 11
1620.3377687352
 21
-657.7004202942
 31
0.0
  0
LINE
  5
21F
330
1F
100
AcDbEntity
  8
0
  6
Continuous
 62
     7
370
    15
100
AcDbLine
 10
1622.4377686603
 20
-640.2002581696
 30
0.0
 11
1620.3377687352
 21
-640.2002581696
 31
0.0
  0
LINE
  5
220
330
1F
100
AcDbEntity
  8
0
  6
Continuous
 62
     7
370
    15
100
AcDbLine
 10
1622.4377686603
 20
-653.9002665619
 30
0.0
 11
1622.4377686603
 21
-640.2002581696
 31
0.0
  0
LINE
  5
221
330
1F
100
AcDbEntity
  8
0
  6
Continuous
 62
     7
370
    15
100
AcDbLine
 10
1637.837768344
 20
-653.9002665619
 30
0.0
 11
1622.4377686603
 21
-653.9002665619
 31
0.0
  0
LINE
  5
222
330
1F
100
AcDbEntity
  8
0
  6
Continuous
 62
     7
370
    15
100
AcDbLine
 10
1637.837768344
 20
-640.2002581696
 30
0.0
 11
1637.837768344
 21
-653.9002665619
 31
0.0
  0
LINE
  5
223
330
1F
100
AcDbEntity
  8
0
  6
Continuous
 62
     7
370
    15
100
AcDbLine
 10
1639.937768502
 20
-640.2002581696
 30
0.0
 11
1637.837768344
 21
-640.2002581696
 31
0.0
  0
LINE
  5
224
330
1F
100
AcDbEntity
  8
0
  6
Continuous
 62
     7
370
    15
100
AcDbLine
 10
1639.937768502
 20
-657.5003871063
 30
0.0
 11
1639.937768502
 21
-640.2002581696
 31
0.0
  0
LINE
  5
225
330
1F
100
AcDbEntity
  8
0
  6
Continuous
 62
     7
370
    15
100
AcDbLine
 10
1620.3377687352
 20
-657.5003871063
 30
0.0
 11
1639.937768502
 21
-657.5003871063
 31
0.0
  0
LINE
  5
226
330
1F
100
AcDbEntity
  8
0
  6
Continuous
 62
     7
370
    15
100
AcDbLine
 10
1622.6377685534
 20
-637.900234137
 30
0.0
 11
1622.6377685534
 21
-640.2002581696
 31
0.0
  0
LINE
  5
227
330
1F
100
AcDbEntity
  8
0
  6
Continuous
 62
     7
370
    15
100
AcDbLine
 10
1622.6377685534
 20
-640.2002581696
 30
0.0
 11
1622.4377686603
 21
-640.2002581696
 31
0.0
  0
LINE
  5
228
330
1F
100
AcDbEntity
  8
0
  6
Continuous
 62
     7
370
    15
100
AcDbLine
 10
1622.4377686603
 20
-640.2002581696
 30
0.0
 11
1622.4377686603
 21
-637.7004393677
 31
0.0
  0
LINE
  5
229
330
1F
100
AcDbEntity
  8
0
  6
Continuous
 62
     7
370
    15
100
AcDbLine
 10
1622.6377685534
 20
-637.900234137
 30
0.0
 11
1622.4377686603
 21
-637.7004393677
 31
0.0
  0
LINE
  5
22A
330
1F
100
AcDbEntity
  8
0
  6
Continuous
 62
     7
370
    15
100
AcDbLine
 10
1622.4377686603
 20
-637.7004393677
 30
0.0
 11
1620.3377687352
 21
-637.7004393677
 31
0.0
  0
LINE
  5
22B
330
1F
100
AcDbEntity
  8
0
  6
Continuous
 62
     7
370
    15
100
AcDbLine
 10
1622.6377685534
 20
-640.2002581696
 30
0.0
 11
1622.6377685534
 21
-653.700233374
 31
0.0
  0
LINE
  5
22C
330
1F
100
AcDbEntity
  8
0
  6
Continuous
 62
     7
370
    15
100
AcDbLine
 10
1622.6377685534
 20
-653.700233374
 30
0.0
 11
1622.4377686603
 21
-653.9002665619
 31
0.0
  0
LINE
  5
22D
330
1F
100
AcDbEntity
  8
0
  6
Continuous
 62
     7
370
    15
100
AcDbLine
 10
1639.937768502
 20
-657.7004202942
 30
0.0
 11
1620.3377687352
 21
-657.7004202942
 31
0.0
  0
LINE
  5
22E
330
1F
100
AcDbEntity
  8
0
  6
Continuous
 62
     7
370
    15
100
AcDbLine
 10
1637.837768344
 20
-653.9002665619
 30
0.0
 11
1637.6377686838
 21
-653.700233374
 31
0.0
  0
LINE
  5
22F
330
1F
100
AcDbEntity
  8
0
  6
Continuous
 62
     7
370
    15
100
AcDbLine
 10
1637.6377686838
 20
-653.700233374
 30
0.0
 11
1637.6377686838
 21
-640.2002581696
 31
0.0
  0
LINE
  5
230
330
1F
100
AcDbEntity
  8
0
  6
Continuous
 62
     7
370
    15
100
AcDbLine
 10
1639.937768502
 20
-637.7004393677
 30
0.0
 11
1637.837768344
 21
-637.7004393677
 31
0.0
  0
LINE
  5
231
330
1F
100
AcDbEntity
  8
0
  6
Continuous
 62
     7
370
    15
100
AcDbLine
 10
1640.1377690936
 20
-640.2002581696
 30
0.0
 11
1640.1377690936
 21
-657.5003871063
 31
0.0
  0
LINE
  5
232
330
1F
100
AcDbEntity
  8
0
  6
Continuous
 62
     7
370
    15
100
AcDbLine
 10
1622.6377685534
 20
-653.700233374
 30
0.0
 11
1637.6377686838
 21
-653.700233374
 31
0.0
  0
LINE
  5
233
330
1F
100
AcDbEntity
  8
0
  6
Continuous
 62
     7
370
    15
100
AcDbLine
 10
1656.7638197893
 20
1435.7517613729
 30
0.0
 11
1656.7638197893
 21
1427.7825104704
 31
0.0
  0
LINE
  5
234
330
1F
100
AcDbEntity
  8
0
  6
Continuous
 62
     7
370
    15
100
AcDbLine
 10
1656.7638197893
 20
1453.6168231328
 30
0.0
 11
1656.7638197893
 21
1435.7517613729
 31
0.0
  0
LINE
  5
235
330
1F
100
AcDbEntity
  8
0
  6
Continuous
 62
     7
370
    15
100
AcDbLine
 10
1624.1377685664
 20
1360.0996686777
 30
0.0
 11
1624.1377685664
 21
1330.4996705314
 31
0.0
  0
LINE
  5
236
330
1F
100
AcDbEntity
  8
0
  6
Continuous
 62
     7
370
    15
100
AcDbLine
 10
1620.1377686093
 20
1332.382506754
 30
0.0
 11
1620.1377686093
 21
1358.2168250044
 31
0.0
  0
LINE
  5
237
330
1F
100
AcDbEntity
  8
0
  6
Continuous
 62
     7
370
    15
100
AcDbLine
 10
1624.1377685664
 20
1305.0996652504
 30
0.0
 11
1624.1377685664
 21
1275.4996708294
 31
0.0
  0
LINE
  5
238
330
1F
100
AcDbEntity
  8
0
  6
Continuous
 62
     7
370
    15
100
AcDbLine
 10
1620.1377686093
 20
1277.382507052
 30
0.0
 11
1620.1377686093
 21
1303.2168215772
 31
0.0
  0
LINE
  5
239
330
1F
100
AcDbEntity
  8
0
  6
Continuous
 62
     7
370
    15
100
AcDbLine
 10
1635.637768356
 20
1289.7186196109
 30
0.0
 11
1635.637768356
 21
1305.0996652504
 31
0.0
  0
LINE
  5
23A
330
1F
100
AcDbEntity
  8
0
  6
Continuous
 62
     7
370
    15
100
AcDbLine
 10
1635.637768356
 20
1275.4996708294
 30
0.0
 11
1635.637768356
 21
1289.7186196109
 31
0.0
  0
LINE
  5
23B
330
1F
100
AcDbEntity
  8
0
  6
Continuous
 62
     7
370
    15
100
AcDbLine
 10
1635.8377689475
 20
1289.7107666989
 30
0.0
 11
1635.8377689475
 21
1275.2996674438
 31
0.0
  0
LINE
  5
23C
330
1F
100
AcDbEntity
  8
0
  6
Continuous
 62
     7
370
    15
100
AcDbLine
 10
1635.8377689475
 20
1305.2996686359
 30
0.0
 11
1635.8377689475
 21
1289.7107666989
 31
0.0
  0
LINE
  5
23D
330
1F
100
AcDbEntity
  8
0
  6
Continuous
 62
     7
370
    15
100
AcDbLine
 10
1644.9377683902
 20
1289.7107666989
 30
0.0
 11
1644.9377683902
 21
1305.2996686359
 31
0.0
  0
LINE
  5
23E
330
1F
100
AcDbEntity
  8
0
  6
Continuous
 62
     7
370
    15
100
AcDbLine
 10
1644.9377683902
 20
1275.2996674438
 30
0.0
 11
1644.9377683902
 21
1289.7107666989
 31
0.0
  0
LINE
  5
23F
330
1F
100
AcDbEntity
  8
0
  6
Continuous
 62
     7
370
    15
100
AcDbLine
 10
1635.8377689475
 20
1345.2986097594
 30
0.0
 11
1635.8377689475
 21
1330.2996671458
 31
0.0
  0
LINE
  5
240
330
1F
100
AcDbEntity
  8
0
  6
Continuous
 62
     7
370
    15
100
AcDbLine
 10
1635.8377689475
 20
1360.2996683379
 30
0.0
 11
1635.8377689475
 21
1345.2986097594
 31
0.0
  0
LINE
  5
241
330
1F
100
AcDbEntity
  8
0
  6
Continuous
 62
     7
370
    15
100
AcDbLine
 10
1644.9377683902
 20
1345.2986097594
 30
0.0
 11
1644.9377683902
 21
1360.2996683379
 31
0.0
  0
LINE
  5
242
330
1F
100
AcDbEntity
  8
0
  6
Continuous
 62
     7
370
    15
100
AcDbLine
 10
1644.9377683902
 20
1330.2996671458
 30
0.0
 11
1644.9377683902
 21
1345.2986097594
 31
0.0
  0
LINE
  5
243
330
1F
100
AcDbEntity
  8
0
  6
Continuous
 62
     7
370
    15
100
AcDbLine
 10
1635.637768356
 20
1345.2986246606
 30
0.0
 11
1635.637768356
 21
1360.0996686777
 31
0.0
  0
LINE
  5
244
330
1F
100
AcDbEntity
  8
0
  6
Continuous
 62
     7
370
    15
100
AcDbLine
 10
1635.637768356
 20
1330.4996705314
 30
0.0
 11
1635.637768356
 21
1345.2986246606
 31
0.0
  0
LINE
  5
245
330
1F
100
AcDbEntity
  8
0
  6
Continuous
 62
     7
370
    15
100
AcDbLine
 10
1654.1377695257
 20
1331.9612360259
 30
0.0
 11
1654.1377695257
 21
1360.2996683379
 31
0.0
  0
LINE
  5
246
330
1F
100
AcDbEntity
  8
0
  6
Continuous
 62
     7
370
    15
100
AcDbLine
 10
1654.1377695257
 20
1330.2996671458
 30
0.0
 11
1654.1377695257
 21
1331.9612360259
 31
0.0
  0
LINE
  5
247
330
1F
100
AcDbEntity
  8
0
  6
Continuous
 62
     7
370
    15
100
AcDbLine
 10
1656.1377679909
 20
1333.739697065
 30
0.0
 11
1656.1377679909
 21
1332.2996637484
 31
0.0
  0
LINE
  5
248
330
1F
100
AcDbEntity
  8
0
  6
Continuous
 62
     7
370
    15
100
AcDbLine
 10
1656.1377679909
 20
1358.2996680101
 30
0.0
 11
1656.1377679909
 21
1333.739697065
 31
0.0
  0
LINE
  5
249
330
1F
100
AcDbEntity
  8
0
  6
Continuous
 62
     7
370
    15
100
AcDbLine
 10
1654.1377695257
 20
1282.6948157211
 30
0.0
 11
1654.1377695257
 21
1305.2996686359
 31
0.0
  0
LINE
  5
24A
330
1F
100
AcDbEntity
  8
0
  6
Continuous
 62
     7
370
    15
100
AcDbLine
 10
1654.1377695257
 20
1275.2996674438
 30
0.0
 11
1654.1377695257
 21
1282.6948157211
 31
0.0
  0
LINE
  5
24B
330
1F
100
AcDbEntity
  8
0
  6
Continuous
 62
     7
370
    15
100
AcDbLine
 10
1651.137769034
 20
1282.6948157211
 30
0.0
 11
1651.137769034
 21
1290.2996680399
 31
0.0
  0
LINE
  5
24C
330
1F
100
AcDbEntity
  8
0
  6
Continuous
 62
     7
370
    15
100
AcDbLine
 10
1651.137769034
 20
1275.2996674438
 30
0.0
 11
1651.137769034
 21
1282.6948157211
 31
0.0
  0
LINE
  5
24D
330
1F
100
AcDbEntity
  8
0
  6
Continuous
 62
     7
370
    15
100
AcDbLine
 10
1656.1377679909
 20
1283.7087950369
 30
0.0
 11
1656.1377679909
 21
1277.2996640464
 31
0.0
  0
LINE
  5
24E
330
1F
100
AcDbEntity
  8
0
  6
Continuous
 62
     7
370
    15
100
AcDbLine
 10
1656.1377679909
 20
1303.2996645828
 30
0.0
 11
1656.1377679909
 21
1283.7087950369
 31
0.0
  0
LINE
  5
24F
330
1F
100
AcDbEntity
  8
0
  6
Continuous
 62
     7
370
    15
100
AcDbLine
 10
1654.1377695257
 20
1419.2986107131
 30
0.0
 11
1654.1377695257
 21
1425.6996671369
 31
0.0
  0
LINE
  5
250
330
1F
100
AcDbEntity
  8
0
  6
Continuous
 62
     7
370
    15
100
AcDbLine
 10
1654.1377695257
 20
1404.2996676338
 30
0.0
 11
1654.1377695257
 21
1419.2986107131
 31
0.0
  0
LINE
  5
251
330
1F
100
AcDbEntity
  8
0
  6
Continuous
 62
     7
370
    15
100
AcDbLine
 10
1656.1377679909
 20
1419.2987522741
 30
0.0
 11
1656.1377679909
 21
1406.299667496
 31
0.0
  0
LINE
  5
252
330
1F
100
AcDbEntity
  8
0
  6
Continuous
 62
     7
370
    15
100
AcDbLine
 10
1656.1377679909
 20
1427.0736156662
 30
0.0
 11
1656.1377679909
 21
1419.2987522741
 31
0.0
  0
LINE
  5
253
330
1F
100
AcDbEntity
  8
0
  6
Continuous
 62
     7
370
    15
100
AcDbLine
 10
1651.137769034
 20
1479.2986130973
 30
0.0
 11
1651.137769034
 21
1494.2996642252
 31
0.0
  0
LINE
  5
254
330
1F
100
AcDbEntity
  8
0
  6
Continuous
 62
     7
370
    15
100
AcDbLine
 10
1654.1377695257
 20
1479.2986130973
 30
0.0
 11
1654.1377695257
 21
1494.2996642252
 31
0.0
  0
LINE
  5
255
330
1F
100
AcDbEntity
  8
0
  6
Continuous
 62
     7
370
    15
100
AcDbLine
 10
1654.1377695257
 20
1464.2996704837
 30
0.0
 11
1654.1377695257
 21
1479.2986130973
 31
0.0
  0
LINE
  5
256
330
1F
100
AcDbEntity
  8
0
  6
Continuous
 62
     7
370
    15
100
AcDbLine
 10
1656.1377679909
 20
1479.2987546583
 30
0.0
 11
1656.1377679909
 21
1466.2996670862
 31
0.0
  0
LINE
  5
257
330
1F
100
AcDbEntity
  8
0
  6
Continuous
 62
     7
370
    15
100
AcDbLine
 10
1656.1377679909
 20
1492.2996676227
 30
0.0
 11
1656.1377679909
 21
1479.2987546583
 31
0.0
  0
LINE
  5
258
330
1F
100
AcDbEntity
  8
0
  6
Continuous
 62
     7
370
    15
100
AcDbLine
 10
1616.137768885
 20
1412.2996675482
 30
0.0
 11
1616.137768885
 21
1424.699666973
 31
0.0
  0
LINE
  5
259
330
1F
100
AcDbEntity
  8
0
  6
Continuous
 62
     7
370
    15
100
AcDbLine
 10
1617.1377690489
 20
1424.699666973
 30
0.0
 11
1617.1377690489
 21
1411.2996673842
 31
0.0
  0
LINE
  5
25A
330
1F
100
AcDbEntity
  8
0
  6
Continuous
 62
     7
370
    15
100
AcDbLine
 10
1644.9377683902
 20
1411.2996673842
 30
0.0
 11
1644.9377683902
 21
1420.69966818
 31
0.0
  0
LINE
  5
25B
330
1F
100
AcDbEntity
  8
0
  6
Continuous
 62
     7
370
    15
100
AcDbLine
 10
1617.1377690489
 20
1477.2427520414
 30
0.0
 11
1617.1377690489
 21
1464.4996664186
 31
0.0
  0
LINE
  5
25C
330
1F
100
AcDbEntity
  8
0
  6
Continuous
 62
     7
370
    15
100
AcDbLine
 10
1617.1377690489
 20
1494.0996682902
 30
0.0
 11
1617.1377690489
 21
1477.2427520414
 31
0.0
  0
LINE
  5
25D
330
1F
100
AcDbEntity
  8
0
  6
Continuous
 62
     7
370
    15
100
AcDbLine
 10
1614.1377685571
 20
1477.5044313332
 30
0.0
 11
1614.1377685571
 21
1492.216824617
 31
0.0
  0
LINE
  5
25E
330
1F
100
AcDbEntity
  8
0
  6
Continuous
 62
     7
370
    15
100
AcDbLine
 10
1614.1377685571
 20
1466.3825100919
 30
0.0
 11
1614.1377685571
 21
1477.5044313332
 31
0.0
  0
LINE
  5
25F
330
1F
100
AcDbEntity
  8
0
  6
Continuous
 62
     7
370
    15
100
AcDbLine
 10
1617.6377681995
 20
1508.2996702453
 30
0.0
 11
1617.6377681995
 21
1456.6996684929
 31
0.0
  0
LINE
  5
260
330
1F
100
AcDbEntity
  8
0
  6
Continuous
 62
     7
370
    15
100
AcDbLine
 10
1619.1377684454
 20
1508.2996702453
 30
0.0
 11
1619.1377684454
 21
1456.6996684929
 31
0.0
  0
LINE
  5
261
330
1F
100
AcDbEntity
  8
0
  6
Continuous
 62
     7
370
    15
100
AcDbLine
 10
1638.6377688477
 20
1479.2976221701
 30
0.0
 11
1638.6377688477
 21
1508.2996702453
 31
0.0
  0
LINE
  5
262
330
1F
100
AcDbEntity
  8
0
  6
Continuous
 62
     7
370
    15
100
AcDbLine
 10
1638.6377688477
 20
1456.6996684929
 30
0.0
 11
1638.6377688477
 21
1479.2976221701
 31
0.0
  0
LINE
  5
263
330
1F
100
AcDbEntity
  8
0
  6
Continuous
 62
     7
370
    15
100
AcDbLine
 10
1637.1377686018
 20
1479.2976221701
 30
0.0
 11
1637.1377686018
 21
1508.2996702453
 31
0.0
  0
LINE
  5
264
330
1F
100
AcDbEntity
  8
0
  6
Continuous
 62
     7
370
    15
100
AcDbLine
 10
1637.1377686018
 20
1456.6996684929
 30
0.0
 11
1637.1377686018
 21
1479.2976221701
 31
0.0
  0
LINE
  5
265
330
1F
100
AcDbEntity
  8
0
  6
Continuous
 62
     7
370
    15
100
AcDbLine
 10
1619.1377684454
 20
1478.1075856348
 30
0.0
 11
1619.1377684454
 21
1508.2996702453
 31
0.0
  0
LINE
  5
266
330
1F
100
AcDbEntity
  8
0
  6
Continuous
 62
     7
370
    15
100
AcDbLine
 10
1619.1377684454
 20
1456.6996684929
 30
0.0
 11
1619.1377684454
 21
1478.1075856348
 31
0.0
  0
LINE
  5
267
330
1F
100
AcDbEntity
  8
0
  6
Continuous
 62
     7
370
    15
100
AcDbLine
 10
1620.15819717
 20
1456.6996684929
 30
0.0
 11
1620.15819717
 21
1508.2996702453
 31
0.0
  0
LINE
  5
268
330
1F
100
AcDbEntity
  8
0
  6
Continuous
 62
     7
370
    15
100
AcDbLine
 10
1636.1694427187
 20
1478.1075856348
 30
0.0
 11
1636.1694427187
 21
1456.6996684929
 31
0.0
  0
LINE
  5
269
330
1F
100
AcDbEntity
  8
0
  6
Continuous
 62
     7
370
    15
100
AcDbLine
 10
1636.1694427187
 20
1508.2996702453
 30
0.0
 11
1636.1694427187
 21
1478.1075856348
 31
0.0
  0
LINE
  5
26A
330
1F
100
AcDbEntity
  8
0
  6
Continuous
 62
     7
370
    15
100
AcDbLine
 10
1637.1377686018
 20
1478.1075856348
 30
0.0
 11
1637.1377686018
 21
1508.2996702453
 31
0.0
  0
LINE
  5
26B
330
1F
100
AcDbEntity
  8
0
  6
Continuous
 62
     7
370
    15
100
AcDbLine
 10
1637.1377686018
 20
1456.6996684929
 30
0.0
 11
1637.1377686018
 21
1478.1075856348
 31
0.0
  0
LINE
  5
26C
330
1F
100
AcDbEntity
  8
0
  6
Continuous
 62
     7
370
    15
100
AcDbLine
 10
1645.1377680505
 20
1290.2996680399
 30
0.0
 11
1651.137769034
 21
1290.2996680399
 31
0.0
  0
LINE
  5
26D
330
1F
100
AcDbEntity
  8
0
  6
Continuous
 62
     7
370
    15
100
AcDbLine
 10
1651.137769034
 20
1275.2996674438
 30
0.0
 11
1651.137769034
 21
1290.2996680399
 31
0.0
  0
ARC
  5
26E
330
1F
100
AcDbEntity
  8
0
  6
Continuous
 62
     7
370
    15
100
AcDbCircle
 10
1648.1378180904
 20
1260.3443394628
 30
0.0
 40
15.04606830648451
100
AcDbArc
 50
83.7042889556
 51
96.2170864708
  0
LINE
  5
26F
330
1F
100
AcDbEntity
  8
0
  6
Continuous
 62
     7
370
    15
100
AcDbLine
 10
1645.1377680505
 20
1275.2996674438
 30
0.0
 11
1645.1377680505
 21
1290.2996680399
 31
0.0
  0
LINE
  5
270
330
1F
100
AcDbEntity
  8
0
  6
Continuous
 62
     7
370
    15
100
AcDbLine
 10
1645.1377680505
 20
1479.2996710797
 30
0.0
 11
1651.137769034
 21
1479.2996710797
 31
0.0
  0
LINE
  5
271
330
1F
100
AcDbEntity
  8
0
  6
Continuous
 62
     7
370
    15
100
AcDbLine
 10
1651.137769034
 20
1290.2996680399
 30
0.0
 11
1651.137769034
 21
1420.69966818
 31
0.0
  0
LINE
  5
272
330
1F
100
AcDbEntity
  8
0
  6
Continuous
 62
     7
370
    15
100
AcDbLine
 10
1651.137769034
 20
1460.6996691485
 30
0.0
 11
1651.137769034
 21
1479.2996710797
 31
0.0
  0
LINE
  5
273
330
1F
100
AcDbEntity
  8
0
  6
Continuous
 62
     7
370
    15
100
AcDbLine
 10
1645.1377680505
 20
1290.2996680399
 30
0.0
 11
1645.1377680505
 21
1420.69966818
 31
0.0
  0
LINE
  5
274
330
1F
100
AcDbEntity
  8
0
  6
Continuous
 62
     7
370
    15
100
AcDbLine
 10
1645.1377680505
 20
1460.6996691485
 30
0.0
 11
1645.1377680505
 21
1479.2996710797
 31
0.0
  0
LINE
  5
275
330
1F
100
AcDbEntity
  8
0
  6
Continuous
 62
     7
370
    15
100
AcDbLine
 10
1651.137769034
 20
1479.2996710797
 30
0.0
 11
1651.137769034
 21
1494.2996642252
 31
0.0
  0
LINE
  5
276
330
1F
100
AcDbEntity
  8
0
  6
Continuous
 62
     7
370
    15
100
AcDbLine
 10
1645.1377680505
 20
1479.2996710797
 30
0.0
 11
1645.1377680505
 21
1494.2996642252
 31
0.0
  0
LINE
  5
277
330
1F
100
AcDbEntity
  8
0
  6
Continuous
 62
     7
370
    15
100
AcDbLine
 10
1639.1377689297
 20
1479.298635449
 30
0.0
 11
1639.1377689297
 21
1493.9996665975
 31
0.0
  0
LINE
  5
278
330
1F
100
AcDbEntity
  8
0
  6
Continuous
 62
     7
370
    15
100
AcDbLine
 10
1639.1377689297
 20
1464.5996681114
 30
0.0
 11
1639.1377689297
 21
1479.298635449
 31
0.0
  0
LINE
  5
279
330
1F
100
AcDbEntity
  8
0
  6
Continuous
 62
     7
370
    15
100
AcDbLine
 10
1639.43776842
 20
1479.2986130973
 30
0.0
 11
1639.43776842
 21
1464.2996704837
 31
0.0
  0
LINE
  5
27A
330
1F
100
AcDbEntity
  8
0
  6
Continuous
 62
     7
370
    15
100
AcDbLine
 10
1639.43776842
 20
1494.2996642252
 30
0.0
 11
1639.43776842
 21
1479.2986130973
 31
0.0
  0
LINE
  5
27B
330
1F
100
AcDbEntity
  8
0
  6
Continuous
 62
     7
370
    15
100
AcDbLine
 10
1644.8377685601
 20
1479.2986130973
 30
0.0
 11
1644.8377685601
 21
1494.2996642252
 31
0.0
  0
LINE
  5
27C
330
1F
100
AcDbEntity
  8
0
  6
Continuous
 62
     7
370
    15
100
AcDbLine
 10
1644.8377685601
 20
1464.2996704837
 30
0.0
 11
1644.8377685601
 21
1479.2986130973
 31
0.0
  0
LINE
  5
27D
330
1F
100
AcDbEntity
  8
0
  6
Continuous
 62
     8
370
    15
100
AcDbLine
 10
1652.9638206566
 20
1434.9539308508
 30
0.0
 11
1652.9638206566
 21
1425.6996671369
 31
0.0
  0
LINE
  5
27E
330
1F
100
AcDbEntity
  8
0
  6
Continuous
 62
     8
370
    15
100
AcDbLine
 10
1652.9638206566
 20
1455.6996664663
 30
0.0
 11
1652.9638206566
 21
1434.9539308508
 31
0.0
  0
LINE
  5
27F
330
1F
100
AcDbEntity
  8
0
  6
Continuous
 62
     8
370
    15
100
AcDbLine
 10
1654.6809764559
 20
1425.6996671369
 30
0.0
 11
1654.6809764559
 21
1455.6996664663
 31
0.0
  0
LINE
  5
280
330
1F
100
AcDbEntity
  8
0
  6
Continuous
 62
     8
370
    15
100
AcDbLine
 10
1654.8223996515
 20
1434.9763719996
 30
0.0
 11
1654.8223996515
 21
1425.7582454642
 31
0.0
  0
LINE
  5
281
330
1F
100
AcDbEntity
  8
0
  6
Continuous
 62
     8
370
    15
100
AcDbLine
 10
1654.8223996515
 20
1455.6410900017
 30
0.0
 11
1654.8223996515
 21
1434.9763719996
 31
0.0
  0
LINE
  5
282
330
1F
100
AcDbEntity
  8
0
  6
Continuous
 62
     8
370
    15
100
AcDbLine
 10
1656.705241462
 20
1435.6975919267
 30
0.0
 11
1656.705241462
 21
1453.7582463284
 31
0.0
  0
LINE
  5
283
330
1F
100
AcDbEntity
  8
0
  6
Continuous
 62
     8
370
    15
100
AcDbLine
 10
1656.705241462
 20
1427.6410891374
 30
0.0
 11
1656.705241462
 21
1435.6975919267
 31
0.0
  0
LINE
  5
284
330
1F
100
AcDbEntity
  8
0
  6
Continuous
 62
     8
370
    15
100
AcDbLine
 10
1622.2206114771
 20
1331.3206649085
 30
0.0
 11
1622.2206114771
 21
1330.2996671458
 31
0.0
  0
LINE
  5
285
330
1F
100
AcDbEntity
  8
0
  6
Continuous
 62
     8
370
    15
100
AcDbLine
 10
1622.2206114771
 20
1360.2996683379
 30
0.0
 11
1622.2206114771
 21
1331.3206649085
 31
0.0
  0
LINE
  5
286
330
1F
100
AcDbEntity
  8
0
  6
Continuous
 62
     8
370
    15
100
AcDbLine
 10
1623.9377686734
 20
1330.2996671458
 30
0.0
 11
1623.9377686734
 21
1360.2996683379
 31
0.0
  0
LINE
  5
287
330
1F
100
AcDbEntity
  8
0
  6
Continuous
 62
     8
370
    15
100
AcDbLine
 10
1622.0791901441
 20
1330.3582436105
 30
0.0
 11
1622.0791901441
 21
1360.241088148
 31
0.0
  0
LINE
  5
288
330
1F
100
AcDbEntity
  8
0
  6
Continuous
 62
     8
370
    15
100
AcDbLine
 10
1620.1963474022
 20
1358.3582444747
 30
0.0
 11
1620.1963474022
 21
1332.2410872837
 31
0.0
  0
LINE
  5
289
330
1F
100
AcDbEntity
  8
0
  6
Continuous
 62
     8
370
    15
100
AcDbLine
 10
1622.2206114771
 20
1305.0926244517
 30
0.0
 11
1622.2206114771
 21
1275.2996674438
 31
0.0
  0
LINE
  5
28A
330
1F
100
AcDbEntity
  8
0
  6
Continuous
 62
     8
370
    15
100
AcDbLine
 10
1622.2206114771
 20
1305.2996686359
 30
0.0
 11
1622.2206114771
 21
1305.0926244517
 31
0.0
  0
LINE
  5
28B
330
1F
100
AcDbEntity
  8
0
  6
Continuous
 62
     8
370
    15
100
AcDbLine
 10
1623.9377686734
 20
1275.2996674438
 30
0.0
 11
1623.9377686734
 21
1305.2996686359
 31
0.0
  0
LINE
  5
28C
330
1F
100
AcDbEntity
  8
0
  6
Continuous
 62
     8
370
    15
100
AcDbLine
 10
1622.0791901441
 20
1275.3582439085
 30
0.0
 11
1622.0791901441
 21
1305.2410921713
 31
0.0
  0
LINE
  5
28D
330
1F
100
AcDbEntity
  8
0
  6
Continuous
 62
     8
370
    15
100
AcDbLine
 10
1620.1963474022
 20
1303.3582484981
 30
0.0
 11
1620.1963474022
 21
1277.2410875817
 31
0.0
  0
LINE
  5
28E
330
1F
100
AcDbEntity
  8
0
  6
Continuous
 62
     8
370
    15
100
AcDbLine
 10
1616.2206109593
 20
1494.2996642252
 30
0.0
 11
1616.2206109593
 21
1464.2996704837
 31
0.0
  0
LINE
  5
28F
330
1F
100
AcDbEntity
  8
0
  6
Continuous
 62
     8
370
    15
100
AcDbLine
 10
1616.0791896263
 20
1477.2230974098
 30
0.0
 11
1616.0791896263
 21
1494.2410877605
 31
0.0
  0
LINE
  5
290
330
1F
100
AcDbEntity
  8
0
  6
Continuous
 62
     8
370
    15
100
AcDbLine
 10
1616.0791896263
 20
1464.3582469483
 30
0.0
 11
1616.0791896263
 21
1477.2230974098
 31
0.0
  0
LINE
  5
291
330
1F
100
AcDbEntity
  8
0
  6
Continuous
 62
     8
370
    15
100
AcDbLine
 10
1616.9377684573
 20
1477.2149539252
 30
0.0
 11
1616.9377684573
 21
1494.2996642252
 31
0.0
  0
LINE
  5
292
330
1F
100
AcDbEntity
  8
0
  6
Continuous
 62
     8
370
    15
100
AcDbLine
 10
1616.9377684573
 20
1464.2996704837
 30
0.0
 11
1616.9377684573
 21
1477.2149539252
 31
0.0
  0
LINE
  5
293
330
1F
100
AcDbEntity
  8
0
  6
Continuous
 62
     8
370
    15
100
AcDbLine
 10
1614.1963468844
 20
1477.4847767015
 30
0.0
 11
1614.1963468844
 21
1466.2410906216
 31
0.0
  0
LINE
  5
294
330
1F
100
AcDbEntity
  8
0
  6
Continuous
 62
     8
370
    15
100
AcDbLine
 10
1614.1963468844
 20
1492.3582440873
 30
0.0
 11
1614.1963468844
 21
1477.4847767015
 31
0.0
  0
LINE
  5
295
330
1F
100
AcDbEntity
  8
0
  6
Continuous
 62
     7
370
    15
100
AcDbLine
 10
-919.9914644279
 20
-709.6309130353
 30
0.0
 11
-929.965415112
 21
-709.6309130353
 31
0.0
  0
LINE
  5
296
330
1F
100
AcDbEntity
  8
0
  6
Continuous
 62
     7
370
    15
100
AcDbLine
 10
-959.0175161876
 20
-709.6309130353
 30
0.0
 11
-962.4914611497
 21
-709.6309130353
 31
0.0
  0
LINE
  5
297
330
1F
100
AcDbEntity
  8
0
  6
Continuous
 62
     7
370
    15
100
AcDbLine
 10
-994.4914626696
 20
-709.6309130353
 30
0.0
 11
-1042.4914633196
 21
-709.6309130353
 31
0.0
  0
LINE
  5
298
330
1F
100
AcDbEntity
  8
0
  6
Continuous
 62
     7
370
    15
100
AcDbLine
 10
-349.9914343276
 20
-709.6309130353
 30
0.0
 11
-905.0093228736
 21
-709.6309130353
 31
0.0
  0
LINE
  5
299
330
1F
100
AcDbEntity
  8
0
  6
Continuous
 62
     7
370
    15
100
AcDbLine
 10
220.0085585199
 20
-709.6309130353
 30
0.0
 11
-229.9653823294
 21
-709.6309130353
 31
0.0
  0
LINE
  5
29A
330
1F
100
AcDbEntity
  8
0
  6
Continuous
 62
     7
370
    15
100
AcDbLine
 10
-259.017520658
 20
-709.6309130353
 30
0.0
 11
-335.0093300261
 21
-709.6309130353
 31
0.0
  0
LINE
  5
29B
330
1F
100
AcDbEntity
  8
0
  6
Continuous
 62
     7
370
    15
100
AcDbLine
 10
790.0084917627
 20
-709.6309130353
 30
0.0
 11
234.9906628213
 21
-709.6309130353
 31
0.0
  0
LINE
  5
29C
330
1F
100
AcDbEntity
  8
0
  6
Continuous
 62
     7
370
    15
100
AcDbLine
 10
1360.0085442148
 20
-709.6309130353
 30
0.0
 11
804.9907152734
 21
-709.6309130353
 31
0.0
  0
LINE
  5
29D
330
1F
100
AcDbEntity
  8
0
  6
Continuous
 62
     7
370
    15
100
AcDbLine
 10
1497.5085918985
 20
-709.6309130353
 30
0.0
 11
1449.5084946237
 21
-709.6309130353
 31
0.0
  0
LINE
  5
29E
330
1F
100
AcDbEntity
  8
0
  6
Continuous
 62
     7
370
    15
100
AcDbLine
 10
1417.5084297738
 20
-709.6309130353
 30
0.0
 11
1374.9907677255
 21
-709.6309130353
 31
0.0
  0
LINE
  5
29F
330
1F
100
AcDbEntity
  8
0
  6
Continuous
 62
     7
370
    15
100
AcDbLine
 10
1375.058478602
 20
-734.6309134079
 30
0.0
 11
1417.5084297738
 21
-734.6309134079
 31
0.0
  0
LINE
  5
2A0
330
1F
100
AcDbEntity
  8
0
  6
Continuous
 62
     7
370
    15
100
AcDbLine
 10
1449.5084946237
 20
-734.6309134079
 30
0.0
 11
1497.5085918985
 21
-734.6309134079
 31
0.0
  0
LINE
  5
2A1
330
1F
100
AcDbEntity
  8
0
  6
Continuous
 62
     7
370
    15
100
AcDbLine
 10
805.0585453592
 20
-734.6309134079
 30
0.0
 11
1359.9904244027
 21
-734.6309134079
 31
0.0
  0
LINE
  5
2A2
330
1F
100
AcDbEntity
  8
0
  6
Continuous
 62
     7
370
    15
100
AcDbLine
 10
235.0584929071
 20
-734.6309134079
 30
0.0
 11
789.99049116
 21
-734.6309134079
 31
0.0
  0
LINE
  5
2A3
330
1F
100
AcDbEntity
  8
0
  6
Continuous
 62
     7
370
    15
100
AcDbLine
 10
-334.9414403357
 20
-734.6309134079
 30
0.0
 11
-259.4914371886
 21
-734.6309134079
 31
0.0
  0
LINE
  5
2A4
330
1F
100
AcDbEntity
  8
0
  6
Continuous
 62
     7
370
    15
100
AcDbLine
 10
-229.4914657988
 20
-734.6309134079
 30
0.0
 11
219.9904387079
 21
-734.6309134079
 31
0.0
  0
LINE
  5
2A5
330
1F
100
AcDbEntity
  8
0
  6
Continuous
 62
     7
370
    15
100
AcDbLine
 10
-904.9414629855
 20
-734.6309134079
 30
0.0
 11
-350.0094945349
 21
-734.6309134079
 31
0.0
  0
LINE
  5
2A6
330
1F
100
AcDbEntity
  8
0
  6
Continuous
 62
     7
370
    15
100
AcDbLine
 10
-1042.4914633196
 20
-734.6309134079
 30
0.0
 11
-994.4914626696
 21
-734.6309134079
 31
0.0
  0
LINE
  5
2A7
330
1F
100
AcDbEntity
  8
0
  6
Continuous
 62
     7
370
    15
100
AcDbLine
 10
-962.4914611497
 20
-734.6309134079
 30
0.0
 11
-959.4914625206
 21
-734.6309134079
 31
0.0
  0
LINE
  5
2A8
330
1F
100
AcDbEntity
  8
0
  6
Continuous
 62
     7
370
    15
100
AcDbLine
 10
-929.4914613285
 20
-734.6309134079
 30
0.0
 11
-920.0095022835
 21
-734.6309134079
 31
0.0
  0
LINE
  5
2A9
330
1F
100
AcDbEntity
  8
0
  6
Continuous
 62
     7
370
    15
100
AcDbLine
 10
-998.4914633252
 20
-738.7309129623
 30
0.0
 11
-998.4914633252
 21
-746.7309142736
 31
0.0
  0
LINE
  5
2AA
330
1F
100
AcDbEntity
  8
0
  6
Continuous
 62
     7
370
    15
100
AcDbLine
 10
1413.5084812723
 20
-738.7309129623
 30
0.0
 11
1413.5084812723
 21
-746.7309142736
 31
0.0
  0
LINE
  5
2AB
330
1F
100
AcDbEntity
  8
0
  6
Continuous
 62
     7
370
    15
100
AcDbLine
 10
1453.5084431253
 20
-746.7309142736
 30
0.0
 11
1453.5084431253
 21
-738.7309129623
 31
0.0
  0
LINE
  5
2AC
330
1F
100
AcDbEntity
  8
0
  6
Continuous
 62
     7
370
    15
100
AcDbLine
 10
1449.5084946237
 20
-707.9309131292
 30
0.0
 11
1447.7084343515
 21
-706.130913393
 31
0.0
  0
LINE
  5
2AD
330
1F
100
AcDbEntity
  8
0
  6
Continuous
 62
     7
370
    15
100
AcDbLine
 10
1419.3084900461
 20
-706.130913393
 30
0.0
 11
1417.5084297738
 21
-707.9309131292
 31
0.0
  0
LINE
  5
2AE
330
1F
100
AcDbEntity
  8
0
  6
Continuous
 62
     7
370
    15
100
AcDbLine
 10
1417.5084297738
 20
-734.6309134079
 30
0.0
 11
1417.5084297738
 21
-738.7309129623
 31
0.0
  0
LINE
  5
2AF
330
1F
100
AcDbEntity
  8
0
  6
Continuous
 62
     7
370
    15
100
AcDbLine
 10
1417.5084297738
 20
-707.9309131292
 30
0.0
 11
1417.5084297738
 21
-709.5309132052
 31
0.0
  0
LINE
  5
2B0
330
1F
100
AcDbEntity
  8
0
  6
Continuous
 62
     7
370
    15
100
AcDbLine
 10
1449.5084946237
 20
-709.5309132052
 30
0.0
 11
1449.5084946237
 21
-707.9309131292
 31
0.0
  0
LINE
  5
2B1
330
1F
100
AcDbEntity
  8
0
  6
Continuous
 62
     7
370
    15
100
AcDbLine
 10
1449.5084946237
 20
-738.7309129623
 30
0.0
 11
1449.5084946237
 21
-734.6309134079
 31
0.0
  0
LINE
  5
2B2
330
1F
100
AcDbEntity
  8
0
  6
Continuous
 62
     7
370
    15
100
AcDbLine
 10
-962.4914611497
 20
-707.9309131292
 30
0.0
 11
-964.2914618172
 21
-706.130913393
 31
0.0
  0
LINE
  5
2B3
330
1F
100
AcDbEntity
  8
0
  6
Continuous
 62
     7
370
    15
100
AcDbLine
 10
-992.691462002
 20
-706.130913393
 30
0.0
 11
-994.4914626696
 21
-707.9309131292
 31
0.0
  0
LINE
  5
2B4
330
1F
100
AcDbEntity
  8
0
  6
Continuous
 62
     7
370
    15
100
AcDbLine
 10
-994.4914626696
 20
-734.6309134079
 30
0.0
 11
-994.4914626696
 21
-738.7309129623
 31
0.0
  0
LINE
  5
2B5
330
1F
100
AcDbEntity
  8
0
  6
Continuous
 62
     7
370
    15
100
AcDbLine
 10
-994.4914626696
 20
-707.9309131292
 30
0.0
 11
-994.4914626696
 21
-709.5309132052
 31
0.0
  0
LINE
  5
2B6
330
1F
100
AcDbEntity
  8
0
  6
Continuous
 62
     7
370
    15
100
AcDbLine
 10
-962.4914611497
 20
-709.5309132052
 30
0.0
 11
-962.4914611497
 21
-707.9309131292
 31
0.0
  0
LINE
  5
2B7
330
1F
100
AcDbEntity
  8
0
  6
Continuous
 62
     7
370
    15
100
AcDbLine
 10
-962.4914611497
 20
-738.7309129623
 30
0.0
 11
-962.4914611497
 21
-734.6309134079
 31
0.0
  0
LINE
  5
2B8
330
1F
100
AcDbEntity
  8
0
  6
Continuous
 62
     7
370
    15
100
AcDbLine
 10
-349.9914343276
 20
-705.630913311
 30
0.0
 11
-349.9914343276
 21
-709.6309130353
 31
0.0
  0
LINE
  5
2B9
330
1F
100
AcDbEntity
  8
0
  6
Continuous
 62
     7
370
    15
100
AcDbLine
 10
-334.9914486327
 20
-709.6309130353
 30
0.0
 11
-334.9914486327
 21
-705.630913311
 31
0.0
  0
LINE
  5
2BA
330
1F
100
AcDbEntity
  8
0
  6
Continuous
 62
     7
370
    15
100
AcDbLine
 10
1360.0085442148
 20
-705.630913311
 30
0.0
 11
1360.0085442148
 21
-709.6309130353
 31
0.0
  0
LINE
  5
2BB
330
1F
100
AcDbEntity
  8
0
  6
Continuous
 62
     7
370
    15
100
AcDbLine
 10
1375.0086491189
 20
-709.6309130353
 30
0.0
 11
1375.0086491189
 21
-705.630913311
 31
0.0
  0
LINE
  5
2BC
330
1F
100
AcDbEntity
  8
0
  6
Continuous
 62
     7
370
    15
100
AcDbLine
 10
790.0084917627
 20
-705.630913311
 30
0.0
 11
790.0084917627
 21
-709.6309130353
 31
0.0
  0
LINE
  5
2BD
330
1F
100
AcDbEntity
  8
0
  6
Continuous
 62
     7
370
    15
100
AcDbLine
 10
805.0084774576
 20
-709.6309130353
 30
0.0
 11
805.0084774576
 21
-705.630913311
 31
0.0
  0
LINE
  5
2BE
330
1F
100
AcDbEntity
  8
0
  6
Continuous
 62
     7
370
    15
100
AcDbLine
 10
-919.9914644279
 20
-705.630913311
 30
0.0
 11
-919.9914644279
 21
-709.6309130353
 31
0.0
  0
LINE
  5
2BF
330
1F
100
AcDbEntity
  8
0
  6
Continuous
 62
     7
370
    15
100
AcDbLine
 10
-904.9914563813
 20
-709.6309130353
 30
0.0
 11
-904.9914563813
 21
-705.630913311
 31
0.0
  0
LINE
  5
2C0
330
1F
100
AcDbEntity
  8
0
  6
Continuous
 62
     7
370
    15
100
AcDbLine
 10
220.0085585199
 20
-705.630913311
 30
0.0
 11
220.0085585199
 21
-709.6309130353
 31
0.0
  0
LINE
  5
2C1
330
1F
100
AcDbEntity
  8
0
  6
Continuous
 62
     7
370
    15
100
AcDbLine
 10
235.0085442148
 20
-709.6309130353
 30
0.0
 11
235.0085442148
 21
-705.630913311
 31
0.0
  0
LINE
  5
2C2
330
1F
100
AcDbEntity
  8
0
  6
Continuous
 62
     7
370
    15
100
AcDbLine
 10
-349.9414856352
 20
-734.6309134079
 30
0.0
 11
-349.9414856352
 21
-735.5322185246
 31
0.0
  0
LINE
  5
2C3
330
1F
100
AcDbEntity
  8
0
  6
Continuous
 62
     7
370
    15
100
AcDbLine
 10
-335.0414569296
 20
-735.5322185246
 30
0.0
 11
-335.0414569296
 21
-734.6309134079
 31
0.0
  0
LINE
  5
2C4
330
1F
100
AcDbEntity
  8
0
  6
Continuous
 62
     7
370
    15
100
AcDbLine
 10
-349.9414856352
 20
-735.5322185246
 30
0.0
 11
-348.9414389052
 21
-736.5322186885
 31
0.0
  0
LINE
  5
2C5
330
1F
100
AcDbEntity
  8
0
  6
Continuous
 62
     7
370
    15
100
AcDbLine
 10
-336.041444055
 20
-736.5322186885
 30
0.0
 11
-335.0414569296
 21
-735.5322185246
 31
0.0
  0
LINE
  5
2C6
330
1F
100
AcDbEntity
  8
0
  6
Continuous
 62
     7
370
    15
100
AcDbLine
 10
220.0585072122
 20
-734.6309134079
 30
0.0
 11
220.0585072122
 21
-735.5322185246
 31
0.0
  0
LINE
  5
2C7
330
1F
100
AcDbEntity
  8
0
  6
Continuous
 62
     7
370
    15
100
AcDbLine
 10
234.9585955224
 20
-735.5322185246
 30
0.0
 11
234.9585955224
 21
-734.6309134079
 31
0.0
  0
LINE
  5
2C8
330
1F
100
AcDbEntity
  8
0
  6
Continuous
 62
     7
370
    15
100
AcDbLine
 10
220.0585072122
 20
-735.5322185246
 30
0.0
 11
221.0585539422
 21
-736.5322186885
 31
0.0
  0
LINE
  5
2C9
330
1F
100
AcDbEntity
  8
0
  6
Continuous
 62
     7
370
    15
100
AcDbLine
 10
233.9585487924
 20
-736.5322186885
 30
0.0
 11
234.9585955224
 21
-735.5322185246
 31
0.0
  0
LINE
  5
2CA
330
1F
100
AcDbEntity
  8
0
  6
Continuous
 62
     7
370
    15
100
AcDbLine
 10
790.0585596643
 20
-734.6309134079
 30
0.0
 11
790.0585596643
 21
-735.5322185246
 31
0.0
  0
LINE
  5
2CB
330
1F
100
AcDbEntity
  8
0
  6
Continuous
 62
     7
370
    15
100
AcDbLine
 10
804.9585287652
 20
-735.5322185246
 30
0.0
 11
804.9585287652
 21
-734.6309134079
 31
0.0
  0
LINE
  5
2CC
330
1F
100
AcDbEntity
  8
0
  6
Continuous
 62
     7
370
    15
100
AcDbLine
 10
790.0585596643
 20
-735.5322185246
 30
0.0
 11
791.058487185
 21
-736.5322186885
 31
0.0
  0
LINE
  5
2CD
330
1F
100
AcDbEntity
  8
0
  6
Continuous
 62
     7
370
    15
100
AcDbLine
 10
803.9584820352
 20
-736.5322186885
 30
0.0
 11
804.9585287652
 21
-735.5322185246
 31
0.0
  0
LINE
  5
2CE
330
1F
100
AcDbEntity
  8
0
  6
Continuous
 62
     7
370
    15
100
AcDbLine
 10
1360.0586121164
 20
-734.6309134079
 30
0.0
 11
1360.0586121164
 21
-735.5322185246
 31
0.0
  0
LINE
  5
2CF
330
1F
100
AcDbEntity
  8
0
  6
Continuous
 62
     7
370
    15
100
AcDbLine
 10
1374.9585812173
 20
-735.5322185246
 30
0.0
 11
1374.9585812173
 21
-734.6309134079
 31
0.0
  0
LINE
  5
2D0
330
1F
100
AcDbEntity
  8
0
  6
Continuous
 62
     7
370
    15
100
AcDbLine
 10
1360.0586121164
 20
-735.5322185246
 30
0.0
 11
1361.0585396371
 21
-736.5322186885
 31
0.0
  0
LINE
  5
2D1
330
1F
100
AcDbEntity
  8
0
  6
Continuous
 62
     7
370
    15
100
AcDbLine
 10
1373.9586536966
 20
-736.5322186885
 30
0.0
 11
1374.9585812173
 21
-735.5322185246
 31
0.0
  0
LINE
  5
2D2
330
1F
100
AcDbEntity
  8
0
  6
Continuous
 62
     7
370
    15
100
AcDbLine
 10
-919.9414635815
 20
-734.6309134079
 30
0.0
 11
-919.9414635815
 21
-735.5322185246
 31
0.0
  0
LINE
  5
2D3
330
1F
100
AcDbEntity
  8
0
  6
Continuous
 62
     7
370
    15
100
AcDbLine
 10
-905.0414646783
 20
-735.5322185246
 30
0.0
 11
-905.0414646783
 21
-734.6309134079
 31
0.0
  0
LINE
  5
2D4
330
1F
100
AcDbEntity
  8
0
  6
Continuous
 62
     7
370
    15
100
AcDbLine
 10
-919.9414635815
 20
-735.5322185246
 30
0.0
 11
-918.941461555
 21
-736.5322186885
 31
0.0
  0
LINE
  5
2D5
330
1F
100
AcDbEntity
  8
0
  6
Continuous
 62
     7
370
    15
100
AcDbLine
 10
-906.0414667048
 20
-736.5322186885
 30
0.0
 11
-905.0414646783
 21
-735.5322185246
 31
0.0
  0
LINE
  5
2D6
330
1F
100
AcDbEntity
  8
0
  6
Continuous
 62
     7
370
    15
100
AcDbLine
 10
-937.4914626398
 20
-702.6309128193
 30
0.0
 11
-937.4914626398
 21
-704.6309131471
 31
0.0
  0
LINE
  5
2D7
330
1F
100
AcDbEntity
  8
0
  6
Continuous
 62
     7
370
    15
100
AcDbLine
 10
-887.4914581694
 20
-704.6309131471
 30
0.0
 11
-887.4914581694
 21
-702.6309128193
 31
0.0
  0
LINE
  5
2D8
330
1F
100
AcDbEntity
  8
0
  6
Continuous
 62
     7
370
    15
100
AcDbLine
 10
-937.4914626398
 20
-704.6309131471
 30
0.0
 11
-936.4914606132
 21
-705.630913311
 31
0.0
  0
LINE
  5
2D9
330
1F
100
AcDbEntity
  8
0
  6
Continuous
 62
     7
370
    15
100
AcDbLine
 10
-888.491460196
 20
-705.630913311
 30
0.0
 11
-887.4914581694
 21
-704.6309131471
 31
0.0
  0
LINE
  5
2DA
330
1F
100
AcDbEntity
  8
0
  6
Continuous
 62
     7
370
    15
100
AcDbLine
 10
202.5085156045
 20
-704.6309131471
 30
0.0
 11
203.5085623346
 21
-705.630913311
 31
0.0
  0
LINE
  5
2DB
330
1F
100
AcDbEntity
  8
0
  6
Continuous
 62
     7
370
    15
100
AcDbLine
 10
251.5085404001
 20
-705.630913311
 30
0.0
 11
252.5085871301
 21
-704.6309131471
 31
0.0
  0
LINE
  5
2DC
330
1F
100
AcDbEntity
  8
0
  6
Continuous
 62
     7
370
    15
100
AcDbLine
 10
202.5085156045
 20
-702.6309128193
 30
0.0
 11
202.5085156045
 21
-704.6309131471
 31
0.0
  0
LINE
  5
2DD
330
1F
100
AcDbEntity
  8
0
  6
Continuous
 62
     7
370
    15
100
AcDbLine
 10
252.5085871301
 20
-704.6309131471
 30
0.0
 11
252.5085871301
 21
-702.6309128193
 31
0.0
  0
LINE
  5
2DE
330
1F
100
AcDbEntity
  8
0
  6
Continuous
 62
     7
370
    15
100
AcDbLine
 10
-367.4914772429
 20
-702.6309128193
 30
0.0
 11
-367.4914772429
 21
-704.6309131471
 31
0.0
  0
LINE
  5
2DF
330
1F
100
AcDbEntity
  8
0
  6
Continuous
 62
     7
370
    15
100
AcDbLine
 10
-317.491465322
 20
-704.6309131471
 30
0.0
 11
-317.491465322
 21
-702.6309128193
 31
0.0
  0
LINE
  5
2E0
330
1F
100
AcDbEntity
  8
0
  6
Continuous
 62
     7
370
    15
100
AcDbLine
 10
-367.4914772429
 20
-704.6309131471
 30
0.0
 11
-366.4914901175
 21
-705.630913311
 31
0.0
  0
LINE
  5
2E1
330
1F
100
AcDbEntity
  8
0
  6
Continuous
 62
     7
370
    15
100
AcDbLine
 10
-318.4914524474
 20
-705.630913311
 30
0.0
 11
-317.491465322
 21
-704.6309131471
 31
0.0
  0
LINE
  5
2E2
330
1F
100
AcDbEntity
  8
0
  6
Continuous
 62
     7
370
    15
100
AcDbLine
 10
772.5085680566
 20
-702.6309128193
 30
0.0
 11
772.5085680566
 21
-704.6309131471
 31
0.0
  0
LINE
  5
2E3
330
1F
100
AcDbEntity
  8
0
  6
Continuous
 62
     7
370
    15
100
AcDbLine
 10
822.5085203729
 20
-704.6309131471
 30
0.0
 11
822.5085203729
 21
-702.6309128193
 31
0.0
  0
LINE
  5
2E4
330
1F
100
AcDbEntity
  8
0
  6
Continuous
 62
     7
370
    15
100
AcDbLine
 10
772.5085680566
 20
-704.6309131471
 30
0.0
 11
773.5084955774
 21
-705.630913311
 31
0.0
  0
LINE
  5
2E5
330
1F
100
AcDbEntity
  8
0
  6
Continuous
 62
     7
370
    15
100
AcDbLine
 10
821.5085928522
 20
-705.630913311
 30
0.0
 11
822.5085203729
 21
-704.6309131471
 31
0.0
  0
LINE
  5
2E6
330
1F
100
AcDbEntity
  8
0
  6
Continuous
 62
     7
370
    15
100
AcDbLine
 10
1342.5086205087
 20
-702.6309128193
 30
0.0
 11
1342.5086205087
 21
-704.6309131471
 31
0.0
  0
LINE
  5
2E7
330
1F
100
AcDbEntity
  8
0
  6
Continuous
 62
     7
370
    15
100
AcDbLine
 10
1392.508572825
 20
-704.6309131471
 30
0.0
 11
1392.508572825
 21
-702.6309128193
 31
0.0
  0
LINE
  5
2E8
330
1F
100
AcDbEntity
  8
0
  6
Continuous
 62
     7
370
    15
100
AcDbLine
 10
1342.5086205087
 20
-704.6309131471
 30
0.0
 11
1343.5085480295
 21
-705.630913311
 31
0.0
  0
LINE
  5
2E9
330
1F
100
AcDbEntity
  8
0
  6
Continuous
 62
     7
370
    15
100
AcDbLine
 10
1391.5086453042
 20
-705.630913311
 30
0.0
 11
1392.508572825
 21
-704.6309131471
 31
0.0
  0
LINE
  5
2EA
330
1F
100
AcDbEntity
  8
0
  6
Continuous
 62
     7
370
    15
100
AcDbLine
 10
-1042.6914634456
 20
-734.6309134079
 30
0.0
 11
-1042.4914633196
 21
-734.4309137476
 31
0.0
  0
LINE
  5
2EB
330
1F
100
AcDbEntity
  8
0
  6
Continuous
 62
     7
370
    15
100
AcDbLine
 10
-1042.4914633196
 20
-709.8309136269
 30
0.0
 11
-1042.6914634456
 21
-709.6309130353
 31
0.0
  0
LINE
  5
2EC
330
1F
100
AcDbEntity
  8
0
  6
Continuous
 62
     7
370
    15
100
AcDbLine
 10
-1044.2914634197
 20
-734.6309134079
 30
0.0
 11
-1042.6914634456
 21
-734.6309134079
 31
0.0
  0
LINE
  5
2ED
330
1F
100
AcDbEntity
  8
0
  6
Continuous
 62
     7
370
    15
100
AcDbLine
 10
-1042.6914634456
 20
-709.6309130353
 30
0.0
 11
-1044.2914634197
 21
-709.6309130353
 31
0.0
  0
LINE
  5
2EE
330
1F
100
AcDbEntity
  8
0
  6
Continuous
 62
     7
370
    15
100
AcDbLine
 10
-1044.2914634197
 20
-709.6309130353
 30
0.0
 11
-1044.4914634146
 21
-709.8309136269
 31
0.0
  0
LINE
  5
2EF
330
1F
100
AcDbEntity
  8
0
  6
Continuous
 62
     7
370
    15
100
AcDbLine
 10
-1044.4914634146
 20
-734.4309137476
 30
0.0
 11
-1044.2914634197
 21
-734.6309134079
 31
0.0
  0
LINE
  5
2F0
330
1F
100
AcDbEntity
  8
0
  6
Continuous
 62
     7
370
    15
100
AcDbLine
 10
1497.7086250863
 20
-709.6309130353
 30
0.0
 11
1497.5085918985
 21
-709.8309136269
 31
0.0
  0
LINE
  5
2F1
330
1F
100
AcDbEntity
  8
0
  6
Continuous
 62
     7
370
    15
100
AcDbLine
 10
1497.5085918985
 20
-734.4309137476
 30
0.0
 11
1497.7086250863
 21
-734.6309134079
 31
0.0
  0
LINE
  5
2F2
330
1F
100
AcDbEntity
  8
0
  6
Continuous
 62
     7
370
    15
100
AcDbLine
 10
1499.3086521707
 20
-709.6309130353
 30
0.0
 11
1497.7086250863
 21
-709.6309130353
 31
0.0
  0
LINE
  5
2F3
330
1F
100
AcDbEntity
  8
0
  6
Continuous
 62
     7
370
    15
100
AcDbLine
 10
1497.7086250863
 20
-734.6309134079
 30
0.0
 11
1499.3086521707
 21
-734.6309134079
 31
0.0
  0
LINE
  5
2F4
330
1F
100
AcDbEntity
  8
0
  6
Continuous
 62
     7
370
    15
100
AcDbLine
 10
1499.3086521707
 20
-734.6309134079
 30
0.0
 11
1499.50844694
 21
-734.4309137476
 31
0.0
  0
LINE
  5
2F5
330
1F
100
AcDbEntity
  8
0
  6
Continuous
 62
     7
370
    15
100
AcDbLine
 10
1499.50844694
 20
-709.8309136269
 30
0.0
 11
1499.3086521707
 21
-709.6309130353
 31
0.0
  0
LINE
  5
2F6
330
1F
100
AcDbEntity
  8
0
  6
Continuous
 62
     7
370
    15
100
AcDbLine
 10
-963.4914631762
 20
-748.6480697331
 30
0.0
 11
-963.4914631762
 21
-746.9309139339
 31
0.0
  0
LINE
  5
2F7
330
1F
100
AcDbEntity
  8
0
  6
Continuous
 62
     7
370
    15
100
AcDbLine
 10
-993.4914643683
 20
-746.9309139339
 30
0.0
 11
-993.4914643683
 21
-748.6480697331
 31
0.0
  0
ARC
  5
2F8
330
1F
100
AcDbEntity
  8
0
  6
Continuous
 62
     7
370
    15
100
AcDbCircle
 10
-993.2914634146
 20
-746.930913362
 30
0.0
 40
0.2000000000000455
100
AcDbArc
 50
90.0
 51
180.0
  0
ARC
  5
2F9
330
1F
100
AcDbEntity
  8
0
  6
Continuous
 62
     7
370
    15
100
AcDbCircle
 10
-963.6914634146
 20
-746.930913362
 30
0.0
 40
0.2000000000000455
100
AcDbArc
 50
0.0
 51
90.0
  0
ARC
  5
2FA
330
1F
100
AcDbEntity
  8
0
  6
Continuous
 62
     7
370
    15
100
AcDbCircle
 10
-963.6914634146
 20
-748.6480706495
 30
0.0
 40
0.2000000000001302
100
AcDbArc
 50
315.0
 51
0.0
  0
ARC
  5
2FB
330
1F
100
AcDbEntity
  8
0
  6
Continuous
 62
     7
370
    15
100
AcDbCircle
 10
-993.2914634146
 20
-748.6480706495
 30
0.0
 40
0.2000000000000455
100
AcDbArc
 50
180.0
 51
225.0
  0
LINE
  5
2FC
330
1F
100
AcDbEntity
  8
0
  6
Continuous
 62
     7
370
    15
100
AcDbLine
 10
-993.4328841784
 20
-748.7894929287
 30
0.0
 11
-991.5500405051
 21
-750.6723347393
 31
0.0
  0
LINE
  5
2FD
330
1F
100
AcDbEntity
  8
0
  6
Continuous
 62
     7
370
    15
100
AcDbLine
 10
-965.4328833141
 20
-750.6723347393
 30
0.0
 11
-963.5500396409
 21
-748.7894929287
 31
0.0
  0
ARC
  5
2FE
330
1F
100
AcDbEntity
  8
0
  6
Continuous
 62
     7
370
    15
100
AcDbCircle
 10
-991.4086207022
 20
-750.530913362
 30
0.0
 40
0.1999999999999318
100
AcDbArc
 50
225.0
 51
270.0
  0
ARC
  5
2FF
330
1F
100
AcDbEntity
  8
0
  6
Continuous
 62
     7
370
    15
100
AcDbCircle
 10
-965.5743061271
 20
-750.530913362
 30
0.0
 40
0.2000000000000498
100
AcDbArc
 50
270.0
 51
315.0
  0
LINE
  5
300
330
1F
100
AcDbEntity
  8
0
  6
Continuous
 62
     7
370
    15
100
AcDbLine
 10
1448.5085671029
 20
-748.6480697331
 30
0.0
 11
1448.5085671029
 21
-746.9309139339
 31
0.0
  0
LINE
  5
301
330
1F
100
AcDbEntity
  8
0
  6
Continuous
 62
     7
370
    15
100
AcDbLine
 10
1418.5085957132
 20
-746.9309139339
 30
0.0
 11
1418.5085957132
 21
-748.6480697331
 31
0.0
  0
ARC
  5
302
330
1F
100
AcDbEntity
  8
0
  6
Continuous
 62
     7
370
    15
100
AcDbCircle
 10
1418.7085365854
 20
-746.930913362
 30
0.0
 40
0.2000000000000455
100
AcDbArc
 50
90.0
 51
180.0
  0
ARC
  5
303
330
1F
100
AcDbEntity
  8
0
  6
Continuous
 62
     7
370
    15
100
AcDbCircle
 10
1448.3085365854
 20
-746.930913362
 30
0.0
 40
0.2000000000000455
100
AcDbArc
 50
0.0
 51
90.0
  0
ARC
  5
304
330
1F
100
AcDbEntity
  8
0
  6
Continuous
 62
     7
370
    15
100
AcDbCircle
 10
1448.3085365854
 20
-748.6480706495
 30
0.0
 40
0.2000000000000498
100
AcDbArc
 50
315.0
 51
0.0
  0
ARC
  5
305
330
1F
100
AcDbEntity
  8
0
  6
Continuous
 62
     7
370
    15
100
AcDbCircle
 10
1418.7085365854
 20
-748.6480706495
 30
0.0
 40
0.2000000000000498
100
AcDbArc
 50
180.0
 51
225.0
  0
LINE
  5
306
330
1F
100
AcDbEntity
  8
0
  6
Continuous
 62
     7
370
    15
100
AcDbLine
 10
1418.5670082651
 20
-748.7894929287
 30
0.0
 11
1420.4500382028
 21
-750.6723347393
 31
0.0
  0
LINE
  5
307
330
1F
100
AcDbEntity
  8
0
  6
Continuous
 62
     7
370
    15
100
AcDbLine
 10
1446.5671246133
 20
-750.6723347393
 30
0.0
 11
1448.4499161325
 21
-748.7894929287
 31
0.0
  0
ARC
  5
308
330
1F
100
AcDbEntity
  8
0
  6
Continuous
 62
     7
370
    15
100
AcDbCircle
 10
1420.5913792978
 20
-750.530913362
 30
0.0
 40
0.1999999999999318
100
AcDbArc
 50
225.0
 51
270.0
  0
ARC
  5
309
330
1F
100
AcDbEntity
  8
0
  6
Continuous
 62
     7
370
    15
100
AcDbCircle
 10
1446.4256938729
 20
-750.530913362
 30
0.0
 40
0.1999999999999318
100
AcDbArc
 50
270.0
 51
315.0
  0
LINE
  5
30A
330
1F
100
AcDbEntity
  8
0
  6
Continuous
 62
     7
370
    15
100
AcDbLine
 10
-229.4914657988
 20
-738.9048616675
 30
0.0
 11
-229.4914657988
 21
-738.8048618374
 31
0.0
  0
LINE
  5
30B
330
1F
100
AcDbEntity
  8
0
  6
Continuous
 62
     7
370
    15
100
AcDbLine
 10
-259.4914371886
 20
-738.8048618374
 30
0.0
 11
-259.4914371886
 21
-738.9048616675
 31
0.0
  0
LINE
  5
30C
330
1F
100
AcDbEntity
  8
0
  6
Continuous
 62
     7
370
    15
100
AcDbLine
 10
-259.4914371886
 20
-738.9048616675
 30
0.0
 11
-259.2914636054
 21
-739.1048613278
 31
0.0
  0
LINE
  5
30D
330
1F
100
AcDbEntity
  8
0
  6
Continuous
 62
     7
370
    15
100
AcDbLine
 10
-229.691439382
 20
-739.1048613278
 30
0.0
 11
-229.4914657988
 21
-738.9048616675
 31
0.0
  0
LINE
  5
30E
330
1F
100
AcDbEntity
  8
0
  6
Continuous
 62
     7
370
    15
100
AcDbLine
 10
-929.4914613285
 20
-738.9048616675
 30
0.0
 11
-929.4914613285
 21
-738.8048618374
 31
0.0
  0
LINE
  5
30F
330
1F
100
AcDbEntity
  8
0
  6
Continuous
 62
     7
370
    15
100
AcDbLine
 10
-929.691464714
 20
-739.1048613278
 30
0.0
 11
-929.4914613285
 21
-738.9048616675
 31
0.0
  0
LINE
  5
310
330
1F
100
AcDbEntity
  8
0
  6
Continuous
 62
     7
370
    15
100
AcDbLine
 10
-929.4914613285
 20
-748.104862803
 30
0.0
 11
-929.4914613285
 21
-745.1048623112
 31
0.0
  0
LINE
  5
311
330
1F
100
AcDbEntity
  8
0
  6
Continuous
 62
     7
370
    15
100
AcDbLine
 10
-959.4914625206
 20
-745.1048623112
 30
0.0
 11
-959.4914625206
 21
-748.104862803
 31
0.0
  0
LINE
  5
312
330
1F
100
AcDbEntity
  8
0
  6
Continuous
 62
     7
370
    15
100
AcDbLine
 10
-959.4914625206
 20
-748.104862803
 30
0.0
 11
-957.491465918
 21
-750.1048612682
 31
0.0
  0
LINE
  5
313
330
1F
100
AcDbEntity
  8
0
  6
Continuous
 62
     7
370
    15
100
AcDbLine
 10
-931.4914653816
 20
-750.1048612682
 30
0.0
 11
-929.4914613285
 21
-748.104862803
 31
0.0
  0
LINE
  5
314
330
1F
100
AcDbEntity
  8
0
  6
Continuous
 62
     7
370
    15
100
AcDbLine
 10
-229.4914657988
 20
-748.104862803
 30
0.0
 11
-229.4914657988
 21
-745.1048623112
 31
0.0
  0
LINE
  5
315
330
1F
100
AcDbEntity
  8
0
  6
Continuous
 62
     7
370
    15
100
AcDbLine
 10
-259.4914371886
 20
-745.1048623112
 30
0.0
 11
-259.4914371886
 21
-748.104862803
 31
0.0
  0
LINE
  5
316
330
1F
100
AcDbEntity
  8
0
  6
Continuous
 62
     7
370
    15
100
AcDbLine
 10
-259.4914371886
 20
-748.104862803
 30
0.0
 11
-257.4914629378
 21
-750.1048612682
 31
0.0
  0
LINE
  5
317
330
1F
100
AcDbEntity
  8
0
  6
Continuous
 62
     7
370
    15
100
AcDbLine
 10
-231.4914400496
 20
-750.1048612682
 30
0.0
 11
-229.4914657988
 21
-748.104862803
 31
0.0
  0
ARC
  5
318
330
1F
100
AcDbEntity
  8
0
  6
Continuous
 62
     7
370
    15
100
AcDbCircle
 10
-259.2914634146
 20
-710.1877046512
 30
0.0
 40
0.1999999999999886
100
AcDbArc
 50
135.0
 51
180.0
  0
ARC
  5
319
330
1F
100
AcDbEntity
  8
0
  6
Continuous
 62
     7
370
    15
100
AcDbCircle
 10
-229.6914634146
 20
-710.1877046512
 30
0.0
 40
0.1999999999999886
100
AcDbArc
 50
0.0
 51
45.0
  0
ARC
  5
31A
330
1F
100
AcDbEntity
  8
0
  6
Continuous
 62
     7
370
    15
100
AcDbCircle
 10
-229.6914634146
 20
-710.9048619387
 30
0.0
 40
0.1999999999999886
100
AcDbArc
 50
270.0
 51
0.0
  0
ARC
  5
31B
330
1F
100
AcDbEntity
  8
0
  6
Continuous
 62
     7
370
    15
100
AcDbCircle
 10
-259.2914634146
 20
-710.9048619387
 30
0.0
 40
0.1999999999999886
100
AcDbArc
 50
180.0
 51
270.0
  0
LINE
  5
31C
330
1F
100
AcDbEntity
  8
0
  6
Continuous
 62
     7
370
    15
100
AcDbLine
 10
-259.4914371886
 20
-710.1877042366
 30
0.0
 11
-259.4914371886
 21
-710.9048617346
 31
0.0
  0
LINE
  5
31D
330
1F
100
AcDbEntity
  8
0
  6
Continuous
 62
     7
370
    15
100
AcDbLine
 10
-229.4914657988
 20
-710.9048617346
 30
0.0
 11
-229.4914657988
 21
-710.1877042366
 31
0.0
  0
LINE
  5
31E
330
1F
100
AcDbEntity
  8
0
  6
Continuous
 62
     7
370
    15
100
AcDbLine
 10
-229.5500571646
 20
-710.0462829036
 30
0.0
 11
-231.4329082884
 21
-708.1634401617
 31
0.0
  0
LINE
  5
31F
330
1F
100
AcDbEntity
  8
0
  6
Continuous
 62
     7
370
    15
100
AcDbLine
 10
-257.5500543036
 20
-708.1634401617
 30
0.0
 11
-259.4329054274
 21
-710.0462829036
 31
0.0
  0
ARC
  5
320
330
1F
100
AcDbEntity
  8
0
  6
Continuous
 62
     7
370
    15
100
AcDbCircle
 10
-231.5743061271
 20
-708.3048619387
 30
0.0
 40
0.1999999999999695
100
AcDbArc
 50
45.0
 51
90.0
  0
ARC
  5
321
330
1F
100
AcDbEntity
  8
0
  6
Continuous
 62
     7
370
    15
100
AcDbCircle
 10
-257.4086207022
 20
-708.3048619387
 30
0.0
 40
0.1999999999999695
100
AcDbArc
 50
90.0
 51
135.0
  0
LINE
  5
322
330
1F
100
AcDbEntity
  8
0
  6
Continuous
 62
     7
370
    15
100
AcDbLine
 10
-234.7414429106
 20
-711.6048614768
 30
0.0
 11
-234.7414429106
 21
-711.1048623261
 31
0.0
  0
LINE
  5
323
330
1F
100
AcDbEntity
  8
0
  6
Continuous
 62
     7
370
    15
100
AcDbLine
 10
-254.2414600768
 20
-711.1048623261
 30
0.0
 11
-254.2414600768
 21
-711.6048614768
 31
0.0
  0
ARC
  5
324
330
1F
100
AcDbEntity
  8
0
  6
Continuous
 62
     7
370
    15
100
AcDbCircle
 10
-959.2914634146
 20
-710.1877046512
 30
0.0
 40
0.1999999999999318
100
AcDbArc
 50
135.0
 51
180.0
  0
ARC
  5
325
330
1F
100
AcDbEntity
  8
0
  6
Continuous
 62
     7
370
    15
100
AcDbCircle
 10
-929.6914634146
 20
-710.1877046512
 30
0.0
 40
0.2000000000000498
100
AcDbArc
 50
0.0
 51
45.0
  0
LINE
  5
326
330
1F
100
AcDbEntity
  8
0
  6
Continuous
 62
     7
370
    15
100
AcDbLine
 10
-959.4914625206
 20
-710.1877042366
 30
0.0
 11
-959.4914625206
 21
-710.9048617346
 31
0.0
  0
LINE
  5
327
330
1F
100
AcDbEntity
  8
0
  6
Continuous
 62
     7
370
    15
100
AcDbLine
 10
-929.4914613285
 20
-710.9048617346
 30
0.0
 11
-929.4914613285
 21
-710.1877042366
 31
0.0
  0
ARC
  5
328
330
1F
100
AcDbEntity
  8
0
  6
Continuous
 62
     7
370
    15
100
AcDbCircle
 10
-929.6914634146
 20
-710.9048619387
 30
0.0
 40
0.2000000000000455
100
AcDbArc
 50
270.0
 51
0.0
  0
ARC
  5
329
330
1F
100
AcDbEntity
  8
0
  6
Continuous
 62
     7
370
    15
100
AcDbCircle
 10
-959.2914634146
 20
-710.9048619387
 30
0.0
 40
0.1999999999999318
100
AcDbArc
 50
180.0
 51
270.0
  0
LINE
  5
32A
330
1F
100
AcDbEntity
  8
0
  6
Continuous
 62
     7
370
    15
100
AcDbLine
 10
-929.5500452437
 20
-710.0462829036
 30
0.0
 11
-931.4328814664
 21
-708.1634401617
 31
0.0
  0
LINE
  5
32B
330
1F
100
AcDbEntity
  8
0
  6
Continuous
 62
     7
370
    15
100
AcDbLine
 10
-957.5500423827
 20
-708.1634401617
 30
0.0
 11
-959.4328860559
 21
-710.0462829036
 31
0.0
  0
ARC
  5
32C
330
1F
100
AcDbEntity
  8
0
  6
Continuous
 62
     7
370
    15
100
AcDbCircle
 10
-931.5743061271
 20
-708.3048619387
 30
0.0
 40
0.2000000000001302
100
AcDbArc
 50
45.0
 51
90.0
  0
ARC
  5
32D
330
1F
100
AcDbEntity
  8
0
  6
Continuous
 62
     7
370
    15
100
AcDbCircle
 10
-957.4086207022
 20
-708.3048619387
 30
0.0
 40
0.2000000000000455
100
AcDbArc
 50
90.0
 51
135.0
  0
LINE
  5
32E
330
1F
100
AcDbEntity
  8
0
  6
Continuous
 62
     7
370
    15
100
AcDbLine
 10
-934.741460792
 20
-711.6048614768
 30
0.0
 11
-934.741460792
 21
-711.1048623261
 31
0.0
  0
LINE
  5
32F
330
1F
100
AcDbEntity
  8
0
  6
Continuous
 62
     7
370
    15
100
AcDbLine
 10
-954.241463057
 20
-711.1048623261
 30
0.0
 11
-954.241463057
 21
-711.6048614768
 31
0.0
  0
LINE
  5
330
330
1F
100
AcDbEntity
  8
0
  6
Continuous
 62
     7
370
    15
100
AcDbLine
 10
-973.4914610901
 20
-711.6048614768
 30
0.0
 11
-973.4914610901
 21
-713.1048617226
 31
0.0
  0
LINE
  5
331
330
1F
100
AcDbEntity
  8
0
  6
Continuous
 62
     7
370
    15
100
AcDbLine
 10
-915.4914702096
 20
-713.1048617226
 30
0.0
 11
-915.4914702096
 21
-711.6048614768
 31
0.0
  0
LINE
  5
332
330
1F
100
AcDbEntity
  8
0
  6
Continuous
 62
     7
370
    15
100
AcDbLine
 10
-273.4914357581
 20
-711.6048614768
 30
0.0
 11
-273.4914357581
 21
-713.1048617226
 31
0.0
  0
LINE
  5
333
330
1F
100
AcDbEntity
  8
0
  6
Continuous
 62
     7
370
    15
100
AcDbLine
 10
-215.4914672293
 20
-713.1048617226
 30
0.0
 11
-215.4914672293
 21
-711.6048614768
 31
0.0
  0
LINE
  5
334
330
1F
100
AcDbEntity
  8
0
  6
Continuous
 62
     7
370
    15
100
AcDbLine
 10
-915.4914702096
 20
-732.604862125
 30
0.0
 11
-915.4914702096
 21
-731.1048618791
 31
0.0
  0
LINE
  5
335
330
1F
100
AcDbEntity
  8
0
  6
Continuous
 62
     7
370
    15
100
AcDbLine
 10
-973.4914610901
 20
-731.1048618791
 30
0.0
 11
-973.4914610901
 21
-732.604862125
 31
0.0
  0
LINE
  5
336
330
1F
100
AcDbEntity
  8
0
  6
Continuous
 62
     7
370
    15
100
AcDbLine
 10
-215.4914672293
 20
-732.604862125
 30
0.0
 11
-215.4914672293
 21
-731.1048618791
 31
0.0
  0
LINE
  5
337
330
1F
100
AcDbEntity
  8
0
  6
Continuous
 62
     7
370
    15
100
AcDbLine
 10
-273.4914357581
 20
-731.1048618791
 30
0.0
 11
-273.4914357581
 21
-732.604862125
 31
0.0
  0
ARC
  5
338
330
1F
100
AcDbEntity
  8
0
  6
Continuous
 62
     7
370
    15
100
AcDbCircle
 10
-905.8914634146
 20
-722.130913362
 30
0.0
 40
12.50000000000007
100
AcDbArc
 50
140.1746287392
 51
219.8253712608
  0
ARC
  5
339
330
1F
100
AcDbEntity
  8
0
  6
Continuous
 62
     7
370
    15
100
AcDbCircle
 10
-983.0914634146
 20
-722.130913362
 30
0.0
 40
12.50000000000007
100
AcDbArc
 50
320.1746287392
 51
39.8253712608
  0
LINE
  5
33A
330
1F
100
AcDbEntity
  8
0
  6
Continuous
 62
     7
370
    15
100
AcDbLine
 10
-915.4914702096
 20
-714.1252904472
 30
0.0
 11
-915.4914702096
 21
-713.1048617226
 31
0.0
  0
LINE
  5
33B
330
1F
100
AcDbEntity
  8
0
  6
Continuous
 62
     7
370
    15
100
AcDbLine
 10
-973.4914610901
 20
-713.1048617226
 30
0.0
 11
-973.4914610901
 21
-714.1252904472
 31
0.0
  0
LINE
  5
33C
330
1F
100
AcDbEntity
  8
0
  6
Continuous
 62
     7
370
    15
100
AcDbLine
 10
-915.4914702096
 20
-731.1048618791
 30
0.0
 11
-915.4914702096
 21
-730.136535996
 31
0.0
  0
LINE
  5
33D
330
1F
100
AcDbEntity
  8
0
  6
Continuous
 62
     7
370
    15
100
AcDbLine
 10
-973.4914610901
 20
-730.136535996
 30
0.0
 11
-973.4914610901
 21
-731.1048618791
 31
0.0
  0
LINE
  5
33E
330
1F
100
AcDbEntity
  8
0
  6
Continuous
 62
     7
370
    15
100
AcDbLine
 10
-215.4914672293
 20
-714.1252904472
 30
0.0
 11
-215.4914672293
 21
-713.1048617226
 31
0.0
  0
LINE
  5
33F
330
1F
100
AcDbEntity
  8
0
  6
Continuous
 62
     7
370
    15
100
AcDbLine
 10
-273.4914357581
 20
-713.1048617226
 30
0.0
 11
-273.4914357581
 21
-714.1252904472
 31
0.0
  0
ARC
  5
340
330
1F
100
AcDbEntity
  8
0
  6
Continuous
 62
     7
370
    15
100
AcDbCircle
 10
-205.8914634146
 20
-722.130913362
 30
0.0
 40
12.50000000000003
100
AcDbArc
 50
140.1746287392
 51
219.8253712608
  0
ARC
  5
341
330
1F
100
AcDbEntity
  8
0
  6
Continuous
 62
     7
370
    15
100
AcDbCircle
 10
-283.0914634146
 20
-722.130913362
 30
0.0
 40
12.50000000000003
100
AcDbArc
 50
320.1746287392
 51
39.8253712608
  0
LINE
  5
342
330
1F
100
AcDbEntity
  8
0
  6
Continuous
 62
     7
370
    15
100
AcDbLine
 10
-215.4914672293
 20
-731.1048618791
 30
0.0
 11
-215.4914672293
 21
-730.136535996
 31
0.0
  0
LINE
  5
343
330
1F
100
AcDbEntity
  8
0
  6
Continuous
 62
     7
370
    15
100
AcDbLine
 10
-273.4914357581
 20
-730.136535996
 30
0.0
 11
-273.4914357581
 21
-731.1048618791
 31
0.0
  0
LINE
  5
344
330
1F
100
AcDbEntity
  8
0
  6
Continuous
 62
     7
370
    15
100
AcDbLine
 10
-929.4914613285
 20
-733.4048616973
 30
0.0
 11
-929.7914664068
 21
-733.1048622069
 31
0.0
  0
LINE
  5
345
330
1F
100
AcDbEntity
  8
0
  6
Continuous
 62
     7
370
    15
100
AcDbLine
 10
-959.1914648928
 20
-733.1048622069
 30
0.0
 11
-959.4914625206
 21
-733.4048616973
 31
0.0
  0
LINE
  5
346
330
1F
100
AcDbEntity
  8
0
  6
Continuous
 62
     7
370
    15
100
AcDbLine
 10
-929.4914613285
 20
-738.8048618374
 30
0.0
 11
-929.4914613285
 21
-733.4048616973
 31
0.0
  0
LINE
  5
347
330
1F
100
AcDbEntity
  8
0
  6
Continuous
 62
     7
370
    15
100
AcDbLine
 10
-959.4914625206
 20
-733.4048616973
 30
0.0
 11
-959.4914625206
 21
-738.8048618374
 31
0.0
  0
LINE
  5
348
330
1F
100
AcDbEntity
  8
0
  6
Continuous
 62
     7
370
    15
100
AcDbLine
 10
-959.4914625206
 20
-738.8048618374
 30
0.0
 11
-959.1914648928
 21
-739.1048613278
 31
0.0
  0
LINE
  5
349
330
1F
100
AcDbEntity
  8
0
  6
Continuous
 62
     7
370
    15
100
AcDbLine
 10
-929.7914664068
 20
-739.1048613278
 30
0.0
 11
-929.4914613285
 21
-738.8048618374
 31
0.0
  0
LINE
  5
34A
330
1F
100
AcDbEntity
  8
0
  6
Continuous
 62
     7
370
    15
100
AcDbLine
 10
-934.741460792
 20
-733.1048622069
 30
0.0
 11
-934.741460792
 21
-732.604862125
 31
0.0
  0
LINE
  5
34B
330
1F
100
AcDbEntity
  8
0
  6
Continuous
 62
     7
370
    15
100
AcDbLine
 10
-954.241463057
 20
-732.604862125
 30
0.0
 11
-954.241463057
 21
-733.1048622069
 31
0.0
  0
LINE
  5
34C
330
1F
100
AcDbEntity
  8
0
  6
Continuous
 62
     7
370
    15
100
AcDbLine
 10
-229.4914657988
 20
-738.8048618374
 30
0.0
 11
-229.4914657988
 21
-733.4048616973
 31
0.0
  0
LINE
  5
34D
330
1F
100
AcDbEntity
  8
0
  6
Continuous
 62
     7
370
    15
100
AcDbLine
 10
-259.4914371886
 20
-733.4048616973
 30
0.0
 11
-259.4914371886
 21
-738.8048618374
 31
0.0
  0
LINE
  5
34E
330
1F
100
AcDbEntity
  8
0
  6
Continuous
 62
     7
370
    15
100
AcDbLine
 10
-229.4914657988
 20
-733.4048616973
 30
0.0
 11
-229.791455976
 21
-733.1048622069
 31
0.0
  0
LINE
  5
34F
330
1F
100
AcDbEntity
  8
0
  6
Continuous
 62
     7
370
    15
100
AcDbLine
 10
-259.1914470114
 20
-733.1048622069
 30
0.0
 11
-259.4914371886
 21
-733.4048616973
 31
0.0
  0
LINE
  5
350
330
1F
100
AcDbEntity
  8
0
  6
Continuous
 62
     7
370
    15
100
AcDbLine
 10
-259.4914371886
 20
-738.8048618374
 30
0.0
 11
-259.1914470114
 21
-739.1048613278
 31
0.0
  0
LINE
  5
351
330
1F
100
AcDbEntity
  8
0
  6
Continuous
 62
     7
370
    15
100
AcDbLine
 10
-229.791455976
 20
-739.1048613278
 30
0.0
 11
-229.4914657988
 21
-738.8048618374
 31
0.0
  0
LINE
  5
352
330
1F
100
AcDbEntity
  8
0
  6
Continuous
 62
     7
370
    15
100
AcDbLine
 10
-234.7414429106
 20
-733.1048622069
 30
0.0
 11
-234.7414429106
 21
-732.604862125
 31
0.0
  0
LINE
  5
353
330
1F
100
AcDbEntity
  8
0
  6
Continuous
 62
     7
370
    15
100
AcDbLine
 10
-254.2414600768
 20
-732.604862125
 30
0.0
 11
-254.2414600768
 21
-733.1048622069
 31
0.0
  0
LINE
  5
354
330
1F
100
AcDbEntity
  8
0
  6
Continuous
 62
     7
370
    15
100
AcDbLine
 10
-1042.4914633196
 20
-734.6309134079
 30
0.0
 11
-1042.4914633196
 21
-709.6309130353
 31
0.0
  0
LWPOLYLINE
  5
355
330
1F
100
AcDbEntity
  8
0
  6
Continuous
 62
     7
370
    15
100
AcDbPolyline
 90
       13
 70
   128
 43
0.0
 10
219.9904387079
 20
-734.6118091879
 10
220.2277844034
 20
-734.4701410544
 10
221.0844223581
 20
-733.9848968474
 10
222.58753229
 20
-733.2423310069
 10
224.8515551172
 20
-732.4414401588
 10
226.9312803827
 20
-732.1099303005
 10
229.0861075006
 20
-732.2173453209
 10
230.9686606012
 20
-732.6769874704
 10
232.7928011499
 20
-733.4079080535
 10
234.3292896829
 20
-734.2044188914
 10
235.0280945382
 20
-734.6125393448
 10
235.0584929071
 20
-734.6309134079
 10
235.0584929071
 20
-734.6309134079
  0
LWPOLYLINE
  5
356
330
1F
100
AcDbEntity
  8
0
  6
Continuous
 62
     7
370
    15
100
AcDbPolyline
 90
       13
 70
   128
 43
0.0
 10
1359.9904244027
 20
-734.6118091879
 10
1360.2278893075
 20
-734.4701410544
 10
1361.0845272622
 20
-733.9848968474
 10
1362.5875179849
 20
-733.2423310069
 10
1364.8515408121
 20
-732.4414401588
 10
1366.9312660776
 20
-732.1099303005
 10
1369.0860931955
 20
-732.2173453209
 10
1370.9686462961
 20
-732.6769874704
 10
1372.7927868448
 20
-733.4079080535
 10
1374.3291561685
 20
-734.2044188914
 10
1375.0279610238
 20
-734.6125393448
 10
1375.058478602
 20
-734.6309134079
 10
1375.058478602
 20
-734.6309134079
  0
LWPOLYLINE
  5
357
330
1F
100
AcDbEntity
  8
0
  6
Continuous
 62
     7
370
    15
100
AcDbPolyline
 90
       13
 70
   128
 43
0.0
 10
-350.0094945349
 20
-734.6118091879
 10
-349.7722084441
 20
-734.4701410544
 10
-348.9155704894
 20
-733.9848968474
 10
-347.4124605574
 20
-733.2423310069
 10
-345.1484377303
 20
-732.4414401588
 10
-343.0687720694
 20
-732.1099303005
 10
-340.9139449515
 20
-732.2173453209
 10
-339.0313918509
 20
-732.6769874704
 10
-337.2072513022
 20
-733.4079080535
 10
-335.6707627692
 20
-734.2044188914
 10
-334.9718983092
 20
-734.6125393448
 10
-334.9414403357
 20
-734.6309134079
 10
-334.9414403357
 20
-734.6309134079
  0
LWPOLYLINE
  5
358
330
1F
100
AcDbEntity
  8
0
  6
Continuous
 62
     7
370
    15
100
AcDbPolyline
 90
       13
 70
   128
 43
0.0
 10
-920.0095022835
 20
-734.6118091879
 10
-919.7721938409
 20
-734.4701410544
 10
-918.9155931391
 20
-733.9848968474
 10
-917.4124534049
 20
-733.2423310069
 10
-915.1484305777
 20
-732.4414401588
 10
-913.068779818
 20
-732.1099303005
 10
-910.9139377989
 20
-732.2173453209
 10
-909.0313846984
 20
-732.6769874704
 10
-907.2072292485
 20
-733.4079080535
 10
-905.6707556166
 20
-734.2044188914
 10
-904.971920959
 20
-734.6125393448
 10
-904.9414629855
 20
-734.6309134079
 10
-904.9414629855
 20
-734.6309134079
  0
LWPOLYLINE
  5
359
330
1F
100
AcDbEntity
  8
0
  6
Continuous
 62
     7
370
    15
100
AcDbPolyline
 90
       13
 70
   128
 43
0.0
 10
789.99049116
 20
-734.6118091879
 10
790.2278368554
 20
-734.4701410544
 10
791.0843556009
 20
-733.9848968474
 10
792.5875847421
 20
-733.2423310069
 10
794.8516075693
 20
-732.4414401588
 10
796.9312136255
 20
-732.1099303005
 10
799.0860407434
 20
-732.2173453209
 10
800.968593844
 20
-732.6769874704
 10
802.7927343927
 20
-733.4079080535
 10
804.3292229257
 20
-734.2044188914
 10
805.028027781
 20
-734.6125393448
 10
805.0585453592
 20
-734.6309134079
 10
805.0585453592
 20
-734.6309134079
  0
LINE
  5
35A
330
1F
100
AcDbEntity
  8
0
  6
Continuous
 62
     7
370
    15
100
AcDbLine
 10
1497.5085918985
 20
-734.6309134079
 30
0.0
 11
1497.5085918985
 21
-709.6309130353
 31
0.0
  0
LINE
  5
35B
330
1F
100
AcDbEntity
  8
0
  6
Continuous
 62
     7
370
    15
100
AcDbLine
 10
-959.4914625206
 20
-746.7309142736
 30
0.0
 11
-998.4914633252
 21
-746.7309142736
 31
0.0
  0
LINE
  5
35C
330
1F
100
AcDbEntity
  8
0
  6
Continuous
 62
     7
370
    15
100
AcDbLine
 10
-959.4914625206
 20
-738.7309129623
 30
0.0
 11
-998.4914633252
 21
-738.7309129623
 31
0.0
  0
LINE
  5
35D
330
1F
100
AcDbEntity
  8
0
  6
Continuous
 62
     7
370
    15
100
AcDbLine
 10
1414.029187449
 20
-746.7309142736
 30
0.0
 11
1413.5084812723
 21
-746.7309142736
 31
0.0
  0
LINE
  5
35E
330
1F
100
AcDbEntity
  8
0
  6
Continuous
 62
     7
370
    15
100
AcDbLine
 10
1453.5084431253
 20
-746.7309142736
 30
0.0
 11
1414.029187449
 21
-746.7309142736
 31
0.0
  0
LINE
  5
35F
330
1F
100
AcDbEntity
  8
0
  6
Continuous
 62
     7
370
    15
100
AcDbLine
 10
1414.029187449
 20
-738.7309129623
 30
0.0
 11
1413.5084812723
 21
-738.7309129623
 31
0.0
  0
LINE
  5
360
330
1F
100
AcDbEntity
  8
0
  6
Continuous
 62
     7
370
    15
100
AcDbLine
 10
1453.5084431253
 20
-738.7309129623
 30
0.0
 11
1414.029187449
 21
-738.7309129623
 31
0.0
  0
LINE
  5
361
330
1F
100
AcDbEntity
  8
0
  6
Continuous
 62
     7
370
    15
100
AcDbLine
 10
1449.5084946237
 20
-707.9309131292
 30
0.0
 11
1417.5084297738
 21
-707.9309131292
 31
0.0
  0
LINE
  5
362
330
1F
100
AcDbEntity
  8
0
  6
Continuous
 62
     7
370
    15
100
AcDbLine
 10
1419.3084900461
 20
-706.130913393
 30
0.0
 11
1447.7084343515
 21
-706.130913393
 31
0.0
  0
SPLINE
  5
363
330
1F
100
AcDbEntity
  8
0
  6
Continuous
 62
     7
370
    15
100
AcDbSpline
210
0.0
220
0.0
230
1.0
 70
     8
 71
     3
 72
    22
 73
    18
 74
     0
 42
0.00000001
 43
0.00000001
 40
0.0
 40
0.0
 40
0.0
 40
0.0
 40
0.087077768668801
 40
0.1738044878647005
 40
0.2313496425369473
 40
0.2905517457904861
 40
0.3488903112229876
 40
0.4089773446637003
 40
0.4779437482612441
 40
0.5473136932790287
 40
0.6291806480729112
 40
0.6881384957688946
 40
0.7487567559348604
 40
0.8086809195350811
 40
0.870663734211381
 40
0.9564113943892611
 40
1.0
 40
1.0
 40
1.0
 40
1.0
 10
1417.508429773842
 20
-709.5309132052037
 30
0.0
 10
1417.591060746455
 20
-709.6350497379859
 30
0.0
 10
1417.755989569235
 20
-709.8429029825618
 30
0.0
 10
1418.802717903536
 20
-711.204306367872
 30
0.0
 10
1419.929514857766
 20
-712.7750913440482
 30
0.0
 10
1421.00023864392
 20
-714.3954878500649
 30
0.0
 10
1422.081028330367
 20
-716.2737890125286
 30
0.0
 10
1423.085594183339
 20
-718.5079896319357
 30
0.0
 10
1423.749085217405
 20
-721.1882098170277
 30
0.0
 10
1423.566872404536
 20
-724.3164197977252
 30
0.0
 10
1422.579738815908
 20
-727.0039627836359
 30
0.0
 10
1421.389132157006
 20
-729.2293984724795
 30
0.0
 10
1420.282567310029
 20
-730.9724220397612
 30
0.0
 10
1419.217841576707
 20
-732.4880538706931
 30
0.0
 10
1418.223075953634
 20
-733.8195454102392
 30
0.0
 10
1417.534681700899
 20
-734.697872786601
 30
0.0
 10
1417.590655195295
 20
-734.6265637552573
 30
0.0
 10
1417.609519251381
 20
-734.602531352398
 30
0.0
  0
SPLINE
  5
364
330
1F
100
AcDbEntity
  8
0
  6
Continuous
 62
     7
370
    15
100
AcDbSpline
210
0.0
220
0.0
230
1.0
 70
     8
 71
     3
 72
    22
 73
    18
 74
     0
 42
0.00000001
 43
0.00000001
 40
0.0
 40
0.0
 40
0.0
 40
0.0
 40
0.0424483242672193
 40
0.1226355320810194
 40
0.2089114437295115
 40
0.312008994319548
 40
0.3621946908958276
 40
0.413577901539789
 40
0.4821779164808394
 40
0.5511345818221945
 40
0.6347836558706278
 40
0.6944692832608353
 40
0.75585148764762
 40
0.8161937771841863
 40
0.8787131325893884
 40
0.9629715387064207
 40
1.0
 40
1.0
 40
1.0
 40
1.0
 10
1449.407643564736
 20
-734.602531352398
 30
0.0
 10
1449.42761100207
 20
-734.6279989849689
 30
0.0
 10
1449.485298021381
 20
-734.7015763693552
 30
0.0
 10
1448.769130312376
 20
-733.7882443969096
 30
0.0
 10
1447.436706029277
 20
-732.004986291107
 30
0.0
 10
1445.92412262447
 20
-729.7643705490947
 30
0.0
 10
1444.712220465069
 20
-727.5217398237794
 30
0.0
 10
1443.840865494798
 20
-725.456810347955
 30
0.0
 10
1443.252095289538
 20
-722.8852901553618
 30
0.0
 10
1443.494794202225
 20
-719.7512454698488
 30
0.0
 10
1444.52675060841
 20
-717.0623636887103
 30
0.0
 10
1445.748213090411
 20
-714.8293853634971
 30
0.0
 10
1446.866217511762
 20
-713.0952086355745
 30
0.0
 10
1447.921692702414
 20
-711.6060469885351
 30
0.0
 10
1448.898006641505
 20
-710.3081790835568
 30
0.0
 10
1449.444142206165
 20
-709.6128981173687
 30
0.0
 10
1449.493443200557
 20
-709.5500887024319
 30
0.0
 10
1449.508494623696
 20
-709.5309132052037
 30
0.0
  0
LINE
  5
365
330
1F
100
AcDbEntity
  8
0
  6
Continuous
 62
     7
370
    15
100
AcDbLine
 10
-962.4914611497
 20
-707.9309131292
 30
0.0
 11
-994.4914626696
 21
-707.9309131292
 31
0.0
  0
LINE
  5
366
330
1F
100
AcDbEntity
  8
0
  6
Continuous
 62
     7
370
    15
100
AcDbLine
 10
-992.691462002
 20
-706.130913393
 30
0.0
 11
-964.2914618172
 21
-706.130913393
 31
0.0
  0
SPLINE
  5
367
330
1F
100
AcDbEntity
  8
0
  6
Continuous
 62
     7
370
    15
100
AcDbSpline
210
0.0
220
0.0
230
1.0
 70
     8
 71
     3
 72
    10
 73
     6
 74
     0
 42
0.00000001
 43
0.00000001
 40
0.0
 40
0.0
 40
0.0
 40
0.0
 40
0.2371444491818316
 40
0.6851243029475459
 40
1.0
 40
1.0
 40
1.0
 40
1.0
 10
-962.5923643626816
 20
-734.602531352398
 30
0.0
 10
-962.573321979954
 20
-734.626365448069
 30
0.0
 10
-962.5183074129354
 20
-734.6952235564466
 30
0.0
 10
-963.1019303267551
 20
-733.9654830755999
 30
0.0
 10
-963.8050475355224
 20
-733.0023883831215
 30
0.0
 10
-964.0952656783707
 20
-732.6048621249768
 30
0.0
  0
SPLINE
  5
368
330
1F
100
AcDbEntity
  8
0
  6
Continuous
 62
     7
370
    15
100
AcDbSpline
210
0.0
220
0.0
230
1.0
 70
     8
 71
     3
 72
    10
 73
     6
 74
     0
 42
0.00000001
 43
0.00000001
 40
0.0
 40
0.0
 40
0.0
 40
0.0
 40
0.3258668321900742
 40
0.7941890956614035
 40
0.9999999999999999
 40
0.9999999999999999
 40
0.9999999999999999
 40
0.9999999999999999
 10
-964.0667225041038
 20
-711.6048614767763
 30
0.0
 10
-963.7784789470614
 20
-711.2159825776905
 30
0.0
 10
-963.0759837334209
 20
-710.2682230922865
 30
0.0
 10
-962.5576052640067
 20
-709.6156923880675
 30
0.0
 10
-962.5069316555927
 20
-709.5507422839446
 30
0.0
 10
-962.4914611496574
 20
-709.5309132052037
 30
0.0
  0
SPLINE
  5
369
330
1F
100
AcDbEntity
  8
0
  6
Continuous
 62
     7
370
    15
100
AcDbSpline
210
0.0
220
0.0
230
1.0
 70
     8
 71
     3
 72
    22
 73
    18
 74
     0
 42
0.00000001
 43
0.00000001
 40
0.0
 40
0.0
 40
0.0
 40
0.0
 40
0.0870777599190978
 40
0.1738038493586143
 40
0.2313481965222977
 40
0.2905521566990665
 40
0.3488893436459136
 40
0.4089778473778076
 40
0.477943699720293
 40
0.5473137348902332
 40
0.6291798765502328
 40
0.6881376910943754
 40
0.7487575914865442
 40
0.8086819438330766
 40
0.8706630749056211
 40
0.9564113612208249
 40
1.0
 40
1.0
 40
1.0
 40
1.0
 10
-994.4914626695759
 20
-709.5309132052037
 30
0.0
 10
-994.4088390036977
 20
-709.6350503497367
 30
0.0
 10
-994.2439253542065
 20
-709.8429040726376
 30
0.0
 10
-993.1972478685201
 20
-711.2042871027361
 30
0.0
 10
-992.0706615518079
 20
-712.7751435421907
 30
0.0
 10
-990.9995967811979
 20
-714.395413855122
 30
0.0
 10
-989.9191364508629
 20
-716.2738629714622
 30
0.0
 10
-988.9142143001096
 20
-718.5079269408151
 30
0.0
 10
-988.2509807438181
 20
-721.1882383233202
 30
0.0
 10
-988.4332070282647
 20
-724.3163921572151
 30
0.0
 10
-989.4201929965812
 20
-727.0039749229629
 30
0.0
 10
-990.6107742095451
 20
-729.2294299387088
 30
0.0
 10
-991.7175275348723
 20
-730.9723972433229
 30
0.0
 10
-992.7823048625844
 20
-732.488031125168
 30
0.0
 10
-993.7767089496407
 20
-733.8195761555154
 30
0.0
 10
-994.4653037425322
 20
-734.6978693072402
 30
0.0
 10
-994.4093999426512
 20
-734.6265628002793
 30
0.0
 10
-994.3905594565517
 20
-734.602531352398
 30
0.0
  0
LWPOLYLINE
  5
36A
330
1F
100
AcDbEntity
  8
0
  6
Continuous
 62
     7
370
    15
100
AcDbPolyline
 90
       13
 70
   128
 43
0.0
 10
-335.0193436064
 20
-709.6474486676
 10
-335.2669413008
 20
-709.7942288307
 10
-336.1282284178
 20
-710.2780294878
 10
-337.6349146285
 20
-711.0139838693
 10
-339.8950631537
 20
-711.7993532953
 10
-341.9650728621
 20
-712.117069335
 10
-344.1034490981
 20
-712.0018246857
 10
-345.9772403159
 20
-711.5407957969
 10
-347.7891023078
 20
-710.8143204165
 10
-349.2979938903
 20
-710.0342595292
 10
-349.9666984
 20
-709.6457583172
 10
-349.9914343276
 20
-709.6309130353
 10
-349.9914343276
 20
-709.6309130353
  0
LWPOLYLINE
  5
36B
330
1F
100
AcDbEntity
  8
0
  6
Continuous
 62
     7
370
    15
100
AcDbPolyline
 90
       13
 70
   128
 43
0.0
 10
1374.9807541452
 20
-709.6474486676
 10
1374.7330372415
 20
-709.7942288307
 10
1373.8718693338
 20
-710.2780294878
 10
1372.3650639139
 20
-711.0139838693
 10
1370.104855784
 20
-711.7993532953
 10
1368.0349056802
 20
-712.117069335
 10
1365.8965294443
 20
-712.0018246857
 10
1364.0227978311
 20
-711.5407957969
 10
1362.2108166299
 20
-710.8143204165
 10
1360.7021038614
 20
-710.0342595292
 10
1360.033339747
 20
-709.6457583172
 10
1360.0085442148
 20
-709.6309130353
 10
1360.0085442148
 20
-709.6309130353
  0
LWPOLYLINE
  5
36C
330
1F
100
AcDbEntity
  8
0
  6
Continuous
 62
     7
370
    15
100
AcDbPolyline
 90
       13
 70
   128
 43
0.0
 10
804.9807016931
 20
-709.6474486676
 10
804.7331039987
 20
-709.7942288307
 10
803.8718168817
 20
-710.2780294878
 10
802.3651306711
 20
-711.0139838693
 10
800.1049225412
 20
-711.7993532953
 10
798.0348532281
 20
-712.117069335
 10
795.8965962015
 20
-712.0018246857
 10
794.022745379
 20
-711.5407957969
 10
792.2108833871
 20
-710.8143204165
 10
790.7020514093
 20
-710.0342595292
 10
790.0332872949
 20
-709.6457583172
 10
790.0084917627
 20
-709.6309130353
 10
790.0084917627
 20
-709.6309130353
  0
LWPOLYLINE
  5
36D
330
1F
100
AcDbEntity
  8
0
  6
Continuous
 62
     7
370
    15
100
AcDbPolyline
 90
       13
 70
   128
 43
0.0
 10
-905.0193215527
 20
-709.6474486676
 10
-905.2669341483
 20
-709.7942288307
 10
-906.1282212653
 20
-710.2780294878
 10
-907.6349074759
 20
-711.0139838693
 10
-909.8950858035
 20
-711.7993532953
 10
-911.9650955119
 20
-712.117069335
 10
-914.1034270444
 20
-712.0018246857
 10
-915.9772331633
 20
-711.5407957969
 10
-917.7891249575
 20
-710.8143204165
 10
-919.2980016389
 20
-710.0342595292
 10
-919.966698698
 20
-709.6457583172
 10
-919.9914644279
 20
-709.6309130353
 10
-919.9914644279
 20
-709.6309130353
  0
LWPOLYLINE
  5
36E
330
1F
100
AcDbEntity
  8
0
  6
Continuous
 62
     7
370
    15
100
AcDbPolyline
 90
       13
 70
   128
 43
0.0
 10
234.980649241
 20
-709.6474486676
 10
234.7330515466
 20
-709.7942288307
 10
233.8717644296
 20
-710.2780294878
 10
232.365078219
 20
-711.0139838693
 10
230.1048700891
 20
-711.7993532953
 10
228.0349199853
 20
-712.117069335
 10
225.8965437494
 20
-712.0018246857
 10
224.0228121362
 20
-711.5407957969
 10
222.210830935
 20
-710.8143204165
 10
220.7019989572
 20
-710.0342595292
 10
220.0333540521
 20
-709.6457583172
 10
220.0085585199
 20
-709.6309130353
 10
220.0085585199
 20
-709.6309130353
  0
LINE
  5
36F
330
1F
100
AcDbEntity
  8
0
  6
Continuous
 62
     7
370
    15
100
AcDbLine
 10
-349.9414856352
 20
-735.5322185246
 30
0.0
 11
-335.0414569296
 21
-735.5322185246
 31
0.0
  0
LINE
  5
370
330
1F
100
AcDbEntity
  8
0
  6
Continuous
 62
     7
370
    15
100
AcDbLine
 10
-336.041444055
 20
-736.5322186885
 30
0.0
 11
-348.9414389052
 21
-736.5322186885
 31
0.0
  0
LINE
  5
371
330
1F
100
AcDbEntity
  8
0
  6
Continuous
 62
     7
370
    15
100
AcDbLine
 10
220.0585072122
 20
-735.5322185246
 30
0.0
 11
234.9585955224
 21
-735.5322185246
 31
0.0
  0
LINE
  5
372
330
1F
100
AcDbEntity
  8
0
  6
Continuous
 62
     7
370
    15
100
AcDbLine
 10
233.9585487924
 20
-736.5322186885
 30
0.0
 11
221.0585539422
 21
-736.5322186885
 31
0.0
  0
LINE
  5
373
330
1F
100
AcDbEntity
  8
0
  6
Continuous
 62
     7
370
    15
100
AcDbLine
 10
790.0585596643
 20
-735.5322185246
 30
0.0
 11
804.9585287652
 21
-735.5322185246
 31
0.0
  0
LINE
  5
374
330
1F
100
AcDbEntity
  8
0
  6
Continuous
 62
     7
370
    15
100
AcDbLine
 10
803.9584820352
 20
-736.5322186885
 30
0.0
 11
791.058487185
 21
-736.5322186885
 31
0.0
  0
LINE
  5
375
330
1F
100
AcDbEntity
  8
0
  6
Continuous
 62
     7
370
    15
100
AcDbLine
 10
1360.0586121164
 20
-735.5322185246
 30
0.0
 11
1374.9585812173
 21
-735.5322185246
 31
0.0
  0
LINE
  5
376
330
1F
100
AcDbEntity
  8
0
  6
Continuous
 62
     7
370
    15
100
AcDbLine
 10
1373.9586536966
 20
-736.5322186885
 30
0.0
 11
1361.0585396371
 21
-736.5322186885
 31
0.0
  0
LINE
  5
377
330
1F
100
AcDbEntity
  8
0
  6
Continuous
 62
     7
370
    15
100
AcDbLine
 10
-919.9414635815
 20
-735.5322185246
 30
0.0
 11
-905.0414646783
 21
-735.5322185246
 31
0.0
  0
LINE
  5
378
330
1F
100
AcDbEntity
  8
0
  6
Continuous
 62
     7
370
    15
100
AcDbLine
 10
-906.0414667048
 20
-736.5322186885
 30
0.0
 11
-918.941461555
 21
-736.5322186885
 31
0.0
  0
LINE
  5
379
330
1F
100
AcDbEntity
  8
0
  6
Continuous
 62
     7
370
    15
100
AcDbLine
 10
-887.5208730616
 20
-704.6309131471
 30
0.0
 11
-887.4914581694
 21
-704.6309131471
 31
0.0
  0
LINE
  5
37A
330
1F
100
AcDbEntity
  8
0
  6
Continuous
 62
     7
370
    15
100
AcDbLine
 10
-937.4914626398
 20
-704.6309131471
 30
0.0
 11
-887.5208730616
 21
-704.6309131471
 31
0.0
  0
LINE
  5
37B
330
1F
100
AcDbEntity
  8
0
  6
Continuous
 62
     7
370
    15
100
AcDbLine
 10
-887.4914581694
 20
-702.6309128193
 30
0.0
 11
-937.4914626398
 21
-702.6309128193
 31
0.0
  0
LINE
  5
37C
330
1F
100
AcDbEntity
  8
0
  6
Continuous
 62
     7
370
    15
100
AcDbLine
 10
-888.491460196
 20
-705.630913311
 30
0.0
 11
-936.4914606132
 21
-705.630913311
 31
0.0
  0
LINE
  5
37D
330
1F
100
AcDbEntity
  8
0
  6
Continuous
 62
     7
370
    15
100
AcDbLine
 10
251.5085404001
 20
-705.630913311
 30
0.0
 11
203.5085623346
 21
-705.630913311
 31
0.0
  0
LINE
  5
37E
330
1F
100
AcDbEntity
  8
0
  6
Continuous
 62
     7
370
    15
100
AcDbLine
 10
252.4791424356
 20
-704.6309131471
 30
0.0
 11
252.5085871301
 21
-704.6309131471
 31
0.0
  0
LINE
  5
37F
330
1F
100
AcDbEntity
  8
0
  6
Continuous
 62
     7
370
    15
100
AcDbLine
 10
202.5085156045
 20
-704.6309131471
 30
0.0
 11
252.4791424356
 21
-704.6309131471
 31
0.0
  0
LINE
  5
380
330
1F
100
AcDbEntity
  8
0
  6
Continuous
 62
     7
370
    15
100
AcDbLine
 10
252.5085871301
 20
-702.6309128193
 30
0.0
 11
202.5085156045
 21
-702.6309128193
 31
0.0
  0
LINE
  5
381
330
1F
100
AcDbEntity
  8
0
  6
Continuous
 62
     7
370
    15
100
AcDbLine
 10
-317.5208504119
 20
-704.6309131471
 30
0.0
 11
-317.491465322
 21
-704.6309131471
 31
0.0
  0
LINE
  5
382
330
1F
100
AcDbEntity
  8
0
  6
Continuous
 62
     7
370
    15
100
AcDbLine
 10
-367.4914772429
 20
-704.6309131471
 30
0.0
 11
-317.5208504119
 21
-704.6309131471
 31
0.0
  0
LINE
  5
383
330
1F
100
AcDbEntity
  8
0
  6
Continuous
 62
     7
370
    15
100
AcDbLine
 10
-317.491465322
 20
-702.6309128193
 30
0.0
 11
-367.4914772429
 21
-702.6309128193
 31
0.0
  0
LINE
  5
384
330
1F
100
AcDbEntity
  8
0
  6
Continuous
 62
     7
370
    15
100
AcDbLine
 10
-318.4914524474
 20
-705.630913311
 30
0.0
 11
-366.4914901175
 21
-705.630913311
 31
0.0
  0
LINE
  5
385
330
1F
100
AcDbEntity
  8
0
  6
Continuous
 62
     7
370
    15
100
AcDbLine
 10
822.5085203729
 20
-702.6309128193
 30
0.0
 11
772.5085680566
 21
-702.6309128193
 31
0.0
  0
LINE
  5
386
330
1F
100
AcDbEntity
  8
0
  6
Continuous
 62
     7
370
    15
100
AcDbLine
 10
822.4790756784
 20
-704.6309131471
 30
0.0
 11
822.5085203729
 21
-704.6309131471
 31
0.0
  0
LINE
  5
387
330
1F
100
AcDbEntity
  8
0
  6
Continuous
 62
     7
370
    15
100
AcDbLine
 10
772.5085680566
 20
-704.6309131471
 30
0.0
 11
822.4790756784
 21
-704.6309131471
 31
0.0
  0
LINE
  5
388
330
1F
100
AcDbEntity
  8
0
  6
Continuous
 62
     7
370
    15
100
AcDbLine
 10
821.5085928522
 20
-705.630913311
 30
0.0
 11
773.5084955774
 21
-705.630913311
 31
0.0
  0
LINE
  5
389
330
1F
100
AcDbEntity
  8
0
  6
Continuous
 62
     7
370
    15
100
AcDbLine
 10
1392.4790089212
 20
-704.6309131471
 30
0.0
 11
1392.508572825
 21
-704.6309131471
 31
0.0
  0
LINE
  5
38A
330
1F
100
AcDbEntity
  8
0
  6
Continuous
 62
     7
370
    15
100
AcDbLine
 10
1342.5086205087
 20
-704.6309131471
 30
0.0
 11
1392.4790089212
 21
-704.6309131471
 31
0.0
  0
LINE
  5
38B
330
1F
100
AcDbEntity
  8
0
  6
Continuous
 62
     7
370
    15
100
AcDbLine
 10
1392.508572825
 20
-702.6309128193
 30
0.0
 11
1342.5086205087
 21
-702.6309128193
 31
0.0
  0
LINE
  5
38C
330
1F
100
AcDbEntity
  8
0
  6
Continuous
 62
     7
370
    15
100
AcDbLine
 10
1391.5086453042
 20
-705.630913311
 30
0.0
 11
1343.5085480295
 21
-705.630913311
 31
0.0
  0
LINE
  5
38D
330
1F
100
AcDbEntity
  8
0
  6
Continuous
 62
     7
370
    15
100
AcDbLine
 10
-1042.6914634456
 20
-734.6309134079
 30
0.0
 11
-1042.6914634456
 21
-709.6309130353
 31
0.0
  0
LINE
  5
38E
330
1F
100
AcDbEntity
  8
0
  6
Continuous
 62
     7
370
    15
100
AcDbLine
 10
-1044.2914634197
 20
-709.6309130353
 30
0.0
 11
-1044.2914634197
 21
-734.6309134079
 31
0.0
  0
LINE
  5
38F
330
1F
100
AcDbEntity
  8
0
  6
Continuous
 62
     7
370
    15
100
AcDbLine
 10
-1044.4914634146
 20
-734.4309137476
 30
0.0
 11
-1044.4914634146
 21
-709.8309136269
 31
0.0
  0
LINE
  5
390
330
1F
100
AcDbEntity
  8
0
  6
Continuous
 62
     7
370
    15
100
AcDbLine
 10
1497.7086250863
 20
-712.6893288729
 30
0.0
 11
1497.7086250863
 21
-734.6309134079
 31
0.0
  0
LINE
  5
391
330
1F
100
AcDbEntity
  8
0
  6
Continuous
 62
     7
370
    15
100
AcDbLine
 10
1497.7086250863
 20
-709.6309130353
 30
0.0
 11
1497.7086250863
 21
-712.6893288729
 31
0.0
  0
LINE
  5
392
330
1F
100
AcDbEntity
  8
0
  6
Continuous
 62
     7
370
    15
100
AcDbLine
 10
1499.3086521707
 20
-712.6893288729
 30
0.0
 11
1499.3086521707
 21
-709.6309130353
 31
0.0
  0
LINE
  5
393
330
1F
100
AcDbEntity
  8
0
  6
Continuous
 62
     7
370
    15
100
AcDbLine
 10
1499.3086521707
 20
-734.6309134079
 30
0.0
 11
1499.3086521707
 21
-712.6893288729
 31
0.0
  0
LINE
  5
394
330
1F
100
AcDbEntity
  8
0
  6
Continuous
 62
     7
370
    15
100
AcDbLine
 10
1499.50844694
 20
-712.8403945168
 30
0.0
 11
1499.50844694
 21
-734.4309137476
 31
0.0
  0
LINE
  5
395
330
1F
100
AcDbEntity
  8
0
  6
Continuous
 62
     7
370
    15
100
AcDbLine
 10
1499.50844694
 20
-709.8309136269
 30
0.0
 11
1499.50844694
 21
-712.8403945168
 31
0.0
  0
LINE
  5
396
330
1F
100
AcDbEntity
  8
0
  6
Continuous
 62
     7
370
    15
100
AcDbLine
 10
-965.5743027844
 20
-750.7309130666
 30
0.0
 11
-991.4086210348
 21
-750.7309130666
 31
0.0
  0
LINE
  5
397
330
1F
100
AcDbEntity
  8
0
  6
Continuous
 62
     7
370
    15
100
AcDbLine
 10
1445.4403584085
 20
-750.7309130666
 30
0.0
 11
1420.5914204202
 21
-750.7309130666
 31
0.0
  0
LINE
  5
398
330
1F
100
AcDbEntity
  8
0
  6
Continuous
 62
     7
370
    15
100
AcDbLine
 10
1446.4257423959
 20
-750.7309130666
 30
0.0
 11
1445.4403584085
 21
-750.7309130666
 31
0.0
  0
LINE
  5
399
330
1F
100
AcDbEntity
  8
0
  6
Continuous
 62
     7
370
    15
100
AcDbLine
 10
-259.4914371886
 20
-738.9048616675
 30
0.0
 11
-259.3914801993
 21
-738.9048616675
 31
0.0
  0
LINE
  5
39A
330
1F
100
AcDbEntity
  8
0
  6
Continuous
 62
     7
370
    15
100
AcDbLine
 10
-229.5914823928
 20
-738.9048616675
 30
0.0
 11
-229.4914657988
 21
-738.9048616675
 31
0.0
  0
LINE
  5
39B
330
1F
100
AcDbEntity
  8
0
  6
Continuous
 62
     7
370
    15
100
AcDbLine
 10
-929.5914630212
 20
-738.9048616675
 30
0.0
 11
-929.4914613285
 21
-738.9048616675
 31
0.0
  0
LINE
  5
39C
330
1F
100
AcDbEntity
  8
0
  6
Continuous
 62
     7
370
    15
100
AcDbLine
 10
-959.4914625206
 20
-745.1048623112
 30
0.0
 11
-929.4914613285
 21
-745.1048623112
 31
0.0
  0
LINE
  5
39D
330
1F
100
AcDbEntity
  8
0
  6
Continuous
 62
     7
370
    15
100
AcDbLine
 10
-959.4914625206
 20
-748.104862803
 30
0.0
 11
-929.4914613285
 21
-748.104862803
 31
0.0
  0
LINE
  5
39E
330
1F
100
AcDbEntity
  8
0
  6
Continuous
 62
     7
370
    15
100
AcDbLine
 10
-957.491465918
 20
-750.1048612682
 30
0.0
 11
-931.4914653816
 21
-750.1048612682
 31
0.0
  0
LINE
  5
39F
330
1F
100
AcDbEntity
  8
0
  6
Continuous
 62
     7
370
    15
100
AcDbLine
 10
-259.4914371886
 20
-748.104862803
 30
0.0
 11
-229.4914657988
 21
-748.104862803
 31
0.0
  0
LINE
  5
3A0
330
1F
100
AcDbEntity
  8
0
  6
Continuous
 62
     7
370
    15
100
AcDbLine
 10
-259.4914371886
 20
-745.1048623112
 30
0.0
 11
-229.4914657988
 21
-745.1048623112
 31
0.0
  0
LINE
  5
3A1
330
1F
100
AcDbEntity
  8
0
  6
Continuous
 62
     7
370
    15
100
AcDbLine
 10
-257.4914629378
 20
-750.1048612682
 30
0.0
 11
-231.4914400496
 21
-750.1048612682
 31
0.0
  0
LINE
  5
3A2
330
1F
100
AcDbEntity
  8
0
  6
Continuous
 62
     7
370
    15
100
AcDbLine
 10
-229.691439382
 20
-711.1048623261
 30
0.0
 11
-259.2914636054
 21
-711.1048623261
 31
0.0
  0
LINE
  5
3A3
330
1F
100
AcDbEntity
  8
0
  6
Continuous
 62
     7
370
    15
100
AcDbLine
 10
-257.4086124816
 20
-708.1048618344
 30
0.0
 11
-231.5742905059
 21
-708.1048618344
 31
0.0
  0
LINE
  5
3A4
330
1F
100
AcDbEntity
  8
0
  6
Continuous
 62
     7
370
    15
100
AcDbLine
 10
-929.691464714
 20
-711.1048623261
 30
0.0
 11
-959.2914665856
 21
-711.1048623261
 31
0.0
  0
LINE
  5
3A5
330
1F
100
AcDbEntity
  8
0
  6
Continuous
 62
     7
370
    15
100
AcDbLine
 10
-957.4086229124
 20
-708.1048618344
 30
0.0
 11
-931.5743083872
 21
-708.1048618344
 31
0.0
  0
LINE
  5
3A6
330
1F
100
AcDbEntity
  8
0
  6
Continuous
 62
     7
370
    15
100
AcDbLine
 10
-915.4914702096
 20
-713.1048617226
 30
0.0
 11
-973.4914610901
 21
-713.1048617226
 31
0.0
  0
LINE
  5
3A7
330
1F
100
AcDbEntity
  8
0
  6
Continuous
 62
     7
370
    15
100
AcDbLine
 10
-915.4914702096
 20
-711.6048614768
 30
0.0
 11
-973.4914610901
 21
-711.6048614768
 31
0.0
  0
LINE
  5
3A8
330
1F
100
AcDbEntity
  8
0
  6
Continuous
 62
     7
370
    15
100
AcDbLine
 10
-215.4914672293
 20
-711.6048614768
 30
0.0
 11
-273.4914357581
 21
-711.6048614768
 31
0.0
  0
LINE
  5
3A9
330
1F
100
AcDbEntity
  8
0
  6
Continuous
 62
     7
370
    15
100
AcDbLine
 10
-215.4914672293
 20
-713.1048617226
 30
0.0
 11
-273.4914357581
 21
-713.1048617226
 31
0.0
  0
LINE
  5
3AA
330
1F
100
AcDbEntity
  8
0
  6
Continuous
 62
     7
370
    15
100
AcDbLine
 10
-973.4914610901
 20
-732.604862125
 30
0.0
 11
-915.4914702096
 21
-732.604862125
 31
0.0
  0
LINE
  5
3AB
330
1F
100
AcDbEntity
  8
0
  6
Continuous
 62
     7
370
    15
100
AcDbLine
 10
-973.4914610901
 20
-731.1048618791
 30
0.0
 11
-915.4914702096
 21
-731.1048618791
 31
0.0
  0
LINE
  5
3AC
330
1F
100
AcDbEntity
  8
0
  6
Continuous
 62
     7
370
    15
100
AcDbLine
 10
-273.4914357581
 20
-732.604862125
 30
0.0
 11
-215.4914672293
 21
-732.604862125
 31
0.0
  0
LINE
  5
3AD
330
1F
100
AcDbEntity
  8
0
  6
Continuous
 62
     7
370
    15
100
AcDbLine
 10
-273.4914357581
 20
-731.1048618791
 30
0.0
 11
-215.4914672293
 21
-731.1048618791
 31
0.0
  0
LINE
  5
3AE
330
1F
100
AcDbEntity
  8
0
  6
Continuous
 62
     7
370
    15
100
AcDbLine
 10
-915.4914702096
 20
-730.136535996
 30
0.0
 11
-973.4914610901
 21
-730.136535996
 31
0.0
  0
LINE
  5
3AF
330
1F
100
AcDbEntity
  8
0
  6
Continuous
 62
     7
370
    15
100
AcDbLine
 10
-915.5159677186
 20
-714.1252904472
 30
0.0
 11
-915.4914702096
 21
-714.1252904472
 31
0.0
  0
LINE
  5
3B0
330
1F
100
AcDbEntity
  8
0
  6
Continuous
 62
     7
370
    15
100
AcDbLine
 10
-973.4914610901
 20
-714.1252904472
 30
0.0
 11
-915.5159677186
 21
-714.1252904472
 31
0.0
  0
LINE
  5
3B1
330
1F
100
AcDbEntity
  8
0
  6
Continuous
 62
     7
370
    15
100
AcDbLine
 10
-973.4914610901
 20
-731.1048618791
 30
0.0
 11
-915.4914702096
 21
-731.1048618791
 31
0.0
  0
LINE
  5
3B2
330
1F
100
AcDbEntity
  8
0
  6
Continuous
 62
     7
370
    15
100
AcDbLine
 10
-215.5159647383
 20
-714.1252904472
 30
0.0
 11
-215.4914672293
 21
-714.1252904472
 31
0.0
  0
LINE
  5
3B3
330
1F
100
AcDbEntity
  8
0
  6
Continuous
 62
     7
370
    15
100
AcDbLine
 10
-273.4914357581
 20
-714.1252904472
 30
0.0
 11
-215.5159647383
 21
-714.1252904472
 31
0.0
  0
LINE
  5
3B4
330
1F
100
AcDbEntity
  8
0
  6
Continuous
 62
     7
370
    15
100
AcDbLine
 10
-215.4914672293
 20
-730.136535996
 30
0.0
 11
-273.4914357581
 21
-730.136535996
 31
0.0
  0
LINE
  5
3B5
330
1F
100
AcDbEntity
  8
0
  6
Continuous
 62
     7
370
    15
100
AcDbLine
 10
-273.4914357581
 20
-731.1048618791
 30
0.0
 11
-215.4914672293
 21
-731.1048618791
 31
0.0
  0
LINE
  5
3B6
330
1F
100
AcDbEntity
  8
0
  6
Continuous
 62
     7
370
    15
100
AcDbLine
 10
-259.4914371886
 20
-739.1048613278
 30
0.0
 11
-259.4914371886
 21
-745.1048623112
 31
0.0
  0
LINE
  5
3B7
330
1F
100
AcDbEntity
  8
0
  6
Continuous
 62
     7
370
    15
100
AcDbLine
 10
-229.4914657988
 20
-739.1048613278
 30
0.0
 11
-229.4914657988
 21
-745.1048623112
 31
0.0
  0
LINE
  5
3B8
330
1F
100
AcDbEntity
  8
0
  6
Continuous
 62
     7
370
    15
100
AcDbLine
 10
-259.4914371886
 20
-745.1048623112
 30
0.0
 11
-229.4914657988
 21
-745.1048623112
 31
0.0
  0
LINE
  5
3B9
330
1F
100
AcDbEntity
  8
0
  6
Continuous
 62
     7
370
    15
100
AcDbLine
 10
-259.4914371886
 20
-739.1048613278
 30
0.0
 11
-229.4914657988
 21
-739.1048613278
 31
0.0
  0
LINE
  5
3BA
330
1F
100
AcDbEntity
  8
0
  6
Continuous
 62
     7
370
    15
100
AcDbLine
 10
-959.4914625206
 20
-739.1048613278
 30
0.0
 11
-959.4914625206
 21
-745.1048623112
 31
0.0
  0
LINE
  5
3BB
330
1F
100
AcDbEntity
  8
0
  6
Continuous
 62
     7
370
    15
100
AcDbLine
 10
-959.4914625206
 20
-739.1048613278
 30
0.0
 11
-929.4914613285
 21
-739.1048613278
 31
0.0
  0
LINE
  5
3BC
330
1F
100
AcDbEntity
  8
0
  6
Continuous
 62
     7
370
    15
100
AcDbLine
 10
-929.4914613285
 20
-739.1048613278
 30
0.0
 11
-929.4914613285
 21
-745.1048623112
 31
0.0
  0
LINE
  5
3BD
330
1F
100
AcDbEntity
  8
0
  6
Continuous
 62
     7
370
    15
100
AcDbLine
 10
-959.4914625206
 20
-745.1048623112
 30
0.0
 11
-929.4914613285
 21
-745.1048623112
 31
0.0
  0
LINE
  5
3BE
330
1F
100
AcDbEntity
  8
0
  6
Continuous
 62
     7
370
    15
100
AcDbLine
 10
-959.1914648928
 20
-733.1048622069
 30
0.0
 11
-929.7914664068
 21
-733.1048622069
 31
0.0
  0
LINE
  5
3BF
330
1F
100
AcDbEntity
  8
0
  6
Continuous
 62
     7
370
    15
100
AcDbLine
 10
-929.4914613285
 20
-733.4048616973
 30
0.0
 11
-959.4914625206
 21
-733.4048616973
 31
0.0
  0
LINE
  5
3C0
330
1F
100
AcDbEntity
  8
0
  6
Continuous
 62
     7
370
    15
100
AcDbLine
 10
-959.4914625206
 20
-738.8048618374
 30
0.0
 11
-929.4914613285
 21
-738.8048618374
 31
0.0
  0
LINE
  5
3C1
330
1F
100
AcDbEntity
  8
0
  6
Continuous
 62
     7
370
    15
100
AcDbLine
 10
-229.4914657988
 20
-733.4048616973
 30
0.0
 11
-259.4914371886
 21
-733.4048616973
 31
0.0
  0
LINE
  5
3C2
330
1F
100
AcDbEntity
  8
0
  6
Continuous
 62
     7
370
    15
100
AcDbLine
 10
-259.4914371886
 20
-738.8048618374
 30
0.0
 11
-229.4914657988
 21
-738.8048618374
 31
0.0
  0
LINE
  5
3C3
330
1F
100
AcDbEntity
  8
0
  6
Continuous
 62
     7
370
    15
100
AcDbLine
 10
-259.1914470114
 20
-733.1048622069
 30
0.0
 11
-229.791455976
 21
-733.1048622069
 31
0.0
  0
LINE
  5
3C4
330
1F
100
AcDbEntity
  8
0
  6
Continuous
 62
     8
370
    15
100
AcDbLine
 10
-964.6355445304
 20
-748.6480697331
 30
0.0
 11
-963.4914631762
 21
-748.6480697331
 31
0.0
  0
LINE
  5
3C5
330
1F
100
AcDbEntity
  8
0
  6
Continuous
 62
     8
370
    15
100
AcDbLine
 10
-993.4914643683
 20
-748.6480697331
 30
0.0
 11
-964.6355445304
 21
-748.6480697331
 31
0.0
  0
LINE
  5
3C6
330
1F
100
AcDbEntity
  8
0
  6
Continuous
 62
     8
370
    15
100
AcDbLine
 10
-963.4914631762
 20
-746.9309139339
 30
0.0
 11
-993.4914643683
 21
-746.9309139339
 31
0.0
  0
LINE
  5
3C7
330
1F
100
AcDbEntity
  8
0
  6
Continuous
 62
     8
370
    15
100
AcDbLine
 10
-963.5500396409
 20
-748.7894929287
 30
0.0
 11
-993.4328841784
 21
-748.7894929287
 31
0.0
  0
LINE
  5
3C8
330
1F
100
AcDbEntity
  8
0
  6
Continuous
 62
     8
370
    15
100
AcDbLine
 10
-991.5500405051
 20
-750.6723347393
 30
0.0
 11
-965.4328833141
 21
-750.6723347393
 31
0.0
  0
LINE
  5
3C9
330
1F
100
AcDbEntity
  8
0
  6
Continuous
 62
     8
370
    15
100
AcDbLine
 10
1418.5085957132
 20
-748.6480697331
 30
0.0
 11
1448.5085671029
 21
-748.6480697331
 31
0.0
  0
LINE
  5
3CA
330
1F
100
AcDbEntity
  8
0
  6
Continuous
 62
     8
370
    15
100
AcDbLine
 10
1447.3643963418
 20
-746.9309139339
 30
0.0
 11
1418.5085957132
 21
-746.9309139339
 31
0.0
  0
LINE
  5
3CB
330
1F
100
AcDbEntity
  8
0
  6
Continuous
 62
     8
370
    15
100
AcDbLine
 10
1448.5085671029
 20
-746.9309139339
 30
0.0
 11
1447.3643963418
 21
-746.9309139339
 31
0.0
  0
LINE
  5
3CC
330
1F
100
AcDbEntity
  8
0
  6
Continuous
 62
     8
370
    15
100
AcDbLine
 10
1447.3102753244
 20
-748.7894929287
 30
0.0
 11
1418.5670082651
 21
-748.7894929287
 31
0.0
  0
LINE
  5
3CD
330
1F
100
AcDbEntity
  8
0
  6
Continuous
 62
     8
370
    15
100
AcDbLine
 10
1448.4499161325
 20
-748.7894929287
 30
0.0
 11
1447.3102753244
 21
-748.7894929287
 31
0.0
  0
LINE
  5
3CE
330
1F
100
AcDbEntity
  8
0
  6
Continuous
 62
     8
370
    15
100
AcDbLine
 10
1445.5710117898
 20
-750.6723347393
 30
0.0
 11
1446.5671246133
 21
-750.6723347393
 31
0.0
  0
LINE
  5
3CF
330
1F
100
AcDbEntity
  8
0
  6
Continuous
 62
     8
370
    15
100
AcDbLine
 10
1420.4500382028
 20
-750.6723347393
 30
0.0
 11
1445.5710117898
 21
-750.6723347393
 31
0.0
  0
LINE
  5
3D0
330
1F
100
AcDbEntity
  8
0
  6
Continuous
 62
     8
370
    15
100
AcDbLine
 10
-229.4914657988
 20
-710.1877042366
 30
0.0
 11
-259.4914371886
 21
-710.1877042366
 31
0.0
  0
LINE
  5
3D1
330
1F
100
AcDbEntity
  8
0
  6
Continuous
 62
     8
370
    15
100
AcDbLine
 10
-259.4329054274
 20
-710.0462829036
 30
0.0
 11
-229.5500571646
 21
-710.0462829036
 31
0.0
  0
LINE
  5
3D2
330
1F
100
AcDbEntity
  8
0
  6
Continuous
 62
     8
370
    15
100
AcDbLine
 10
-259.4914371886
 20
-710.9048617346
 30
0.0
 11
-229.4914657988
 21
-710.9048617346
 31
0.0
  0
LINE
  5
3D3
330
1F
100
AcDbEntity
  8
0
  6
Continuous
 62
     8
370
    15
100
AcDbLine
 10
-231.4329082884
 20
-708.1634401617
 30
0.0
 11
-257.5500543036
 21
-708.1634401617
 31
0.0
  0
LINE
  5
3D4
330
1F
100
AcDbEntity
  8
0
  6
Continuous
 62
     8
370
    15
100
AcDbLine
 10
-929.4914613285
 20
-710.1877042366
 30
0.0
 11
-959.4914625206
 21
-710.1877042366
 31
0.0
  0
LINE
  5
3D5
330
1F
100
AcDbEntity
  8
0
  6
Continuous
 62
     8
370
    15
100
AcDbLine
 10
-959.4328860559
 20
-710.0462829036
 30
0.0
 11
-929.5500452437
 21
-710.0462829036
 31
0.0
  0
LINE
  5
3D6
330
1F
100
AcDbEntity
  8
0
  6
Continuous
 62
     8
370
    15
100
AcDbLine
 10
-959.4914625206
 20
-710.9048617346
 30
0.0
 11
-929.4914613285
 21
-710.9048617346
 31
0.0
  0
LINE
  5
3D7
330
1F
100
AcDbEntity
  8
0
  6
Continuous
 62
     8
370
    15
100
AcDbLine
 10
-931.4328814664
 20
-708.1634401617
 30
0.0
 11
-957.5500423827
 21
-708.1634401617
 31
0.0
  0
ENDSEC
  0
SECTION
  2
OBJECTS
  0
DICTIONARY
  5
C
330
0
100
AcDbDictionary
281
     1
  3
ACAD_GROUP
350
D
  3
ACAD_LAYOUT
350
1A
  3
ACAD_MLEADERSTYLE
350
3DA
  3
ACAD_MLINESTYLE
350
17
  3
ACAD_PLOTSETTINGS
350
19
  3
ACAD_PLOTSTYLENAME
350
E
  3
ACAD_VISUALSTYLE
350
2A
  3
AcDbVariableDictionary
350
3D8
  0
DICTIONARY
  5
D
102
{ACAD_REACTORS
330
C
102
}
330
C
100
AcDbDictionary
281
     1
  0
DICTIONARY
  5
1A
102
{ACAD_REACTORS
330
C
102
}
330
C
100
AcDbDictionary
281
     1
  3
Layout1
350
1E
  3
Layout2
350
26
  3
Model
350
22
  0
DICTIONARY
  5
3DA
102
{ACAD_REACTORS
330
C
102
}
330
C
100
AcDbDictionary
281
     1
  0
DICTIONARY
  5
17
102
{ACAD_REACTORS
330
C
102
}
330
C
100
AcDbDictionary
281
     1
  3
Standard
350
18
  0
DICTIONARY
  5
19
102
{ACAD_REACTORS
330
C
102
}
330
C
100
AcDbDictionary
281
     1
  0
ACDBDICTIONARYWDFLT
  5
E
102
{ACAD_REACTORS
330
C
102
}
330
C
100
AcDbDictionary
281
     1
  3
Normal
350
F
100
AcDbDictionaryWithDefault
340
F
  0
DICTIONARY
  5
2A
102
{ACAD_REACTORS
330
C
102
}
330
C
100
AcDbDictionary
281
     1
  3
2dWireframe
350
2F
  3
3D Hidden
350
31
  3
3dWireframe
350
30
  3
Basic
350
32
  3
Brighten
350
36
  3
ColorChange
350
3A
  3
Conceptual
350
34
  3
Dim
350
35
  3
Facepattern
350
39
  3
Flat
350
2B
  3
FlatWithEdges
350
2C
  3
Gouraud
350
2D
  3
GouraudWithEdges
350
2E
  3
Linepattern
350
38
  3
Realistic
350
33
  3
Thicken
350
37
  0
DICTIONARY
  5
3D8
102
{ACAD_REACTORS
330
C
102
}
330
C
100
AcDbDictionary
281
     1
  3
DIMASSOC
350
3DD
  3
HIDETEXT
350
3DE
  3
PSOLHEIGHT
350
3DC
  3
PSOLWIDTH
350
3DB
  0
LAYOUT
  5
1E
102
{ACAD_REACTORS
330
1A
102
}
330
1A
100
AcDbPlotSettings
  1

  2
none_device
  4

  6

 40
0.0
 41
0.0
 42
0.0
 43
0.0
 44
0.0
 45
0.0
 46
0.0
 47
0.0
 48
0.0
 49
0.0
140
0.0
141
0.0
142
1.0
143
1.0
 70
   688
 72
     0
 73
     0
 74
     5
  7

 75
    16
147
1.0
148
0.0
149
0.0
100
AcDbLayout
  1
Layout1
 70
     1
 71
     1
 10
0.0
 20
0.0
 11
420.0
 21
297.0
 12
0.0
 22
0.0
 32
0.0
 14
1.0000000000E+20
 24
1.0000000000E+20
 34
1.0000000000E+20
 15
-1.0000000000E+20
 25
-1.0000000000E+20
 35
-1.0000000000E+20
146
0.0
 13
0.0
 23
0.0
 33
0.0
 16
1.0
 26
0.0
 36
0.0
 17
0.0
 27
1.0
 37
0.0
 76
     0
330
1B
  0
LAYOUT
  5
26
102
{ACAD_REACTORS
330
1A
102
}
330
1A
100
AcDbPlotSettings
  1

  2
none_device
  4

  6

 40
0.0
 41
0.0
 42
0.0
 43
0.0
 44
0.0
 45
0.0
 46
0.0
 47
0.0
 48
0.0
 49
0.0
140
0.0
141
0.0
142
1.0
143
1.0
 70
   688
 72
     0
 73
     0
 74
     5
  7

 75
    16
147
1.0
148
0.0
149
0.0
100
AcDbLayout
  1
Layout2
 70
     1
 71
     2
 10
0.0
 20
0.0
 11
0.0
 21
0.0
 12
0.0
 22
0.0
 32
0.0
 14
0.0
 24
0.0
 34
0.0
 15
0.0
 25
0.0
 35
0.0
146
0.0
 13
0.0
 23
0.0
 33
0.0
 16
1.0
 26
0.0
 36
0.0
 17
0.0
 27
1.0
 37
0.0
 76
     0
330
23
  0
LAYOUT
  5
22
102
{ACAD_REACTORS
330
1A
102
}
330
1A
100
AcDbPlotSettings
  1

  2
none_device
  4

  6

 40
0.0
 41
0.0
 42
0.0
 43
0.0
 44
0.0
 45
0.0
 46
0.0
 47
0.0
 48
0.0
 49
0.0
140
0.0
141
0.0
142
1.0
143
1.0
 70
  1712
 72
     0
 73
     0
 74
     0
  7

 75
     0
147
1.0
148
0.0
149
0.0
100
AcDbLayout
  1
Model
 70
     1
 71
     0
 10
0.0
 20
0.0
 11
841.0
 21
594.0
 12
0.0
 22
0.0
 32
0.0
 14
0.0
 24
0.0
 34
0.0
 15
841.0
 25
594.0
 35
0.0
146
0.0
 13
0.0
 23
0.0
 33
0.0
 16
1.0
 26
0.0
 36
0.0
 17
0.0
 27
1.0
 37
0.0
 76
     0
330
1F
331
29
  0
MLINESTYLE
  5
18
102
{ACAD_REACTORS
330
17
102
}
330
17
100
AcDbMlineStyle
  2
Standard
 70
     0
  3

 62
   256
 51
90.0
 52
90.0
 71
     2
 49
0.5
 62
   256
  6
BYLAYER
 49
-0.5
 62
   256
  6
BYLAYER
  0
ACDBPLACEHOLDER
  5
F
102
{ACAD_REACTORS
330
E
102
}
330
E
  0
VISUALSTYLE
  5
2F
102
{ACAD_REACTORS
330
2A
102
}
330
2A
100
AcDbVisualStyle
  2
2dWireframe
 70
     4
 71
     0
 72
     2
 73
     0
 90
        0
 40
-0.6
 41
-30.0
 62
     5
 63
     7
 74
     1
 91
        4
 64
     7
 65
   257
 75
     1
175
     1
 42
1.0
 92
        0
 66
   257
 43
1.0
 76
     1
 77
     6
 78
     2
 67
     7
 79
     5
170
     0
171
     0
290
     0
174
     0
 93
        1
 44
0.0
173
     0
291
     0
 45
0.0
1001
ACAD
1000
AcDbSavedByObjectVersion
1070
     0
  0
VISUALSTYLE
  5
31
102
{ACAD_REACTORS
330
2A
102
}
330
2A
100
AcDbVisualStyle
  2
3D Hidden
 70
     6
 71
     1
 72
     2
 73
     2
 90
        0
 40
-0.6
 41
-30.0
 62
     5
 63
     7
 74
     2
 91
        2
 64
     7
 65
   257
 75
     2
175
     1
 42
40.0
 92
        0
 66
   257
 43
1.0
 76
     1
 77
     6
 78
     2
 67
     7
 79
     3
170
     0
171
     0
290
     0
174
     0
 93
        1
 44
0.0
173
     0
291
     0
 45
0.0
1001
ACAD
1000
AcDbSavedByObjectVersion
1070
     0
  0
VISUALSTYLE
  5
30
102
{ACAD_REACTORS
330
2A
102
}
330
2A
100
AcDbVisualStyle
  2
3dWireframe
 70
     5
 71
     0
 72
     2
 73
     0
 90
        0
 40
-0.6
 41
-30.0
 62
     5
 63
     7
 74
     1
 91
        4
 64
     7
 65
   257
 75
     1
175
     1
 42
1.0
 92
        0
 66
   257
 43
1.0
 76
     1
 77
     6
 78
     2
 67
     7
 79
     5
170
     0
171
     0
290
     0
174
     0
 93
        1
 44
0.0
173
     0
291
     0
 45
0.0
1001
ACAD
1000
AcDbSavedByObjectVersion
1070
     0
  0
VISUALSTYLE
  5
32
102
{ACAD_REACTORS
330
2A
102
}
330
2A
100
AcDbVisualStyle
  2
Basic
 70
     7
 71
     1
 72
     0
 73
     1
 90
        0
 40
-0.6
 41
-30.0
 62
     5
 63
     7
 74
     0
 91
        4
 64
     7
 65
   257
 75
     1
175
     1
 42
1.0
 92
        8
 66
     7
 43
1.0
 76
     1
 77
     6
 78
     2
 67
     7
 79
     5
170
     0
171
     0
290
     0
174
     0
 93
        1
 44
0.0
173
     0
291
     1
 45
0.0
1001
ACAD
1000
AcDbSavedByObjectVersion
1070
     0
  0
VISUALSTYLE
  5
36
102
{ACAD_REACTORS
330
2A
102
}
330
2A
100
AcDbVisualStyle
  2
Brighten
 70
    12
 71
     2
 72
     2
 73
     0
 90
        0
 40
-0.6
 41
-30.0
 62
     5
 63
     7
 74
     1
 91
        4
 64
     7
 65
   257
 75
     1
175
     1
 42
1.0
 92
        8
 66
     7
 43
1.0
 76
     1
 77
     6
 78
     2
 67
     7
 79
     5
170
     0
171
     0
290
     0
174
     0
 93
        1
 44
50.0
173
     0
291
     1
 45
0.0
1001
ACAD
1000
AcDbSavedByObjectVersion
1070
     0
  0
VISUALSTYLE
  5
3A
102
{ACAD_REACTORS
330
2A
102
}
330
2A
100
AcDbVisualStyle
  2
ColorChange
 70
    16
 71
     2
 72
     2
 73
     3
 90
        0
 40
-0.6
 41
-30.0
 62
     5
 63
     8
 74
     1
 91
        4
 64
     7
 65
   257
 75
     1
175
     1
 42
1.0
 92
        8
 66
     8
 43
1.0
 76
     1
 77
     6
 78
     2
 67
     7
 79
     5
170
     0
171
     0
290
     0
174
     0
 93
        1
 44
0.0
173
     0
291
     1
 45
0.0
1001
ACAD
1000
AcDbSavedByObjectVersion
1070
     0
  0
VISUALSTYLE
  5
34
102
{ACAD_REACTORS
330
2A
102
}
330
2A
100
AcDbVisualStyle
  2
Conceptual
 70
     9
 71
     3
 72
     2
 73
     0
 90
        0
 40
-0.6
 41
-30.0
 62
     5
 63
     7
 74
     2
 91
        2
 64
     7
 65
   257
 75
     1
175
     1
 42
40.0
 92
        8
 66
     7
 43
1.0
 76
     1
 77
     6
 78
     2
 67
     7
 79
     3
170
     0
171
     0
290
     0
174
     0
 93
        1
 44
0.0
173
     0
291
     0
 45
0.0
1001
ACAD
1000
AcDbSavedByObjectVersion
1070
     0
  0
VISUALSTYLE
  5
35
102
{ACAD_REACTORS
330
2A
102
}
330
2A
100
AcDbVisualStyle
  2
Dim
 70
    11
 71
     2
 72
     2
 73
     0
 90
        0
 40
-0.6
 41
-30.0
 62
     5
 63
     7
 74
     1
 91
        4
 64
     7
 65
   257
 75
     1
175
     1
 42
1.0
 92
        8
 66
     7
 43
1.0
 76
     1
 77
     6
 78
     2
 67
     7
 79
     5
170
     0
171
     0
290
     0
174
     0
 93
        1
 44
-50.0
173
     0
291
     1
 45
0.0
1001
ACAD
1000
AcDbSavedByObjectVersion
1070
     0
  0
VISUALSTYLE
  5
39
102
{ACAD_REACTORS
330
2A
102
}
330
2A
100
AcDbVisualStyle
  2
Facepattern
 70
    15
 71
     2
 72
     2
 73
     0
 90
        0
 40
-0.6
 41
-30.0
 62
     5
 63
     7
 74
     1
 91
        4
 64
     7
 65
   257
 75
     1
175
     1
 42
1.0
 92
        8
 66
     7
 43
1.0
 76
     1
 77
     6
 78
     2
 67
     7
 79
     5
170
     0
171
     0
290
     0
174
     0
 93
        1
 44
0.0
173
     0
291
     1
 45
0.0
1001
ACAD
1000
AcDbSavedByObjectVersion
1070
     0
  0
VISUALSTYLE
  5
2B
102
{ACAD_REACTORS
330
2A
102
}
330
2A
100
AcDbVisualStyle
  2
Flat
 70
     0
 71
     2
 72
     1
 73
     1
 90
        2
 40
-0.6
 41
30.0
 62
     5
 63
     7
 74
     0
 91
        4
 64
     7
 65
   257
 75
     1
175
     1
 42
1.0
 92
        8
 66
     7
 43
1.0
 76
     1
 77
     6
 78
     2
 67
     7
 79
     5
170
     0
171
     0
290
     0
174
     0
 93
       13
 44
0.0
173
     0
291
     1
 45
0.0
1001
ACAD
1000
AcDbSavedByObjectVersion
1070
     0
  0
VISUALSTYLE
  5
2C
102
{ACAD_REACTORS
330
2A
102
}
330
2A
100
AcDbVisualStyle
  2
FlatWithEdges
 70
     1
 71
     2
 72
     1
 73
     1
 90
        2
 40
-0.6
 41
30.0
 62
     5
 63
     7
 74
     1
 91
        4
 64
     7
 65
   257
 75
     1
175
     1
 42
1.0
 92
        0
 66
   257
 43
1.0
 76
     1
 77
     6
 78
     2
 67
     7
 79
     5
170
     0
171
     0
290
     0
174
     0
 93
       13
 44
0.0
173
     0
291
     1
 45
0.0
1001
ACAD
1000
AcDbSavedByObjectVersion
1070
     0
  0
VISUALSTYLE
  5
2D
102
{ACAD_REACTORS
330
2A
102
}
330
2A
100
AcDbVisualStyle
  2
Gouraud
 70
     2
 71
     2
 72
     2
 73
     1
 90
        2
 40
-0.6
 41
30.0
 62
     5
 63
     7
 74
     0
 91
        4
 64
     7
 65
   257
 75
     1
175
     1
 42
1.0
 92
        0
 66
     7
 43
1.0
 76
     1
 77
     6
 78
     2
 67
     7
 79
     5
170
     0
171
     0
290
     0
174
     0
 93
       13
 44
0.0
173
     0
291
     1
 45
0.0
1001
ACAD
1000
AcDbSavedByObjectVersion
1070
     0
  0
VISUALSTYLE
  5
2E
102
{ACAD_REACTORS
330
2A
102
}
330
2A
100
AcDbVisualStyle
  2
GouraudWithEdges
 70
     3
 71
     2
 72
     2
 73
     1
 90
        2
 40
-0.6
 41
30.0
 62
     5
 63
     7
 74
     1
 91
        4
 64
     7
 65
   257
 75
     1
175
     1
 42
1.0
 92
        0
 66
   257
 43
1.0
 76
     1
 77
     6
 78
     2
 67
     7
 79
     5
170
     0
171
     0
290
     0
174
     0
 93
       13
 44
0.0
173
     0
291
     1
 45
0.0
1001
ACAD
1000
AcDbSavedByObjectVersion
1070
     0
  0
VISUALSTYLE
  5
38
102
{ACAD_REACTORS
330
2A
102
}
330
2A
100
AcDbVisualStyle
  2
Linepattern
 70
    14
 71
     2
 72
     2
 73
     0
 90
        0
 40
-0.6
 41
-30.0
 62
     5
 63
     7
 74
     1
 91
        4
 64
     7
 65
   257
 75
     7
175
     7
 42
1.0
 92
        8
 66
     7
 43
1.0
 76
     1
 77
     6
 78
     2
 67
     7
 79
     5
170
     0
171
     0
290
     0
174
     0
 93
        1
 44
0.0
173
     0
291
     1
 45
0.0
1001
ACAD
1000
AcDbSavedByObjectVersion
1070
     0
  0
VISUALSTYLE
  5
33
102
{ACAD_REACTORS
330
2A
102
}
330
2A
100
AcDbVisualStyle
  2
Realistic
 70
     8
 71
     2
 72
     2
 73
     0
 90
        0
 40
-0.6
 41
-30.0
 62
     5
 63
     7
 74
     1
 91
        0
 64
     7
 65
   257
 75
     1
175
     1
 42
1.0
 92
        8
 66
     8
 43
1.0
 76
     1
 77
     6
 78
     2
 67
     7
 79
     5
170
     0
171
     0
290
     0
174
     0
 93
       13
 44
0.0
173
     0
291
     0
 45
0.0
1001
ACAD
1000
AcDbSavedByObjectVersion
1070
     0
  0
VISUALSTYLE
  5
37
102
{ACAD_REACTORS
330
2A
102
}
330
2A
100
AcDbVisualStyle
  2
Thicken
 70
    13
 71
     2
 72
     2
 73
     0
 90
        0
 40
-0.6
 41
-30.0
 62
     5
 63
     7
 74
     1
 91
        4
 64
     7
 65
   257
 75
     1
175
     1
 42
1.0
 92
       12
 66
     7
 43
1.0
 76
     1
 77
     6
 78
     2
 67
     7
 79
     5
170
     0
171
     0
290
     0
174
     0
 93
        1
 44
0.0
173
     0
291
     1
 45
0.0
1001
ACAD
1000
AcDbSavedByObjectVersion
1070
     0
  0
DICTIONARYVAR
  5
3DD
102
{ACAD_REACTORS
330
3D8
102
}
330
3D8
100
DictionaryVariables
280
     0
  1
2
  0
DICTIONARYVAR
  5
3DE
102
{ACAD_REACTORS
330
3D8
102
}
330
3D8
100
DictionaryVariables
280
     0
  1
1
  0
DICTIONARYVAR
  5
3DC
102
{ACAD_REACTORS
330
3D8
102
}
330
3D8
100
DictionaryVariables
280
     0
  1
80.000000
  0
DICTIONARYVAR
  5
3DB
102
{ACAD_REACTORS
330
3D8
102
}
330
3D8
100
DictionaryVariables
280
     0
  1
5.000000
  0
ENDSEC
  0
EOF
