  0
SECTION
  2
HEADER
  9
$ACADVER
  1
AC1015
  9
$ACADMAINTVER
 70
     6
  9
$DWGCODEPAGE
  3
ANSI_1252
  9
$INSBASE
 10
0.0
 20
0.0
 30
0.0
  9
$EXTMIN
 10
0.0
 20
0.0
 30
0.0
  9
$EXTMAX
 10
431.8
 20
279.4
 30
0.0
  9
$LIMMIN
 10
0.0
 20
0.0
  9
$LIMMAX
 10
431.8
 20
279.4
  9
$ORTHOMODE
 70
     0
  9
$REGENMODE
 70
     1
  9
$FILLMODE
 70
     1
  9
$QTEXTMODE
 70
     0
  9
$MIRRTEXT
 70
     1
  9
$LTSCALE
 40
1.0
  9
$ATTMODE
 70
     1
  9
$TEXTSIZE
 40
4.9388888889
  9
$TRACEWID
 40
1.0
  9
$TEXTSTYLE
  7
Standard
  9
$CLAYER
  8
0
  9
$CELTYPE
  6
ByLayer
  9
$CECOLOR
 62
   256
  9
$CELTSCALE
 40
1.0
  9
$DISPSILH
 70
     0
  9
$DIMSCALE
 40
1.0
  9
$DIMASZ
 40
5.1366373698
  9
$DIMEXO
 40
2.0
  9
$DIMDLI
 40
3.75
  9
$DIMRND
 40
0.0
  9
$DIMDLE
 40
0.0
  9
$DIMEXE
 40
2.0
  9
$DIMTP
 40
0.0
  9
$DIMTM
 40
0.0
  9
$DIMTXT
 40
7.0555555556
  9
$DIMCEN
 40
2.5
  9
$DIMTSZ
 40
0.0
  9
$DIMTOL
 70
     0
  9
$DIMLIM
 70
     0
  9
$DIMTIH
 70
     1
  9
$DIMTOH
 70
     1
  9
$DIMSE1
 70
     0
  9
$DIMSE2
 70
     0
  9
$DIMTAD
 70
     1
  9
$DIMZIN
 70
     0
  9
$DIMBLK
  1

  9
$DIMASO
 70
     1
  9
$DIMSHO
 70
     1
  9
$DIMPOST
  1

  9
$DIMAPOST
  1

  9
$DIMALT
 70
     0
  9
$DIMALTD
 70
     3
  9
$DIMALTF
 40
0.0393700787
  9
$DIMLFAC
 40
1.0
  9
$DIMTOFL
 70
     1
  9
$DIMTVP
 40
0.0
  9
$DIMTIX
 70
     0
  9
$DIMSOXD
 70
     0
  9
$DIMSAH
 70
     0
  9
$DIMBLK1
  1

  9
$DIMBLK2
  1

  9
$DIMSTYLE
  2
ISO-25
  9
$DIMCLRD
 70
     0
  9
$DIMCLRE
 70
     0
  9
$DIMCLRT
 70
     0
  9
$DIMTFAC
 40
1.0
  9
$DIMGAP
 40
2.0
  9
$DIMJUST
 70
     0
  9
$DIMSD1
 70
     0
  9
$DIMSD2
 70
     0
  9
$DIMTOLJ
 70
     0
  9
$DIMTZIN
 70
     0
  9
$DIMALTZ
 70
     0
  9
$DIMALTTZ
 70
     0
  9
$DIMUPT
 70
     0
  9
$DIMDEC
 70
     2
  9
$DIMTDEC
 70
     2
  9
$DIMALTU
 70
     2
  9
$DIMALTTD
 70
     3
  9
$DIMTXSTY
  7
Standard
  9
$DIMAUNIT
 70
     0
  9
$DIMADEC
 70
     2
  9
$DIMALTRND
 40
0.0
  9
$DIMAZIN
 70
     0
  9
$DIMDSEP
 70
    44
  9
$DIMATFIT
 70
     3
  9
$DIMFRAC
 70
     0
  9
$DIMLDRBLK
  1

  9
$DIMLUNIT
 70
     2
  9
$DIMLWD
 70
    -2
  9
$DIMLWE
 70
    -2
  9
$DIMTMOVE
 70
     0
  9
$LUNITS
 70
     2
  9
$LUPREC
 70
     2
  9
$SKETCHINC
 40
1.0
  9
$FILLETRAD
 40
10.0
  9
$AUNITS
 70
     0
  9
$AUPREC
 70
     2
  9
$MENU
  1
.
  9
$ELEVATION
 40
0.0
  9
$PELEVATION
 40
0.0
  9
$THICKNESS
 40
0.0
  9
$LIMCHECK
 70
     0
  9
$CHAMFERA
 40
0.0
  9
$CHAMFERB
 40
0.0
  9
$CHAMFERC
 40
0.0
  9
$CHAMFERD
 40
0.0
  9
$SKPOLY
 70
     0
  9
$TDCREATE
 40
2457676.467384178
  9
$TDUCREATE
 40
2457676.384050845
  9
$TDUPDATE
 40
2457676.467385301
  9
$TDUUPDATE
 40
2457676.384051967
  9
$TDINDWG
 40
0.0000000116
  9
$TDUSRTIMER
 40
0.0000000116
  9
$USRTIMER
 70
     1
  9
$ANGBASE
 50
0.0
  9
$ANGDIR
 70
     0
  9
$PDMODE
 70
     0
  9
$PDSIZE
 40
-1.0
  9
$PLINEWID
 40
0.0
  9
$SPLFRAME
 70
     0
  9
$SPLINETYPE
 70
     6
  9
$SPLINESEGS
 70
     8
  9
$HANDSEED
  5
319
  9
$SURFTAB1
 70
     6
  9
$SURFTAB2
 70
     6
  9
$SURFTYPE
 70
     6
  9
$SURFU
 70
     6
  9
$SURFV
 70
     6
  9
$UCSBASE
  2

  9
$UCSNAME
  2

  9
$UCSORG
 10
0.0
 20
0.0
 30
0.0
  9
$UCSXDIR
 10
1.0
 20
0.0
 30
0.0
  9
$UCSYDIR
 10
0.0
 20
1.0
 30
0.0
  9
$UCSORTHOREF
  2

  9
$UCSORTHOVIEW
 70
     0
  9
$UCSORGTOP
 10
0.0
 20
0.0
 30
0.0
  9
$UCSORGBOTTOM
 10
0.0
 20
0.0
 30
0.0
  9
$UCSORGLEFT
 10
0.0
 20
0.0
 30
0.0
  9
$UCSORGRIGHT
 10
0.0
 20
0.0
 30
0.0
  9
$UCSORGFRONT
 10
0.0
 20
0.0
 30
0.0
  9
$UCSORGBACK
 10
0.0
 20
0.0
 30
0.0
  9
$PUCSBASE
  2

  9
$PUCSNAME
  2

  9
$PUCSORG
 10
0.0
 20
0.0
 30
0.0
  9
$PUCSXDIR
 10
1.0
 20
0.0
 30
0.0
  9
$PUCSYDIR
 10
0.0
 20
1.0
 30
0.0
  9
$PUCSORTHOREF
  2

  9
$PUCSORTHOVIEW
 70
     0
  9
$PUCSORGTOP
 10
0.0
 20
0.0
 30
0.0
  9
$PUCSORGBOTTOM
 10
0.0
 20
0.0
 30
0.0
  9
$PUCSORGLEFT
 10
0.0
 20
0.0
 30
0.0
  9
$PUCSORGRIGHT
 10
0.0
 20
0.0
 30
0.0
  9
$PUCSORGFRONT
 10
0.0
 20
0.0
 30
0.0
  9
$PUCSORGBACK
 10
0.0
 20
0.0
 30
0.0
  9
$USERI1
 70
     0
  9
$USERI2
 70
     0
  9
$USERI3
 70
     0
  9
$USERI4
 70
     0
  9
$USERI5
 70
     0
  9
$USERR1
 40
0.0
  9
$USERR2
 40
0.0
  9
$USERR3
 40
0.0
  9
$USERR4
 40
0.0
  9
$USERR5
 40
0.0
  9
$WORLDVIEW
 70
     1
  9
$SHADEDGE
 70
     3
  9
$SHADEDIF
 70
    70
  9
$TILEMODE
 70
     1
  9
$MAXACTVP
 70
    64
  9
$PINSBASE
 10
0.0
 20
0.0
 30
0.0
  9
$PLIMCHECK
 70
     0
  9
$PEXTMIN
 10
1.0000000000E+20
 20
1.0000000000E+20
 30
1.0000000000E+20
  9
$PEXTMAX
 10
-1.0000000000E+20
 20
-1.0000000000E+20
 30
-1.0000000000E+20
  9
$PLIMMIN
 10
0.0
 20
0.0
  9
$PLIMMAX
 10
420.0
 20
297.0
  9
$UNITMODE
 70
     0
  9
$VISRETAIN
 70
     1
  9
$PLINEGEN
 70
     0
  9
$PSLTSCALE
 70
     1
  9
$TREEDEPTH
 70
  3020
  9
$CMLSTYLE
  2
Standard
  9
$CMLJUST
 70
     0
  9
$CMLSCALE
 40
20.0
  9
$PROXYGRAPHICS
 70
     1
  9
$MEASUREMENT
 70
     1
  9
$CELWEIGHT
370
    -1
  9
$ENDCAPS
280
     0
  9
$JOINSTYLE
280
     0
  9
$LWDISPLAY
290
     1
  9
$INSUNITS
 70
     4
  9
$HYPERLINKBASE
  1

  9
$STYLESHEET
  1

  9
$XEDIT
290
     1
  9
$CEPSNTYPE
380
     0
  9
$PSTYLEMODE
290
     1
  9
$FINGERPRINTGUID
  2
{E1C68EC0-1FF9-4071-8E27-57EAA2DAC0AF}
  9
$VERSIONGUID
  2
{FAEB1C32-E019-11D5-929B-00C0DF256EC4}
  9
$EXTNAMES
290
     1
  9
$PSVPSCALE
 40
0.0
  9
$OLESTARTUP
290
     0
  0
ENDSEC
  0
SECTION
  2
CLASSES
  0
CLASS
  1
ACDBDICTIONARYWDFLT
  2
AcDbDictionaryWithDefault
  3
ObjectDBX Classes
 90
        0
280
     0
281
     0
  0
CLASS
  1
VISUALSTYLE
  2
AcDbVisualStyle
  3
ObjectDBX Classes
 90
     4095
280
     0
281
     0
  0
CLASS
  1
MATERIAL
  2
AcDbMaterial
  3
ObjectDBX Classes
 90
     1153
280
     0
281
     0
  0
CLASS
  1
SCALE
  2
AcDbScale
  3
ObjectDBX Classes
 90
     1153
280
     0
281
     0
  0
CLASS
  1
TABLESTYLE
  2
AcDbTableStyle
  3
ObjectDBX Classes
 90
     4095
280
     0
281
     0
  0
CLASS
  1
MLEADERSTYLE
  2
AcDbMLeaderStyle
  3
ACDB_MLEADERSTYLE_CLASS
 90
     4095
280
     0
281
     0
  0
CLASS
  1
SUN
  2
AcDbSun
  3
SCENEOE
 90
     1153
280
     0
281
     0
  0
CLASS
  1
ACDBPLACEHOLDER
  2
AcDbPlaceHolder
  3
ObjectDBX Classes
 90
        0
280
     0
281
     0
  0
CLASS
  1
LAYOUT
  2
AcDbLayout
  3
ObjectDBX Classes
 90
        0
280
     0
281
     0
  0
ENDSEC
  0
SECTION
  2
TABLES
  0
TABLE
  2
VPORT
  5
8
330
0
100
AcDbSymbolTable
 70
     1
  0
VPORT
  5
29
330
8
100
AcDbSymbolTableRecord
100
AcDbViewportTableRecord
  2
*Active
 70
     0
 10
0.0
 20
0.0
 11
1.0
 21
1.0
 12
215.9
 22
139.7
 13
0.0
 23
0.0
 14
10.0
 24
10.0
 15
10.0
 25
10.0
 16
0.0
 26
0.0
 36
1.0
 17
0.0
 27
0.0
 37
0.0
 40
279.4
 41
1.5454545455
 42
50.0
 43
0.0
 44
0.0
 50
0.0
 51
0.0
 71
     0
 72
  2000
 73
     1
 74
     3
 75
     0
 76
     0
 77
     0
 78
     0
281
     0
 65
     1
110
0.0
120
0.0
130
0.0
111
1.0
121
0.0
131
0.0
112
0.0
122
1.0
132
0.0
 79
     0
146
0.0
  0
ENDTAB
  0
TABLE
  2
LTYPE
  5
5
330
0
100
AcDbSymbolTable
 70
     6
  0
LTYPE
  5
14
330
5
100
AcDbSymbolTableRecord
100
AcDbLinetypeTableRecord
  2
ByBlock
 70
     0
  3

 72
    65
 73
     0
 40
0.0
  0
LTYPE
  5
15
330
5
100
AcDbSymbolTableRecord
100
AcDbLinetypeTableRecord
  2
ByLayer
 70
     0
  3

 72
    65
 73
     0
 40
0.0
  0
LTYPE
  5
16
330
5
100
AcDbSymbolTableRecord
100
AcDbLinetypeTableRecord
  2
Continuous
 70
     0
  3
Solid line
 72
    65
 73
     0
 40
0.0
  0
LTYPE
  5
6E
330
5
100
AcDbSymbolTableRecord
100
AcDbLinetypeTableRecord
  2
HIDDEN
 70
     0
  3
Hidden __ __ __ __ __ __ __ __ __ __ __ __ __ __
 72
    65
 73
     2
 40
1.905
 49
1.27
 74
     0
 49
-0.635
 74
     0
  0
LTYPE
  5
6F
330
5
100
AcDbSymbolTableRecord
100
AcDbLinetypeTableRecord
  2
PHANTOM
 70
     0
  3
Phantom ______  __  __  ______  __  __  ______
 72
    65
 73
     6
 40
12.7
 49
6.35
 74
     0
 49
-1.27
 74
     0
 49
1.27
 74
     0
 49
-1.27
 74
     0
 49
1.27
 74
     0
 49
-1.27
 74
     0
  0
LTYPE
  5
70
330
5
100
AcDbSymbolTableRecord
100
AcDbLinetypeTableRecord
  2
CENTER
 70
     0
  3
Center ____ _ ____ _ ____ _ ____ _ ____ _ ____
 72
    65
 73
     4
 40
10.16
 49
6.35
 74
     0
 49
-1.27
 74
     0
 49
1.27
 74
     0
 49
-1.27
 74
     0
  0
LTYPE
  5
71
330
5
100
AcDbSymbolTableRecord
100
AcDbLinetypeTableRecord
  2
CENTERX2
 70
     0
  3
Center (2x) ________  __  ________  __  _____
 72
    65
 73
     4
 40
20.32
 49
12.7
 74
     0
 49
-2.54
 74
     0
 49
2.54
 74
     0
 49
-2.54
 74
     0
  0
LTYPE
  5
72
330
5
100
AcDbSymbolTableRecord
100
AcDbLinetypeTableRecord
  2
DOT2
 70
     0
  3
Dot (.5x) ........................................
 72
    65
 73
     2
 40
0.635
 49
0.0
 74
     0
 49
-0.635
 74
     0
  0
ENDTAB
  0
TABLE
  2
LAYER
  5
2
330
0
100
AcDbSymbolTable
 70
     3
  0
LAYER
  5
10
330
2
100
AcDbSymbolTableRecord
100
AcDbLayerTableRecord
  2
0
 70
     0
 62
     7
  6
Continuous
370
    -3
390
F
  0
LAYER
  5
73
330
2
100
AcDbSymbolTableRecord
100
AcDbLayerTableRecord
  2
SLD-0
 70
     0
 62
   179
  6
Continuous
370
    -3
390
F
  0
LAYER
  5
74
330
2
100
AcDbSymbolTableRecord
100
AcDbLayerTableRecord
  2
EBENE_1
 70
     0
 62
   179
  6
Continuous
370
    -3
390
F
  0
ENDTAB
  0
TABLE
  2
STYLE
  5
3
330
0
100
AcDbSymbolTable
 70
     3
  0
STYLE
  5
11
330
3
100
AcDbSymbolTableRecord
100
AcDbTextStyleTableRecord
  2
Standard
 70
     0
 40
0.0
 41
1.0
 50
0.0
 71
     0
 42
4.9388888889
  3
txt
  4

  0
STYLE
  5
96
330
3
100
AcDbSymbolTableRecord
100
AcDbTextStyleTableRecord
  2
SLDTEXTSTYLE0
 70
     0
 40
0.0
 41
0.605
 50
0.0
 71
     0
 42
4.9388888889
  3
TXT
  4

  0
STYLE
  5
16E
330
3
100
AcDbSymbolTableRecord
100
AcDbTextStyleTableRecord
  2
SLDTEXTSTYLE1
 70
     0
 40
0.0
 41
0.75
 50
0.0
 71
     0
 42
4.9388888889
  3
TXT
  4

  0
ENDTAB
  0
TABLE
  2
VIEW
  5
6
330
0
100
AcDbSymbolTable
 70
     0
  0
ENDTAB
  0
TABLE
  2
UCS
  5
7
330
0
100
AcDbSymbolTable
 70
     0
  0
ENDTAB
  0
TABLE
  2
APPID
  5
9
330
0
100
AcDbSymbolTable
 70
     1
  0
APPID
  5
12
330
9
100
AcDbSymbolTableRecord
100
AcDbRegAppTableRecord
  2
ACAD
 70
     0
  0
ENDTAB
  0
TABLE
  2
DIMSTYLE
  5
A
330
0
100
AcDbSymbolTable
 70
     1
100
AcDbDimStyleTable
  0
DIMSTYLE
105
27
330
A
100
AcDbSymbolTableRecord
100
AcDbDimStyleTableRecord
  2
ISO-25
 70
     0
 41
2.5
 42
0.625
 43
3.75
 44
1.25
 73
     0
 74
     0
 77
     1
 78
     8
140
2.5
141
2.5
143
0.0393700787
147
0.625
171
     3
172
     1
178
     0
271
     2
272
     2
274
     3
278
    44
283
     0
284
     8
340
11
  0
ENDTAB
  0
TABLE
  2
BLOCK_RECORD
  5
1
330
0
100
AcDbSymbolTable
 70
    25
  0
BLOCK_RECORD
  5
1F
330
1
100
AcDbSymbolTableRecord
100
AcDbBlockTableRecord
  2
*Model_Space
340
22
  0
BLOCK_RECORD
  5
1B
330
1
100
AcDbSymbolTableRecord
100
AcDbBlockTableRecord
  2
*Paper_Space
340
1E
  0
BLOCK_RECORD
  5
23
330
1
100
AcDbSymbolTableRecord
100
AcDbBlockTableRecord
  2
*Paper_Space0
340
26
  0
BLOCK_RECORD
  5
75
330
1
100
AcDbSymbolTableRecord
100
AcDbBlockTableRecord
  2
Block1
340
0
102
{BLKREFS
331
16D
102
}
  0
BLOCK_RECORD
  5
8C
330
1
100
AcDbSymbolTableRecord
100
AcDbBlockTableRecord
  2
SW_BLOCK_DIMENSION_0
340
0
102
{BLKREFS
331
98
102
}
  0
BLOCK_RECORD
  5
8F
330
1
100
AcDbSymbolTableRecord
100
AcDbBlockTableRecord
  2
_ORIGIN
340
0
102
{BLKREFS
331
94
331
104
102
}
  0
BLOCK_RECORD
  5
99
330
1
100
AcDbSymbolTableRecord
100
AcDbBlockTableRecord
  2
SW_BLOCK_DIMENSION_1
340
0
102
{BLKREFS
331
A0
102
}
  0
BLOCK_RECORD
  5
A1
330
1
100
AcDbSymbolTableRecord
100
AcDbBlockTableRecord
  2
SW_BLOCK_DIMENSION_2
340
0
102
{BLKREFS
331
A8
102
}
  0
BLOCK_RECORD
  5
A9
330
1
100
AcDbSymbolTableRecord
100
AcDbBlockTableRecord
  2
SW_BLOCK_DIMENSION_3
340
0
102
{BLKREFS
331
B0
102
}
  0
BLOCK_RECORD
  5
B1
330
1
100
AcDbSymbolTableRecord
100
AcDbBlockTableRecord
  2
SW_BLOCK_DIMENSION_4
340
0
102
{BLKREFS
331
B8
102
}
  0
BLOCK_RECORD
  5
B9
330
1
100
AcDbSymbolTableRecord
100
AcDbBlockTableRecord
  2
SW_BLOCK_DIMENSION_5
340
0
102
{BLKREFS
331
C0
102
}
  0
BLOCK_RECORD
  5
C1
330
1
100
AcDbSymbolTableRecord
100
AcDbBlockTableRecord
  2
SW_BLOCK_DIMENSION_6
340
0
102
{BLKREFS
331
C8
102
}
  0
BLOCK_RECORD
  5
C9
330
1
100
AcDbSymbolTableRecord
100
AcDbBlockTableRecord
  2
SW_BLOCK_DIMENSION_7
340
0
102
{BLKREFS
331
D0
102
}
  0
BLOCK_RECORD
  5
D1
330
1
100
AcDbSymbolTableRecord
100
AcDbBlockTableRecord
  2
SW_BLOCK_DIMENSION_8
340
0
102
{BLKREFS
331
D8
102
}
  0
BLOCK_RECORD
  5
D9
330
1
100
AcDbSymbolTableRecord
100
AcDbBlockTableRecord
  2
SW_BLOCK_DIMENSION_9
340
0
102
{BLKREFS
331
E0
102
}
  0
BLOCK_RECORD
  5
E1
330
1
100
AcDbSymbolTableRecord
100
AcDbBlockTableRecord
  2
SW_BLOCK_DIMENSION_10
340
0
102
{BLKREFS
331
E8
102
}
  0
BLOCK_RECORD
  5
E9
330
1
100
AcDbSymbolTableRecord
100
AcDbBlockTableRecord
  2
SW_BLOCK_DIMENSION_11
340
0
102
{BLKREFS
331
F0
102
}
  0
BLOCK_RECORD
  5
F1
330
1
100
AcDbSymbolTableRecord
100
AcDbBlockTableRecord
  2
SW_BLOCK_DIMENSION_12
340
0
102
{BLKREFS
331
F8
102
}
  0
BLOCK_RECORD
  5
F9
330
1
100
AcDbSymbolTableRecord
100
AcDbBlockTableRecord
  2
SW_BLOCK_DIMENSION_13
340
0
102
{BLKREFS
331
100
102
}
  0
BLOCK_RECORD
  5
101
330
1
100
AcDbSymbolTableRecord
100
AcDbBlockTableRecord
  2
SW_BLOCK_DIMENSION_14
340
0
102
{BLKREFS
331
110
102
}
  0
BLOCK_RECORD
  5
111
330
1
100
AcDbSymbolTableRecord
100
AcDbBlockTableRecord
  2
SW_BLOCK_DIMENSION_15
340
0
102
{BLKREFS
331
121
102
}
  0
BLOCK_RECORD
  5
122
330
1
100
AcDbSymbolTableRecord
100
AcDbBlockTableRecord
  2
SW_BLOCK_DIMENSION_16
340
0
102
{BLKREFS
331
132
102
}
  0
BLOCK_RECORD
  5
133
330
1
100
AcDbSymbolTableRecord
100
AcDbBlockTableRecord
  2
SW_BLOCK_DIMENSION_17
340
0
102
{BLKREFS
331
143
102
}
  0
BLOCK_RECORD
  5
144
330
1
100
AcDbSymbolTableRecord
100
AcDbBlockTableRecord
  2
SW_BLOCK_DIMENSION_18
340
0
102
{BLKREFS
331
154
102
}
  0
BLOCK_RECORD
  5
155
330
1
100
AcDbSymbolTableRecord
100
AcDbBlockTableRecord
  2
SW_BLOCK_DIMENSION_19
340
0
102
{BLKREFS
331
165
102
}
  0
BLOCK_RECORD
  5
166
330
1
100
AcDbSymbolTableRecord
100
AcDbBlockTableRecord
  2
SW_NOTE_0
340
0
102
{BLKREFS
331
16B
102
}
  0
BLOCK_RECORD
  5
171
330
1
100
AcDbSymbolTableRecord
100
AcDbBlockTableRecord
  2
SW_NOTE_1
340
0
102
{BLKREFS
331
178
102
}
  0
ENDTAB
  0
ENDSEC
  0
SECTION
  2
BLOCKS
  0
BLOCK
  5
20
330
1F
100
AcDbEntity
  8
0
100
AcDbBlockBegin
  2
*Model_Space
 70
     0
 10
0.0
 20
0.0
 30
0.0
  3
*Model_Space
  1

  0
ENDBLK
  5
21
330
1F
100
AcDbEntity
  8
0
100
AcDbBlockEnd
  0
BLOCK
  5
1C
330
1B
100
AcDbEntity
 67
     1
  8
0
100
AcDbBlockBegin
  2
*Paper_Space
 70
     0
 10
0.0
 20
0.0
 30
0.0
  3
*Paper_Space
  1

  0
ENDBLK
  5
1D
330
1B
100
AcDbEntity
 67
     1
  8
0
100
AcDbBlockEnd
  0
BLOCK
  5
24
330
23
100
AcDbEntity
  8
0
100
AcDbBlockBegin
  2
*Paper_Space0
 70
     0
 10
0.0
 20
0.0
 30
0.0
  3
*Paper_Space0
  1

  0
ENDBLK
  5
25
330
23
100
AcDbEntity
  8
0
100
AcDbBlockEnd
  0
BLOCK
  5
76
330
75
100
AcDbEntity
  8
0
100
AcDbBlockBegin
  2
Block1
 70
     0
 10
0.0
 20
0.0
 30
0.0
  3
Block1
  1

  0
LINE
  5
78
330
75
100
AcDbEntity
  8
EBENE_1
100
AcDbLine
 10
363.6834285714
 20
41.3579706949
 30
0.0
 11
388.6834285714
 21
41.3579706949
 31
0.0
  0
LINE
  5
79
330
75
100
AcDbEntity
  8
EBENE_1
100
AcDbLine
 10
374.9034285714
 20
41.3579706949
 30
0.0
 11
374.9034285714
 21
171.3579706949
 31
0.0
  0
LINE
  5
7A
330
75
100
AcDbEntity
  8
EBENE_1
100
AcDbLine
 10
374.9034285714
 20
51.3579706949
 30
0.0
 11
384.9034285714
 21
51.3579706949
 31
0.0
  0
LINE
  5
7B
330
75
100
AcDbEntity
  8
EBENE_1
100
AcDbLine
 10
374.9034285714
 20
61.3579706949
 30
0.0
 11
384.9034285714
 21
61.3579706949
 31
0.0
  0
LINE
  5
7C
330
75
100
AcDbEntity
  8
EBENE_1
100
AcDbLine
 10
374.9034285714
 20
71.3579706949
 30
0.0
 11
384.9034285714
 21
71.3579706949
 31
0.0
  0
LINE
  5
7D
330
75
100
AcDbEntity
  8
EBENE_1
100
AcDbLine
 10
374.9034285714
 20
81.3579706949
 30
0.0
 11
384.9034285714
 21
81.3579706949
 31
0.0
  0
LINE
  5
7E
330
75
100
AcDbEntity
  8
EBENE_1
100
AcDbLine
 10
374.9034285714
 20
91.3579706949
 30
0.0
 11
384.9034285714
 21
91.3579706949
 31
0.0
  0
LINE
  5
7F
330
75
100
AcDbEntity
  8
EBENE_1
100
AcDbLine
 10
374.9034285714
 20
101.3579706949
 30
0.0
 11
384.9034285714
 21
101.3579706949
 31
0.0
  0
LINE
  5
80
330
75
100
AcDbEntity
  8
EBENE_1
100
AcDbLine
 10
374.9034285714
 20
111.3579706949
 30
0.0
 11
384.9034285714
 21
111.3579706949
 31
0.0
  0
LINE
  5
81
330
75
100
AcDbEntity
  8
EBENE_1
100
AcDbLine
 10
374.9034285714
 20
121.3579706949
 30
0.0
 11
384.9034285714
 21
121.3579706949
 31
0.0
  0
LINE
  5
82
330
75
100
AcDbEntity
  8
EBENE_1
100
AcDbLine
 10
374.9034285714
 20
131.3579706949
 30
0.0
 11
384.9034285714
 21
131.3579706949
 31
0.0
  0
LINE
  5
83
330
75
100
AcDbEntity
  8
EBENE_1
100
AcDbLine
 10
374.9034285714
 20
141.3579706949
 30
0.0
 11
384.9034285714
 21
141.3579706949
 31
0.0
  0
LINE
  5
84
330
75
100
AcDbEntity
  8
EBENE_1
100
AcDbLine
 10
374.9034285714
 20
151.3579706949
 30
0.0
 11
384.9034285714
 21
151.3579706949
 31
0.0
  0
LINE
  5
85
330
75
100
AcDbEntity
  8
EBENE_1
100
AcDbLine
 10
374.9034285714
 20
161.3579706949
 30
0.0
 11
384.9034285714
 21
161.3579706949
 31
0.0
  0
LINE
  5
86
330
75
100
AcDbEntity
  8
EBENE_1
100
AcDbLine
 10
374.9034285714
 20
171.3579706949
 30
0.0
 11
384.9034285714
 21
171.3579706949
 31
0.0
  0
LINE
  5
87
330
75
100
AcDbEntity
  8
EBENE_1
100
AcDbLine
 10
374.9034285714
 20
66.7579706949
 30
0.0
 11
362.9034285714
 21
66.7579706949
 31
0.0
  0
LINE
  5
88
330
75
100
AcDbEntity
  8
EBENE_1
100
AcDbLine
 10
374.9034285714
 20
92.1579706949
 30
0.0
 11
362.9034285714
 21
92.1579706949
 31
0.0
  0
LINE
  5
89
330
75
100
AcDbEntity
  8
EBENE_1
100
AcDbLine
 10
374.9034285714
 20
117.5579706949
 30
0.0
 11
362.9034285714
 21
117.5579706949
 31
0.0
  0
LINE
  5
8A
330
75
100
AcDbEntity
  8
EBENE_1
100
AcDbLine
 10
374.9034285714
 20
142.9579706949
 30
0.0
 11
362.9034285714
 21
142.9579706949
 31
0.0
  0
LINE
  5
8B
330
75
100
AcDbEntity
  8
EBENE_1
100
AcDbLine
 10
374.9034285714
 20
168.3579706949
 30
0.0
 11
362.9034285714
 21
168.3579706949
 31
0.0
  0
INSERT
  5
98
330
75
100
AcDbEntity
  8
EBENE_1
100
AcDbBlockReference
  2
SW_BLOCK_DIMENSION_0
 10
397.2096946378
 20
38.9914197296
 30
0.0
  0
INSERT
  5
A0
330
75
100
AcDbEntity
  8
EBENE_1
100
AcDbBlockReference
  2
SW_BLOCK_DIMENSION_1
 10
397.2096946378
 20
48.9914197296
 30
0.0
  0
INSERT
  5
A8
330
75
100
AcDbEntity
  8
EBENE_1
100
AcDbBlockReference
  2
SW_BLOCK_DIMENSION_2
 10
397.2096946378
 20
58.9914197296
 30
0.0
  0
INSERT
  5
B0
330
75
100
AcDbEntity
  8
EBENE_1
100
AcDbBlockReference
  2
SW_BLOCK_DIMENSION_3
 10
397.2096946378
 20
68.9914197296
 30
0.0
  0
INSERT
  5
B8
330
75
100
AcDbEntity
  8
EBENE_1
100
AcDbBlockReference
  2
SW_BLOCK_DIMENSION_4
 10
397.2096946378
 20
78.9914197296
 30
0.0
  0
INSERT
  5
C0
330
75
100
AcDbEntity
  8
EBENE_1
100
AcDbBlockReference
  2
SW_BLOCK_DIMENSION_5
 10
397.2096946378
 20
88.9914197296
 30
0.0
  0
INSERT
  5
C8
330
75
100
AcDbEntity
  8
EBENE_1
100
AcDbBlockReference
  2
SW_BLOCK_DIMENSION_6
 10
397.2096946378
 20
98.9914197296
 30
0.0
  0
INSERT
  5
D0
330
75
100
AcDbEntity
  8
EBENE_1
100
AcDbBlockReference
  2
SW_BLOCK_DIMENSION_7
 10
397.2096946378
 20
108.9914197296
 30
0.0
  0
INSERT
  5
D8
330
75
100
AcDbEntity
  8
EBENE_1
100
AcDbBlockReference
  2
SW_BLOCK_DIMENSION_8
 10
397.2096946378
 20
118.9914197296
 30
0.0
  0
INSERT
  5
E0
330
75
100
AcDbEntity
  8
EBENE_1
100
AcDbBlockReference
  2
SW_BLOCK_DIMENSION_9
 10
397.2096946378
 20
128.9914197296
 30
0.0
  0
INSERT
  5
E8
330
75
100
AcDbEntity
  8
EBENE_1
100
AcDbBlockReference
  2
SW_BLOCK_DIMENSION_10
 10
397.2096946378
 20
138.9914197296
 30
0.0
  0
INSERT
  5
F0
330
75
100
AcDbEntity
  8
EBENE_1
100
AcDbBlockReference
  2
SW_BLOCK_DIMENSION_11
 10
397.2096946378
 20
148.9914197296
 30
0.0
  0
INSERT
  5
F8
330
75
100
AcDbEntity
  8
EBENE_1
100
AcDbBlockReference
  2
SW_BLOCK_DIMENSION_12
 10
397.2096946378
 20
158.9914197296
 30
0.0
  0
INSERT
  5
100
330
75
100
AcDbEntity
  8
EBENE_1
100
AcDbBlockReference
  2
SW_BLOCK_DIMENSION_13
 10
397.2096946378
 20
168.9914197296
 30
0.0
  0
INSERT
  5
110
330
75
100
AcDbEntity
  8
EBENE_1
100
AcDbBlockReference
  2
SW_BLOCK_DIMENSION_14
 10
337.2987953614
 20
36.1691980072
 30
0.0
  0
INSERT
  5
121
330
75
100
AcDbEntity
  8
EBENE_1
100
AcDbBlockReference
  2
SW_BLOCK_DIMENSION_15
 10
337.2987953614
 20
61.5691980072
 30
0.0
  0
INSERT
  5
132
330
75
100
AcDbEntity
  8
EBENE_1
100
AcDbBlockReference
  2
SW_BLOCK_DIMENSION_16
 10
337.2987953614
 20
86.9691980072
 30
0.0
  0
INSERT
  5
143
330
75
100
AcDbEntity
  8
EBENE_1
100
AcDbBlockReference
  2
SW_BLOCK_DIMENSION_17
 10
337.2987953614
 20
112.3691980072
 30
0.0
  0
INSERT
  5
154
330
75
100
AcDbEntity
  8
EBENE_1
100
AcDbBlockReference
  2
SW_BLOCK_DIMENSION_18
 10
336.8284243759
 20
137.7691980072
 30
0.0
  0
INSERT
  5
165
330
75
100
AcDbEntity
  8
EBENE_1
100
AcDbBlockReference
  2
SW_BLOCK_DIMENSION_19
 10
337.2987953614
 20
163.1691980072
 30
0.0
  0
INSERT
  5
16B
330
75
100
AcDbEntity
  8
EBENE_1
 62
   179
100
AcDbBlockReference
  2
SW_NOTE_0
 10
337.5586028241
 20
28.8175207347
 30
0.0
  0
MTEXT
  5
16C
330
75
100
AcDbEntity
  8
EBENE_1
100
AcDbMText
 10
393.160738319
 20
33.5924424874
 30
0.0
 40
3.7041666667
 41
0.0
 71
     1
 72
     1
  1
mm
  7
SLDTEXTSTYLE0
 73
     1
 44
1.0
  0
ENDBLK
  5
77
330
75
100
AcDbEntity
  8
0
100
AcDbBlockEnd
  0
BLOCK
  5
8D
330
8C
100
AcDbEntity
  8
0
100
AcDbBlockBegin
  2
SW_BLOCK_DIMENSION_0
 70
     0
 10
0.0
 20
0.0
 30
0.0
  3
SW_BLOCK_DIMENSION_0
  1

  0
INSERT
  5
94
330
8C
100
AcDbEntity
  8
EBENE_1
 62
     0
100
AcDbBlockReference
  2
_ORIGIN
 10
-1.5805038061
 20
2.3665509652
 30
0.0
 41
0.9483022837
 42
0.9483022837
 50
0.0
  0
LINE
  5
95
330
8C
100
AcDbEntity
  8
EBENE_1
 62
     0
100
AcDbLine
 10
-6.5262660664
 20
2.3665509652
 30
0.0
 11
0.0
 21
2.3665509652
 31
0.0
  0
MTEXT
  5
97
330
8C
100
AcDbEntity
  8
EBENE_1
 62
     0
100
AcDbMText
 10
0.0
 20
4.0927900738
 30
0.0
 40
3.175
 41
0.0
 71
     1
 72
     1
  1
0
  7
SLDTEXTSTYLE0
 73
     1
 44
1.0
  0
ENDBLK
  5
8E
330
8C
100
AcDbEntity
  8
0
100
AcDbBlockEnd
  0
BLOCK
  5
90
330
8F
100
AcDbEntity
  8
0
100
AcDbBlockBegin
  2
_ORIGIN
 70
     0
 10
0.0
 20
0.0
 30
0.0
  3
_ORIGIN
  1

  0
CIRCLE
  5
92
330
8F
100
AcDbEntity
  8
0
  6
ByBlock
 62
     0
370
    -2
100
AcDbCircle
 10
0.0
 20
0.0
 30
0.0
 40
0.5
  0
LINE
  5
93
330
8F
100
AcDbEntity
  8
0
  6
ByBlock
 62
     0
370
    -2
100
AcDbLine
 10
0.0
 20
0.0
 30
0.0
 11
-1.0
 21
0.0
 31
0.0
  0
ENDBLK
  5
91
330
8F
100
AcDbEntity
  8
0
100
AcDbBlockEnd
  0
BLOCK
  5
9A
330
99
100
AcDbEntity
  8
0
100
AcDbBlockBegin
  2
SW_BLOCK_DIMENSION_1
 70
     0
 10
0.0
 20
0.0
 30
0.0
  3
SW_BLOCK_DIMENSION_1
  1

  0
SOLID
  5
9C
330
99
100
AcDbEntity
  8
EBENE_1
 62
     0
100
AcDbTrace
 10
-1.5805038061
 20
2.3665509652
 30
0.0
 11
-2.0546549479
 21
-0.7154314566
 31
0.0
 12
-1.1063526643
 22
-0.7154314566
 32
0.0
 13
-1.1063526643
 23
-0.7154314566
 33
0.0
  0
LINE
  5
9D
330
99
100
AcDbEntity
  8
EBENE_1
 62
     0
100
AcDbLine
 10
-10.3062660664
 20
2.3665509652
 30
0.0
 11
0.0
 21
2.3665509652
 31
0.0
  0
LINE
  5
9E
330
99
100
AcDbEntity
  8
EBENE_1
 62
     0
100
AcDbLine
 10
-1.5805038061
 20
-7.6334490348
 30
0.0
 11
-1.5805038061
 21
2.3665509652
 31
0.0
  0
MTEXT
  5
9F
330
99
100
AcDbEntity
  8
EBENE_1
 62
     0
100
AcDbMText
 10
0.0
 20
4.0927900738
 30
0.0
 40
3.175
 41
0.0
 71
     1
 72
     1
  1
10
  7
SLDTEXTSTYLE0
 73
     1
 44
1.0
  0
ENDBLK
  5
9B
330
99
100
AcDbEntity
  8
0
100
AcDbBlockEnd
  0
BLOCK
  5
A2
330
A1
100
AcDbEntity
  8
0
100
AcDbBlockBegin
  2
SW_BLOCK_DIMENSION_2
 70
     0
 10
0.0
 20
0.0
 30
0.0
  3
SW_BLOCK_DIMENSION_2
  1

  0
SOLID
  5
A4
330
A1
100
AcDbEntity
  8
EBENE_1
 62
     0
100
AcDbTrace
 10
-1.5805038061
 20
2.3665509652
 30
0.0
 11
-2.0546549479
 21
-0.7154314566
 31
0.0
 12
-1.1063526643
 22
-0.7154314566
 32
0.0
 13
-1.1063526643
 23
-0.7154314566
 33
0.0
  0
LINE
  5
A5
330
A1
100
AcDbEntity
  8
EBENE_1
 62
     0
100
AcDbLine
 10
-10.3062660664
 20
2.3665509652
 30
0.0
 11
0.0
 21
2.3665509652
 31
0.0
  0
LINE
  5
A6
330
A1
100
AcDbEntity
  8
EBENE_1
 62
     0
100
AcDbLine
 10
-1.5805038061
 20
-7.6334490348
 30
0.0
 11
-1.5805038061
 21
2.3665509652
 31
0.0
  0
MTEXT
  5
A7
330
A1
100
AcDbEntity
  8
EBENE_1
 62
     0
100
AcDbMText
 10
0.0
 20
4.0927900738
 30
0.0
 40
3.175
 41
0.0
 71
     1
 72
     1
  1
20
  7
SLDTEXTSTYLE0
 73
     1
 44
1.0
  0
ENDBLK
  5
A3
330
A1
100
AcDbEntity
  8
0
100
AcDbBlockEnd
  0
BLOCK
  5
AA
330
A9
100
AcDbEntity
  8
0
100
AcDbBlockBegin
  2
SW_BLOCK_DIMENSION_3
 70
     0
 10
0.0
 20
0.0
 30
0.0
  3
SW_BLOCK_DIMENSION_3
  1

  0
SOLID
  5
AC
330
A9
100
AcDbEntity
  8
EBENE_1
 62
     0
100
AcDbTrace
 10
-1.5805038061
 20
2.3665509652
 30
0.0
 11
-2.0546549479
 21
-0.7154314566
 31
0.0
 12
-1.1063526643
 22
-0.7154314566
 32
0.0
 13
-1.1063526643
 23
-0.7154314566
 33
0.0
  0
LINE
  5
AD
330
A9
100
AcDbEntity
  8
EBENE_1
 62
     0
100
AcDbLine
 10
-10.3062660664
 20
2.3665509652
 30
0.0
 11
0.0
 21
2.3665509652
 31
0.0
  0
LINE
  5
AE
330
A9
100
AcDbEntity
  8
EBENE_1
 62
     0
100
AcDbLine
 10
-1.5805038061
 20
-7.6334490348
 30
0.0
 11
-1.5805038061
 21
2.3665509652
 31
0.0
  0
MTEXT
  5
AF
330
A9
100
AcDbEntity
  8
EBENE_1
 62
     0
100
AcDbMText
 10
0.0
 20
4.0927900738
 30
0.0
 40
3.175
 41
0.0
 71
     1
 72
     1
  1
30
  7
SLDTEXTSTYLE0
 73
     1
 44
1.0
  0
ENDBLK
  5
AB
330
A9
100
AcDbEntity
  8
0
100
AcDbBlockEnd
  0
BLOCK
  5
B2
330
B1
100
AcDbEntity
  8
0
100
AcDbBlockBegin
  2
SW_BLOCK_DIMENSION_4
 70
     0
 10
0.0
 20
0.0
 30
0.0
  3
SW_BLOCK_DIMENSION_4
  1

  0
SOLID
  5
B4
330
B1
100
AcDbEntity
  8
EBENE_1
 62
     0
100
AcDbTrace
 10
-1.5805038061
 20
2.3665509652
 30
0.0
 11
-2.0546549479
 21
-0.7154314566
 31
0.0
 12
-1.1063526643
 22
-0.7154314566
 32
0.0
 13
-1.1063526643
 23
-0.7154314566
 33
0.0
  0
LINE
  5
B5
330
B1
100
AcDbEntity
  8
EBENE_1
 62
     0
100
AcDbLine
 10
-10.3062660664
 20
2.3665509652
 30
0.0
 11
0.0
 21
2.3665509652
 31
0.0
  0
LINE
  5
B6
330
B1
100
AcDbEntity
  8
EBENE_1
 62
     0
100
AcDbLine
 10
-1.5805038061
 20
-7.6334490348
 30
0.0
 11
-1.5805038061
 21
2.3665509652
 31
0.0
  0
MTEXT
  5
B7
330
B1
100
AcDbEntity
  8
EBENE_1
 62
     0
100
AcDbMText
 10
0.0
 20
4.0927900738
 30
0.0
 40
3.175
 41
0.0
 71
     1
 72
     1
  1
40
  7
SLDTEXTSTYLE0
 73
     1
 44
1.0
  0
ENDBLK
  5
B3
330
B1
100
AcDbEntity
  8
0
100
AcDbBlockEnd
  0
BLOCK
  5
BA
330
B9
100
AcDbEntity
  8
0
100
AcDbBlockBegin
  2
SW_BLOCK_DIMENSION_5
 70
     0
 10
0.0
 20
0.0
 30
0.0
  3
SW_BLOCK_DIMENSION_5
  1

  0
SOLID
  5
BC
330
B9
100
AcDbEntity
  8
EBENE_1
 62
     0
100
AcDbTrace
 10
-1.5805038061
 20
2.3665509652
 30
0.0
 11
-2.0546549479
 21
-0.7154314566
 31
0.0
 12
-1.1063526643
 22
-0.7154314566
 32
0.0
 13
-1.1063526643
 23
-0.7154314566
 33
0.0
  0
LINE
  5
BD
330
B9
100
AcDbEntity
  8
EBENE_1
 62
     0
100
AcDbLine
 10
-10.3062660664
 20
2.3665509652
 30
0.0
 11
0.0
 21
2.3665509652
 31
0.0
  0
LINE
  5
BE
330
B9
100
AcDbEntity
  8
EBENE_1
 62
     0
100
AcDbLine
 10
-1.5805038061
 20
-7.6334490348
 30
0.0
 11
-1.5805038061
 21
2.3665509652
 31
0.0
  0
MTEXT
  5
BF
330
B9
100
AcDbEntity
  8
EBENE_1
 62
     0
100
AcDbMText
 10
0.0
 20
4.0927900738
 30
0.0
 40
3.175
 41
0.0
 71
     1
 72
     1
  1
50
  7
SLDTEXTSTYLE0
 73
     1
 44
1.0
  0
ENDBLK
  5
BB
330
B9
100
AcDbEntity
  8
0
100
AcDbBlockEnd
  0
BLOCK
  5
C2
330
C1
100
AcDbEntity
  8
0
100
AcDbBlockBegin
  2
SW_BLOCK_DIMENSION_6
 70
     0
 10
0.0
 20
0.0
 30
0.0
  3
SW_BLOCK_DIMENSION_6
  1

  0
SOLID
  5
C4
330
C1
100
AcDbEntity
  8
EBENE_1
 62
     0
100
AcDbTrace
 10
-1.5805038061
 20
2.3665509652
 30
0.0
 11
-2.0546549479
 21
-0.7154314566
 31
0.0
 12
-1.1063526643
 22
-0.7154314566
 32
0.0
 13
-1.1063526643
 23
-0.7154314566
 33
0.0
  0
LINE
  5
C5
330
C1
100
AcDbEntity
  8
EBENE_1
 62
     0
100
AcDbLine
 10
-10.3062660664
 20
2.3665509652
 30
0.0
 11
0.0
 21
2.3665509652
 31
0.0
  0
LINE
  5
C6
330
C1
100
AcDbEntity
  8
EBENE_1
 62
     0
100
AcDbLine
 10
-1.5805038061
 20
-7.6334490348
 30
0.0
 11
-1.5805038061
 21
2.3665509652
 31
0.0
  0
MTEXT
  5
C7
330
C1
100
AcDbEntity
  8
EBENE_1
 62
     0
100
AcDbMText
 10
0.0
 20
4.0927900738
 30
0.0
 40
3.175
 41
0.0
 71
     1
 72
     1
  1
60
  7
SLDTEXTSTYLE0
 73
     1
 44
1.0
  0
ENDBLK
  5
C3
330
C1
100
AcDbEntity
  8
0
100
AcDbBlockEnd
  0
BLOCK
  5
CA
330
C9
100
AcDbEntity
  8
0
100
AcDbBlockBegin
  2
SW_BLOCK_DIMENSION_7
 70
     0
 10
0.0
 20
0.0
 30
0.0
  3
SW_BLOCK_DIMENSION_7
  1

  0
SOLID
  5
CC
330
C9
100
AcDbEntity
  8
EBENE_1
 62
     0
100
AcDbTrace
 10
-1.5805038061
 20
2.3665509652
 30
0.0
 11
-2.0546549479
 21
-0.7154314566
 31
0.0
 12
-1.1063526643
 22
-0.7154314566
 32
0.0
 13
-1.1063526643
 23
-0.7154314566
 33
0.0
  0
LINE
  5
CD
330
C9
100
AcDbEntity
  8
EBENE_1
 62
     0
100
AcDbLine
 10
-10.3062660664
 20
2.3665509652
 30
0.0
 11
0.0
 21
2.3665509652
 31
0.0
  0
LINE
  5
CE
330
C9
100
AcDbEntity
  8
EBENE_1
 62
     0
100
AcDbLine
 10
-1.5805038061
 20
-7.6334490348
 30
0.0
 11
-1.5805038061
 21
2.3665509652
 31
0.0
  0
MTEXT
  5
CF
330
C9
100
AcDbEntity
  8
EBENE_1
 62
     0
100
AcDbMText
 10
0.0
 20
4.0927900738
 30
0.0
 40
3.175
 41
0.0
 71
     1
 72
     1
  1
70
  7
SLDTEXTSTYLE0
 73
     1
 44
1.0
  0
ENDBLK
  5
CB
330
C9
100
AcDbEntity
  8
0
100
AcDbBlockEnd
  0
BLOCK
  5
D2
330
D1
100
AcDbEntity
  8
0
100
AcDbBlockBegin
  2
SW_BLOCK_DIMENSION_8
 70
     0
 10
0.0
 20
0.0
 30
0.0
  3
SW_BLOCK_DIMENSION_8
  1

  0
SOLID
  5
D4
330
D1
100
AcDbEntity
  8
EBENE_1
 62
     0
100
AcDbTrace
 10
-1.5805038061
 20
2.3665509652
 30
0.0
 11
-2.0546549479
 21
-0.7154314566
 31
0.0
 12
-1.1063526643
 22
-0.7154314566
 32
0.0
 13
-1.1063526643
 23
-0.7154314566
 33
0.0
  0
LINE
  5
D5
330
D1
100
AcDbEntity
  8
EBENE_1
 62
     0
100
AcDbLine
 10
-10.3062660664
 20
2.3665509652
 30
0.0
 11
0.0
 21
2.3665509652
 31
0.0
  0
LINE
  5
D6
330
D1
100
AcDbEntity
  8
EBENE_1
 62
     0
100
AcDbLine
 10
-1.5805038061
 20
-7.6334490348
 30
0.0
 11
-1.5805038061
 21
2.3665509652
 31
0.0
  0
MTEXT
  5
D7
330
D1
100
AcDbEntity
  8
EBENE_1
 62
     0
100
AcDbMText
 10
0.0
 20
4.0927900738
 30
0.0
 40
3.175
 41
0.0
 71
     1
 72
     1
  1
80
  7
SLDTEXTSTYLE0
 73
     1
 44
1.0
  0
ENDBLK
  5
D3
330
D1
100
AcDbEntity
  8
0
100
AcDbBlockEnd
  0
BLOCK
  5
DA
330
D9
100
AcDbEntity
  8
0
100
AcDbBlockBegin
  2
SW_BLOCK_DIMENSION_9
 70
     0
 10
0.0
 20
0.0
 30
0.0
  3
SW_BLOCK_DIMENSION_9
  1

  0
SOLID
  5
DC
330
D9
100
AcDbEntity
  8
EBENE_1
 62
     0
100
AcDbTrace
 10
-1.5805038061
 20
2.3665509652
 30
0.0
 11
-2.0546549479
 21
-0.7154314566
 31
0.0
 12
-1.1063526643
 22
-0.7154314566
 32
0.0
 13
-1.1063526643
 23
-0.7154314566
 33
0.0
  0
LINE
  5
DD
330
D9
100
AcDbEntity
  8
EBENE_1
 62
     0
100
AcDbLine
 10
-10.3062660664
 20
2.3665509652
 30
0.0
 11
0.0
 21
2.3665509652
 31
0.0
  0
LINE
  5
DE
330
D9
100
AcDbEntity
  8
EBENE_1
 62
     0
100
AcDbLine
 10
-1.5805038061
 20
-7.6334490348
 30
0.0
 11
-1.5805038061
 21
2.3665509652
 31
0.0
  0
MTEXT
  5
DF
330
D9
100
AcDbEntity
  8
EBENE_1
 62
     0
100
AcDbMText
 10
0.0
 20
4.0927900738
 30
0.0
 40
3.175
 41
0.0
 71
     1
 72
     1
  1
90
  7
SLDTEXTSTYLE0
 73
     1
 44
1.0
  0
ENDBLK
  5
DB
330
D9
100
AcDbEntity
  8
0
100
AcDbBlockEnd
  0
BLOCK
  5
E2
330
E1
100
AcDbEntity
  8
0
100
AcDbBlockBegin
  2
SW_BLOCK_DIMENSION_10
 70
     0
 10
0.0
 20
0.0
 30
0.0
  3
SW_BLOCK_DIMENSION_10
  1

  0
SOLID
  5
E4
330
E1
100
AcDbEntity
  8
EBENE_1
 62
     0
100
AcDbTrace
 10
-1.5805038061
 20
2.3665509652
 30
0.0
 11
-2.0546549479
 21
-0.7154314566
 31
0.0
 12
-1.1063526643
 22
-0.7154314566
 32
0.0
 13
-1.1063526643
 23
-0.7154314566
 33
0.0
  0
LINE
  5
E5
330
E1
100
AcDbEntity
  8
EBENE_1
 62
     0
100
AcDbLine
 10
-10.3062660664
 20
2.3665509652
 30
0.0
 11
0.0
 21
2.3665509652
 31
0.0
  0
LINE
  5
E6
330
E1
100
AcDbEntity
  8
EBENE_1
 62
     0
100
AcDbLine
 10
-1.5805038061
 20
-7.6334490348
 30
0.0
 11
-1.5805038061
 21
2.3665509652
 31
0.0
  0
MTEXT
  5
E7
330
E1
100
AcDbEntity
  8
EBENE_1
 62
     0
100
AcDbMText
 10
0.0
 20
4.0927900738
 30
0.0
 40
3.175
 41
0.0
 71
     1
 72
     1
  1
100
  7
SLDTEXTSTYLE0
 73
     1
 44
1.0
  0
ENDBLK
  5
E3
330
E1
100
AcDbEntity
  8
0
100
AcDbBlockEnd
  0
BLOCK
  5
EA
330
E9
100
AcDbEntity
  8
0
100
AcDbBlockBegin
  2
SW_BLOCK_DIMENSION_11
 70
     0
 10
0.0
 20
0.0
 30
0.0
  3
SW_BLOCK_DIMENSION_11
  1

  0
SOLID
  5
EC
330
E9
100
AcDbEntity
  8
EBENE_1
 62
     0
100
AcDbTrace
 10
-1.5805038061
 20
2.3665509652
 30
0.0
 11
-2.0546549479
 21
-0.7154314566
 31
0.0
 12
-1.1063526643
 22
-0.7154314566
 32
0.0
 13
-1.1063526643
 23
-0.7154314566
 33
0.0
  0
LINE
  5
ED
330
E9
100
AcDbEntity
  8
EBENE_1
 62
     0
100
AcDbLine
 10
-10.3062660664
 20
2.3665509652
 30
0.0
 11
0.0
 21
2.3665509652
 31
0.0
  0
LINE
  5
EE
330
E9
100
AcDbEntity
  8
EBENE_1
 62
     0
100
AcDbLine
 10
-1.5805038061
 20
-7.6334490348
 30
0.0
 11
-1.5805038061
 21
2.3665509652
 31
0.0
  0
MTEXT
  5
EF
330
E9
100
AcDbEntity
  8
EBENE_1
 62
     0
100
AcDbMText
 10
0.0
 20
4.0927900738
 30
0.0
 40
3.175
 41
0.0
 71
     1
 72
     1
  1
110
  7
SLDTEXTSTYLE0
 73
     1
 44
1.0
  0
ENDBLK
  5
EB
330
E9
100
AcDbEntity
  8
0
100
AcDbBlockEnd
  0
BLOCK
  5
F2
330
F1
100
AcDbEntity
  8
0
100
AcDbBlockBegin
  2
SW_BLOCK_DIMENSION_12
 70
     0
 10
0.0
 20
0.0
 30
0.0
  3
SW_BLOCK_DIMENSION_12
  1

  0
SOLID
  5
F4
330
F1
100
AcDbEntity
  8
EBENE_1
 62
     0
100
AcDbTrace
 10
-1.5805038061
 20
2.3665509652
 30
0.0
 11
-2.0546549479
 21
-0.7154314566
 31
0.0
 12
-1.1063526643
 22
-0.7154314566
 32
0.0
 13
-1.1063526643
 23
-0.7154314566
 33
0.0
  0
LINE
  5
F5
330
F1
100
AcDbEntity
  8
EBENE_1
 62
     0
100
AcDbLine
 10
-10.3062660664
 20
2.3665509652
 30
0.0
 11
0.0
 21
2.3665509652
 31
0.0
  0
LINE
  5
F6
330
F1
100
AcDbEntity
  8
EBENE_1
 62
     0
100
AcDbLine
 10
-1.5805038061
 20
-7.6334490348
 30
0.0
 11
-1.5805038061
 21
2.3665509652
 31
0.0
  0
MTEXT
  5
F7
330
F1
100
AcDbEntity
  8
EBENE_1
 62
     0
100
AcDbMText
 10
0.0
 20
4.0927900738
 30
0.0
 40
3.175
 41
0.0
 71
     1
 72
     1
  1
120
  7
SLDTEXTSTYLE0
 73
     1
 44
1.0
  0
ENDBLK
  5
F3
330
F1
100
AcDbEntity
  8
0
100
AcDbBlockEnd
  0
BLOCK
  5
FA
330
F9
100
AcDbEntity
  8
0
100
AcDbBlockBegin
  2
SW_BLOCK_DIMENSION_13
 70
     0
 10
0.0
 20
0.0
 30
0.0
  3
SW_BLOCK_DIMENSION_13
  1

  0
SOLID
  5
FC
330
F9
100
AcDbEntity
  8
EBENE_1
 62
     0
100
AcDbTrace
 10
-1.5805038061
 20
2.3665509652
 30
0.0
 11
-2.0546549479
 21
-0.7154314566
 31
0.0
 12
-1.1063526643
 22
-0.7154314566
 32
0.0
 13
-1.1063526643
 23
-0.7154314566
 33
0.0
  0
LINE
  5
FD
330
F9
100
AcDbEntity
  8
EBENE_1
 62
     0
100
AcDbLine
 10
-10.3062660664
 20
2.3665509652
 30
0.0
 11
0.0
 21
2.3665509652
 31
0.0
  0
LINE
  5
FE
330
F9
100
AcDbEntity
  8
EBENE_1
 62
     0
100
AcDbLine
 10
-1.5805038061
 20
-7.6334490348
 30
0.0
 11
-1.5805038061
 21
2.3665509652
 31
0.0
  0
MTEXT
  5
FF
330
F9
100
AcDbEntity
  8
EBENE_1
 62
     0
100
AcDbMText
 10
0.0
 20
4.0927900738
 30
0.0
 40
3.175
 41
0.0
 71
     1
 72
     1
  1
130
  7
SLDTEXTSTYLE0
 73
     1
 44
1.0
  0
ENDBLK
  5
FB
330
F9
100
AcDbEntity
  8
0
100
AcDbBlockEnd
  0
BLOCK
  5
102
330
101
100
AcDbEntity
  8
0
100
AcDbBlockBegin
  2
SW_BLOCK_DIMENSION_14
 70
     0
 10
0.0
 20
0.0
 30
0.0
  3
SW_BLOCK_DIMENSION_14
  1

  0
INSERT
  5
104
330
101
100
AcDbEntity
  8
EBENE_1
 62
     0
100
AcDbBlockReference
  2
_ORIGIN
 10
16.3971707594
 20
5.1887726877
 30
0.0
 41
0.9483022837
 42
0.9483022837
 50
0.0
  0
LINE
  5
105
330
101
100
AcDbEntity
  8
EBENE_1
 62
     0
100
AcDbLine
 10
3.2925925916
 20
9.671990294
 30
0.0
 11
2.2342592711
 21
9.671990294
 31
0.0
  0
LINE
  5
106
330
101
100
AcDbEntity
  8
EBENE_1
 62
     0
100
AcDbLine
 10
2.2342592711
 20
9.671990294
 30
0.0
 11
2.2342592711
 21
4.9388883635
 31
0.0
  0
LINE
  5
107
330
101
100
AcDbEntity
  8
EBENE_1
 62
     0
100
AcDbLine
 10
2.2342592711
 20
4.9388883635
 30
0.0
 11
3.2925925916
 21
4.9388883635
 31
0.0
  0
LINE
  5
108
330
101
100
AcDbEntity
  8
EBENE_1
 62
     0
100
AcDbLine
 10
11.5240741288
 20
9.671990294
 30
0.0
 11
12.5824074494
 21
9.671990294
 31
0.0
  0
LINE
  5
109
330
101
100
AcDbEntity
  8
EBENE_1
 62
     0
100
AcDbLine
 10
12.5824074494
 20
9.671990294
 30
0.0
 11
12.5824074494
 21
4.9388883635
 31
0.0
  0
LINE
  5
10A
330
101
100
AcDbEntity
  8
EBENE_1
 62
     0
100
AcDbLine
 10
12.5824074494
 20
4.9388883635
 30
0.0
 11
11.5240741288
 21
4.9388883635
 31
0.0
  0
LINE
  5
10B
330
101
100
AcDbEntity
  8
EBENE_1
 62
     0
100
AcDbLine
 10
24.38463321
 20
5.1887726877
 30
0.0
 11
14.8166669533
 21
5.1887726877
 31
0.0
  0
MTEXT
  5
10C
330
101
100
AcDbEntity
  8
EBENE_1
 62
     0
100
AcDbMText
 10
1.190625
 20
4.0927900738
 30
0.0
 40
3.175
 41
0.0
 71
     1
 72
     1
  1

  7
SLDTEXTSTYLE0
 73
     1
 44
1.0
  0
MTEXT
  5
10D
330
101
100
AcDbEntity
  8
EBENE_1
 62
     0
100
AcDbMText
 10
3.2925925916
 20
9.0316784373
 30
0.0
 40
3.175
 41
0.0
 71
     1
 72
     1
  1
0,00
  7
SLDTEXTSTYLE0
 73
     1
 44
1.0
  0
MTEXT
  5
10E
330
101
100
AcDbEntity
  8
EBENE_1
 62
     0
100
AcDbMText
 10
6.2324074097
 20
4.0927898409
 30
0.0
 40
3.175
 41
0.0
 71
     1
 72
     1
  1
0
  7
SLDTEXTSTYLE0
 73
     1
 44
1.0
  0
MTEXT
  5
10F
330
101
100
AcDbEntity
  8
EBENE_1
 62
     0
100
AcDbMText
 10
14.8313658863
 20
4.0927900738
 30
0.0
 40
3.175
 41
0.0
 71
     1
 72
     1
  1

  7
SLDTEXTSTYLE0
 73
     1
 44
1.0
  0
ENDBLK
  5
103
330
101
100
AcDbEntity
  8
0
100
AcDbBlockEnd
  0
BLOCK
  5
112
330
111
100
AcDbEntity
  8
0
100
AcDbBlockBegin
  2
SW_BLOCK_DIMENSION_15
 70
     0
 10
0.0
 20
0.0
 30
0.0
  3
SW_BLOCK_DIMENSION_15
  1

  0
SOLID
  5
114
330
111
100
AcDbEntity
  8
EBENE_1
 62
     0
100
AcDbTrace
 10
16.3971707594
 20
5.1887726877
 30
0.0
 11
15.9230196175
 21
2.1067902658
 31
0.0
 12
16.8713219012
 22
2.1067902658
 32
0.0
 13
16.8713219012
 23
2.1067902658
 33
0.0
  0
LINE
  5
115
330
111
100
AcDbEntity
  8
EBENE_1
 62
     0
100
AcDbLine
 10
3.2925925916
 20
9.671990294
 30
0.0
 11
2.2342592711
 21
9.671990294
 31
0.0
  0
LINE
  5
116
330
111
100
AcDbEntity
  8
EBENE_1
 62
     0
100
AcDbLine
 10
2.2342592711
 20
9.671990294
 30
0.0
 11
2.2342592711
 21
4.9388883635
 31
0.0
  0
LINE
  5
117
330
111
100
AcDbEntity
  8
EBENE_1
 62
     0
100
AcDbLine
 10
2.2342592711
 20
4.9388883635
 30
0.0
 11
3.2925925916
 21
4.9388883635
 31
0.0
  0
LINE
  5
118
330
111
100
AcDbEntity
  8
EBENE_1
 62
     0
100
AcDbLine
 10
11.5240741288
 20
9.671990294
 30
0.0
 11
12.5824074494
 21
9.671990294
 31
0.0
  0
LINE
  5
119
330
111
100
AcDbEntity
  8
EBENE_1
 62
     0
100
AcDbLine
 10
12.5824074494
 20
9.671990294
 30
0.0
 11
12.5824074494
 21
4.9388883635
 31
0.0
  0
LINE
  5
11A
330
111
100
AcDbEntity
  8
EBENE_1
 62
     0
100
AcDbLine
 10
12.5824074494
 20
4.9388883635
 30
0.0
 11
11.5240741288
 21
4.9388883635
 31
0.0
  0
LINE
  5
11B
330
111
100
AcDbEntity
  8
EBENE_1
 62
     0
100
AcDbLine
 10
23.60463321
 20
5.1887726877
 30
0.0
 11
14.8166669533
 21
5.1887726877
 31
0.0
  0
LINE
  5
11C
330
111
100
AcDbEntity
  8
EBENE_1
 62
     0
100
AcDbLine
 10
16.3971707594
 20
-20.2112273123
 30
0.0
 11
16.3971707594
 21
5.1887726877
 31
0.0
  0
MTEXT
  5
11D
330
111
100
AcDbEntity
  8
EBENE_1
 62
     0
100
AcDbMText
 10
1.190625
 20
4.0927900738
 30
0.0
 40
3.175
 41
0.0
 71
     1
 72
     1
  1

  7
SLDTEXTSTYLE0
 73
     1
 44
1.0
  0
MTEXT
  5
11E
330
111
100
AcDbEntity
  8
EBENE_1
 62
     0
100
AcDbMText
 10
3.2925925916
 20
9.0316784373
 30
0.0
 40
3.175
 41
0.0
 71
     1
 72
     1
  1
1,00
  7
SLDTEXTSTYLE0
 73
     1
 44
1.0
  0
MTEXT
  5
11F
330
111
100
AcDbEntity
  8
EBENE_1
 62
     0
100
AcDbMText
 10
2.1166665247
 20
4.0927898409
 30
0.0
 40
3.175
 41
0.0
 71
     1
 72
     1
  1
25,40
  7
SLDTEXTSTYLE0
 73
     1
 44
1.0
  0
MTEXT
  5
120
330
111
100
AcDbEntity
  8
EBENE_1
 62
     0
100
AcDbMText
 10
14.8313658863
 20
4.0927900738
 30
0.0
 40
3.175
 41
0.0
 71
     1
 72
     1
  1

  7
SLDTEXTSTYLE0
 73
     1
 44
1.0
  0
ENDBLK
  5
113
330
111
100
AcDbEntity
  8
0
100
AcDbBlockEnd
  0
BLOCK
  5
123
330
122
100
AcDbEntity
  8
0
100
AcDbBlockBegin
  2
SW_BLOCK_DIMENSION_16
 70
     0
 10
0.0
 20
0.0
 30
0.0
  3
SW_BLOCK_DIMENSION_16
  1

  0
SOLID
  5
125
330
122
100
AcDbEntity
  8
EBENE_1
 62
     0
100
AcDbTrace
 10
16.3971707594
 20
5.1887726877
 30
0.0
 11
15.9230196175
 21
2.1067902658
 31
0.0
 12
16.8713219012
 22
2.1067902658
 32
0.0
 13
16.8713219012
 23
2.1067902658
 33
0.0
  0
LINE
  5
126
330
122
100
AcDbEntity
  8
EBENE_1
 62
     0
100
AcDbLine
 10
3.2925925916
 20
9.671990294
 30
0.0
 11
2.2342592711
 21
9.671990294
 31
0.0
  0
LINE
  5
127
330
122
100
AcDbEntity
  8
EBENE_1
 62
     0
100
AcDbLine
 10
2.2342592711
 20
9.671990294
 30
0.0
 11
2.2342592711
 21
4.9388883635
 31
0.0
  0
LINE
  5
128
330
122
100
AcDbEntity
  8
EBENE_1
 62
     0
100
AcDbLine
 10
2.2342592711
 20
4.9388883635
 30
0.0
 11
3.2925925916
 21
4.9388883635
 31
0.0
  0
LINE
  5
129
330
122
100
AcDbEntity
  8
EBENE_1
 62
     0
100
AcDbLine
 10
11.5240741288
 20
9.671990294
 30
0.0
 11
12.5824074494
 21
9.671990294
 31
0.0
  0
LINE
  5
12A
330
122
100
AcDbEntity
  8
EBENE_1
 62
     0
100
AcDbLine
 10
12.5824074494
 20
9.671990294
 30
0.0
 11
12.5824074494
 21
4.9388883635
 31
0.0
  0
LINE
  5
12B
330
122
100
AcDbEntity
  8
EBENE_1
 62
     0
100
AcDbLine
 10
12.5824074494
 20
4.9388883635
 30
0.0
 11
11.5240741288
 21
4.9388883635
 31
0.0
  0
LINE
  5
12C
330
122
100
AcDbEntity
  8
EBENE_1
 62
     0
100
AcDbLine
 10
23.60463321
 20
5.1887726877
 30
0.0
 11
14.8166669533
 21
5.1887726877
 31
0.0
  0
LINE
  5
12D
330
122
100
AcDbEntity
  8
EBENE_1
 62
     0
100
AcDbLine
 10
16.3971707594
 20
-20.2112273123
 30
0.0
 11
16.3971707594
 21
5.1887726877
 31
0.0
  0
MTEXT
  5
12E
330
122
100
AcDbEntity
  8
EBENE_1
 62
     0
100
AcDbMText
 10
1.190625
 20
4.0927900738
 30
0.0
 40
3.175
 41
0.0
 71
     1
 72
     1
  1

  7
SLDTEXTSTYLE0
 73
     1
 44
1.0
  0
MTEXT
  5
12F
330
122
100
AcDbEntity
  8
EBENE_1
 62
     0
100
AcDbMText
 10
3.2925925916
 20
9.0316784373
 30
0.0
 40
3.175
 41
0.0
 71
     1
 72
     1
  1
2,00
  7
SLDTEXTSTYLE0
 73
     1
 44
1.0
  0
MTEXT
  5
130
330
122
100
AcDbEntity
  8
EBENE_1
 62
     0
100
AcDbMText
 10
2.1166665247
 20
4.0927898409
 30
0.0
 40
3.175
 41
0.0
 71
     1
 72
     1
  1
50,80
  7
SLDTEXTSTYLE0
 73
     1
 44
1.0
  0
MTEXT
  5
131
330
122
100
AcDbEntity
  8
EBENE_1
 62
     0
100
AcDbMText
 10
14.8313658863
 20
4.0927900738
 30
0.0
 40
3.175
 41
0.0
 71
     1
 72
     1
  1

  7
SLDTEXTSTYLE0
 73
     1
 44
1.0
  0
ENDBLK
  5
124
330
122
100
AcDbEntity
  8
0
100
AcDbBlockEnd
  0
BLOCK
  5
134
330
133
100
AcDbEntity
  8
0
100
AcDbBlockBegin
  2
SW_BLOCK_DIMENSION_17
 70
     0
 10
0.0
 20
0.0
 30
0.0
  3
SW_BLOCK_DIMENSION_17
  1

  0
SOLID
  5
136
330
133
100
AcDbEntity
  8
EBENE_1
 62
     0
100
AcDbTrace
 10
16.3971707594
 20
5.1887726877
 30
0.0
 11
15.9230196175
 21
2.1067902658
 31
0.0
 12
16.8713219012
 22
2.1067902658
 32
0.0
 13
16.8713219012
 23
2.1067902658
 33
0.0
  0
LINE
  5
137
330
133
100
AcDbEntity
  8
EBENE_1
 62
     0
100
AcDbLine
 10
3.2925925916
 20
9.671990294
 30
0.0
 11
2.2342592711
 21
9.671990294
 31
0.0
  0
LINE
  5
138
330
133
100
AcDbEntity
  8
EBENE_1
 62
     0
100
AcDbLine
 10
2.2342592711
 20
9.671990294
 30
0.0
 11
2.2342592711
 21
4.9388883635
 31
0.0
  0
LINE
  5
139
330
133
100
AcDbEntity
  8
EBENE_1
 62
     0
100
AcDbLine
 10
2.2342592711
 20
4.9388883635
 30
0.0
 11
3.2925925916
 21
4.9388883635
 31
0.0
  0
LINE
  5
13A
330
133
100
AcDbEntity
  8
EBENE_1
 62
     0
100
AcDbLine
 10
11.5240741288
 20
9.671990294
 30
0.0
 11
12.5824074494
 21
9.671990294
 31
0.0
  0
LINE
  5
13B
330
133
100
AcDbEntity
  8
EBENE_1
 62
     0
100
AcDbLine
 10
12.5824074494
 20
9.671990294
 30
0.0
 11
12.5824074494
 21
4.9388883635
 31
0.0
  0
LINE
  5
13C
330
133
100
AcDbEntity
  8
EBENE_1
 62
     0
100
AcDbLine
 10
12.5824074494
 20
4.9388883635
 30
0.0
 11
11.5240741288
 21
4.9388883635
 31
0.0
  0
LINE
  5
13D
330
133
100
AcDbEntity
  8
EBENE_1
 62
     0
100
AcDbLine
 10
23.60463321
 20
5.1887726877
 30
0.0
 11
14.8166669533
 21
5.1887726877
 31
0.0
  0
LINE
  5
13E
330
133
100
AcDbEntity
  8
EBENE_1
 62
     0
100
AcDbLine
 10
16.3971707594
 20
-20.2112273123
 30
0.0
 11
16.3971707594
 21
5.1887726877
 31
0.0
  0
MTEXT
  5
13F
330
133
100
AcDbEntity
  8
EBENE_1
 62
     0
100
AcDbMText
 10
1.190625
 20
4.0927900738
 30
0.0
 40
3.175
 41
0.0
 71
     1
 72
     1
  1

  7
SLDTEXTSTYLE0
 73
     1
 44
1.0
  0
MTEXT
  5
140
330
133
100
AcDbEntity
  8
EBENE_1
 62
     0
100
AcDbMText
 10
3.2925925916
 20
9.0316784373
 30
0.0
 40
3.175
 41
0.0
 71
     1
 72
     1
  1
3,00
  7
SLDTEXTSTYLE0
 73
     1
 44
1.0
  0
MTEXT
  5
141
330
133
100
AcDbEntity
  8
EBENE_1
 62
     0
100
AcDbMText
 10
2.1166665247
 20
4.0927898409
 30
0.0
 40
3.175
 41
0.0
 71
     1
 72
     1
  1
76,20
  7
SLDTEXTSTYLE0
 73
     1
 44
1.0
  0
MTEXT
  5
142
330
133
100
AcDbEntity
  8
EBENE_1
 62
     0
100
AcDbMText
 10
14.8313658863
 20
4.0927900738
 30
0.0
 40
3.175
 41
0.0
 71
     1
 72
     1
  1

  7
SLDTEXTSTYLE0
 73
     1
 44
1.0
  0
ENDBLK
  5
135
330
133
100
AcDbEntity
  8
0
100
AcDbBlockEnd
  0
BLOCK
  5
145
330
144
100
AcDbEntity
  8
0
100
AcDbBlockBegin
  2
SW_BLOCK_DIMENSION_18
 70
     0
 10
0.0
 20
0.0
 30
0.0
  3
SW_BLOCK_DIMENSION_18
  1

  0
SOLID
  5
147
330
144
100
AcDbEntity
  8
EBENE_1
 62
     0
100
AcDbTrace
 10
16.8675417449
 20
5.1887726877
 30
0.0
 11
16.3933906031
 21
2.1067902658
 31
0.0
 12
17.3416928867
 22
2.1067902658
 32
0.0
 13
17.3416928867
 23
2.1067902658
 33
0.0
  0
LINE
  5
148
330
144
100
AcDbEntity
  8
EBENE_1
 62
     0
100
AcDbLine
 10
3.5277780844
 20
9.671990294
 30
0.0
 11
2.4694447638
 21
9.671990294
 31
0.0
  0
LINE
  5
149
330
144
100
AcDbEntity
  8
EBENE_1
 62
     0
100
AcDbLine
 10
2.4694447638
 20
9.671990294
 30
0.0
 11
2.4694447638
 21
4.9388883635
 31
0.0
  0
LINE
  5
14A
330
144
100
AcDbEntity
  8
EBENE_1
 62
     0
100
AcDbLine
 10
2.4694447638
 20
4.9388883635
 30
0.0
 11
3.5277780844
 21
4.9388883635
 31
0.0
  0
LINE
  5
14B
330
144
100
AcDbEntity
  8
EBENE_1
 62
     0
100
AcDbLine
 10
11.7592596216
 20
9.671990294
 30
0.0
 11
12.8175929422
 21
9.671990294
 31
0.0
  0
LINE
  5
14C
330
144
100
AcDbEntity
  8
EBENE_1
 62
     0
100
AcDbLine
 10
12.8175929422
 20
9.671990294
 30
0.0
 11
12.8175929422
 21
4.9388883635
 31
0.0
  0
LINE
  5
14D
330
144
100
AcDbEntity
  8
EBENE_1
 62
     0
100
AcDbLine
 10
12.8175929422
 20
4.9388883635
 30
0.0
 11
11.7592596216
 21
4.9388883635
 31
0.0
  0
LINE
  5
14E
330
144
100
AcDbEntity
  8
EBENE_1
 62
     0
100
AcDbLine
 10
24.0750041956
 20
5.1887726877
 30
0.0
 11
15.2870379388
 21
5.1887726877
 31
0.0
  0
LINE
  5
14F
330
144
100
AcDbEntity
  8
EBENE_1
 62
     0
100
AcDbLine
 10
16.8675417449
 20
-20.2112273123
 30
0.0
 11
16.8675417449
 21
5.1887726877
 31
0.0
  0
MTEXT
  5
150
330
144
100
AcDbEntity
  8
EBENE_1
 62
     0
100
AcDbMText
 10
1.190625
 20
4.0927900738
 30
0.0
 40
3.175
 41
0.0
 71
     1
 72
     1
  1

  7
SLDTEXTSTYLE0
 73
     1
 44
1.0
  0
MTEXT
  5
151
330
144
100
AcDbEntity
  8
EBENE_1
 62
     0
100
AcDbMText
 10
3.5277780844
 20
9.0316784373
 30
0.0
 40
3.175
 41
0.0
 71
     1
 72
     1
  1
4,00
  7
SLDTEXTSTYLE0
 73
     1
 44
1.0
  0
MTEXT
  5
152
330
144
100
AcDbEntity
  8
EBENE_1
 62
     0
100
AcDbMText
 10
1.1759259505
 20
4.0927898409
 30
0.0
 40
3.175
 41
0.0
 71
     1
 72
     1
  1
101,60
  7
SLDTEXTSTYLE0
 73
     1
 44
1.0
  0
MTEXT
  5
153
330
144
100
AcDbEntity
  8
EBENE_1
 62
     0
100
AcDbMText
 10
15.3017368719
 20
4.0927900738
 30
0.0
 40
3.175
 41
0.0
 71
     1
 72
     1
  1

  7
SLDTEXTSTYLE0
 73
     1
 44
1.0
  0
ENDBLK
  5
146
330
144
100
AcDbEntity
  8
0
100
AcDbBlockEnd
  0
BLOCK
  5
156
330
155
100
AcDbEntity
  8
0
100
AcDbBlockBegin
  2
SW_BLOCK_DIMENSION_19
 70
     0
 10
0.0
 20
0.0
 30
0.0
  3
SW_BLOCK_DIMENSION_19
  1

  0
SOLID
  5
158
330
155
100
AcDbEntity
  8
EBENE_1
 62
     0
100
AcDbTrace
 10
16.3971707594
 20
5.1887726877
 30
0.0
 11
15.9230196175
 21
2.1067902658
 31
0.0
 12
16.8713219012
 22
2.1067902658
 32
0.0
 13
16.8713219012
 23
2.1067902658
 33
0.0
  0
LINE
  5
159
330
155
100
AcDbEntity
  8
EBENE_1
 62
     0
100
AcDbLine
 10
3.2925925916
 20
9.671990294
 30
0.0
 11
2.2342592711
 21
9.671990294
 31
0.0
  0
LINE
  5
15A
330
155
100
AcDbEntity
  8
EBENE_1
 62
     0
100
AcDbLine
 10
2.2342592711
 20
9.671990294
 30
0.0
 11
2.2342592711
 21
4.9388883635
 31
0.0
  0
LINE
  5
15B
330
155
100
AcDbEntity
  8
EBENE_1
 62
     0
100
AcDbLine
 10
2.2342592711
 20
4.9388883635
 30
0.0
 11
3.2925925916
 21
4.9388883635
 31
0.0
  0
LINE
  5
15C
330
155
100
AcDbEntity
  8
EBENE_1
 62
     0
100
AcDbLine
 10
11.5240741288
 20
9.671990294
 30
0.0
 11
12.5824074494
 21
9.671990294
 31
0.0
  0
LINE
  5
15D
330
155
100
AcDbEntity
  8
EBENE_1
 62
     0
100
AcDbLine
 10
12.5824074494
 20
9.671990294
 30
0.0
 11
12.5824074494
 21
4.9388883635
 31
0.0
  0
LINE
  5
15E
330
155
100
AcDbEntity
  8
EBENE_1
 62
     0
100
AcDbLine
 10
12.5824074494
 20
4.9388883635
 30
0.0
 11
11.5240741288
 21
4.9388883635
 31
0.0
  0
LINE
  5
15F
330
155
100
AcDbEntity
  8
EBENE_1
 62
     0
100
AcDbLine
 10
23.60463321
 20
5.1887726877
 30
0.0
 11
14.8166669533
 21
5.1887726877
 31
0.0
  0
LINE
  5
160
330
155
100
AcDbEntity
  8
EBENE_1
 62
     0
100
AcDbLine
 10
16.3971707594
 20
-20.2112273123
 30
0.0
 11
16.3971707594
 21
5.1887726877
 31
0.0
  0
MTEXT
  5
161
330
155
100
AcDbEntity
  8
EBENE_1
 62
     0
100
AcDbMText
 10
1.190625
 20
4.0927900738
 30
0.0
 40
3.175
 41
0.0
 71
     1
 72
     1
  1

  7
SLDTEXTSTYLE0
 73
     1
 44
1.0
  0
MTEXT
  5
162
330
155
100
AcDbEntity
  8
EBENE_1
 62
     0
100
AcDbMText
 10
3.2925925916
 20
9.0316784373
 30
0.0
 40
3.175
 41
0.0
 71
     1
 72
     1
  1
5,00
  7
SLDTEXTSTYLE0
 73
     1
 44
1.0
  0
MTEXT
  5
163
330
155
100
AcDbEntity
  8
EBENE_1
 62
     0
100
AcDbMText
 10
3.8805556251
 20
4.0927898409
 30
0.0
 40
3.175
 41
0.0
 71
     1
 72
     1
  1
127
  7
SLDTEXTSTYLE0
 73
     1
 44
1.0
  0
MTEXT
  5
164
330
155
100
AcDbEntity
  8
EBENE_1
 62
     0
100
AcDbMText
 10
14.8313658863
 20
4.0927900738
 30
0.0
 40
3.175
 41
0.0
 71
     1
 72
     1
  1

  7
SLDTEXTSTYLE0
 73
     1
 44
1.0
  0
ENDBLK
  5
157
330
155
100
AcDbEntity
  8
0
100
AcDbBlockEnd
  0
BLOCK
  5
167
330
166
100
AcDbEntity
  8
0
100
AcDbBlockBegin
  2
SW_NOTE_0
 70
     0
 10
0.0
 20
0.0
 30
0.0
  3
SW_NOTE_0
  1

  0
MTEXT
  5
169
330
166
100
AcDbEntity
  8
EBENE_1
 62
     0
100
AcDbMText
 10
6.7138020833
 20
4.7749217527
 30
0.0
 40
3.7041666667
 41
0.0
 71
     2
 72
     1
  1
(Inch)
  7
SLDTEXTSTYLE0
 73
     1
 44
1.0
  0
MTEXT
  5
16A
330
166
100
AcDbEntity
  8
EBENE_1
 62
     0
100
AcDbMText
 10
6.7309508326
 20
-1.1639672404
 30
0.0
 40
3.7041666667
 41
0.0
 71
     2
 72
     1
  1
mm
  7
SLDTEXTSTYLE0
 73
     1
 44
1.0
  0
ENDBLK
  5
168
330
166
100
AcDbEntity
  8
0
100
AcDbBlockEnd
  0
BLOCK
  5
172
330
171
100
AcDbEntity
  8
0
100
AcDbBlockBegin
  2
SW_NOTE_1
 70
     0
 10
0.0
 20
0.0
 30
0.0
  3
SW_NOTE_1
  1

  0
MTEXT
  5
174
330
171
100
AcDbEntity
  8
0
  6
Continuous
 62
     0
370
     0
100
AcDbMText
 10
19.893359375
 20
4.0927900738
 30
0.0
 40
3.175
 41
0.0
 71
     2
 72
     1
  1
ABP-Beyerle GmbH
  7
SLDTEXTSTYLE0
 73
     1
 44
1.0
  0
MTEXT
  5
175
330
171
100
AcDbEntity
  8
0
  6
Continuous
 62
     0
370
     0
100
AcDbMText
 10
20.6558884293
 20
-0.1405432084
 30
0.0
 40
3.175
 41
0.0
 71
     2
 72
     1
  1
Im Schollengarten 24b, 76646 Bruchsal
  7
SLDTEXTSTYLE0
 73
     1
 44
1.0
  0
MTEXT
  5
176
330
171
100
AcDbEntity
  8
0
  6
Continuous
 62
     0
370
     0
100
AcDbMText
 10
20.7863491923
 20
-4.3738764906
 30
0.0
 40
3.175
 41
0.0
 71
     2
 72
     1
  1
Tel. +49 (0)7251-9127-0, Fax. +49 (0)7251-9127-29
  7
SLDTEXTSTYLE0
 73
     1
 44
1.0
  0
MTEXT
  5
177
330
171
100
AcDbEntity
  8
0
  6
Continuous
 62
     0
370
     0
100
AcDbMText
 10
20.8392552227
 20
-8.6072097727
 30
0.0
 40
3.175
 41
0.0
 71
     2
 72
     1
  1
info@abp-beyerle.de, www.abp-beyerle.de
  7
SLDTEXTSTYLE0
 73
     1
 44
1.0
  0
ENDBLK
  5
173
330
171
100
AcDbEntity
  8
0
100
AcDbBlockEnd
  0
ENDSEC
  0
SECTION
  2
ENTITIES
  0
INSERT
  5
16D
330
1F
100
AcDbEntity
  8
EBENE_1
100
AcDbBlockReference
  2
Block1
 10
19.561342692
 20
-6.9223244521
 30
0.0
  0
MTEXT
  5
16F
330
1F
100
AcDbEntity
  8
0
  6
Continuous
 62
     7
370
     0
100
AcDbMText
 10
402.5
 20
14.7189135832
 30
0.0
 40
6.35
 41
0.0
 71
     1
 72
     1
  1
1:1
  7
SLDTEXTSTYLE1
 73
     1
 44
1.0
  0
MTEXT
  5
170
330
1F
100
AcDbEntity
  8
0
  6
Continuous
 62
     7
370
     0
100
AcDbMText
 10
168.4090458961
 20
14.7189131175
 30
0.0
 40
6.35
 41
0.0
 71
     1
 72
     1
  1
USO290EF
  7
SLDTEXTSTYLE1
 73
     1
 44
1.0
  0
INSERT
  5
178
330
1F
100
AcDbEntity
  8
0
  6
Continuous
 62
     7
370
     0
100
AcDbBlockReference
  2
SW_NOTE_1
 10
35.4202146835
 20
20.1681939512
 30
0.0
  0
LINE
  5
179
330
1F
100
AcDbEntity
  8
0
  6
Continuous
 62
     7
370
    15
100
AcDbLine
 10
130.6528147727
 20
218.0528570624
 30
0.0
 11
128.6528107196
 21
218.0528570624
 31
0.0
  0
LINE
  5
17A
330
1F
100
AcDbEntity
  8
0
  6
Continuous
 62
     7
370
    15
100
AcDbLine
 10
128.6528107196
 20
208.0528572859
 30
0.0
 11
130.6528147727
 21
208.0528572859
 31
0.0
  0
LINE
  5
17B
330
1F
100
AcDbEntity
  8
0
  6
Continuous
 62
     7
370
    15
100
AcDbLine
 10
221.5063456863
 20
208.0528572859
 30
0.0
 11
223.5063460141
 21
208.0528572859
 31
0.0
  0
LINE
  5
17C
330
1F
100
AcDbEntity
  8
0
  6
Continuous
 62
     7
370
    15
100
AcDbLine
 10
223.5063460141
 20
218.0528570624
 30
0.0
 11
221.5063456863
 21
218.0528570624
 31
0.0
  0
ARC
  5
17D
330
1F
100
AcDbEntity
  8
0
  6
Continuous
 62
     7
370
    15
100
AcDbCircle
 10
98.8528150102
 20
220.2478571429
 30
0.0
 40
0.3000000000000256
100
AcDbArc
 50
0.0
 51
90.0
  0
ARC
  5
17E
330
1F
100
AcDbEntity
  8
0
  6
Continuous
 62
     7
370
    15
100
AcDbCircle
 10
98.8528150102
 20
205.8578571429
 30
0.0
 40
0.3000000000000256
100
AcDbArc
 50
270.0
 51
0.0
  0
LINE
  5
17F
330
1F
100
AcDbEntity
  8
0
  6
Continuous
 62
     7
370
    15
100
AcDbLine
 10
87.5762697726
 20
205.557857147
 30
0.0
 11
98.852812913
 21
205.557857147
 31
0.0
  0
LINE
  5
180
330
1F
100
AcDbEntity
  8
0
  6
Continuous
 62
     7
370
    15
100
AcDbLine
 10
98.852812913
 20
220.5478572013
 30
0.0
 11
97.6462360889
 21
220.5478572013
 31
0.0
  0
ARC
  5
181
330
1F
100
AcDbEntity
  8
0
  6
Continuous
 62
     7
370
    15
100
AcDbCircle
 10
253.3063447028
 20
205.8578571429
 30
0.0
 40
0.3000000000000398
100
AcDbArc
 50
180.0
 51
270.0
  0
ARC
  5
182
330
1F
100
AcDbEntity
  8
0
  6
Continuous
 62
     7
370
    15
100
AcDbCircle
 10
253.3063447028
 20
220.2478571429
 30
0.0
 40
0.3000000000000398
100
AcDbArc
 50
90.0
 51
180.0
  0
LINE
  5
183
330
1F
100
AcDbEntity
  8
0
  6
Continuous
 62
     7
370
    15
100
AcDbLine
 10
254.5129206449
 20
220.5478572013
 30
0.0
 11
253.3063438207
 21
220.5478572013
 31
0.0
  0
LINE
  5
184
330
1F
100
AcDbEntity
  8
0
  6
Continuous
 62
     7
370
    15
100
AcDbLine
 10
253.3063438207
 20
205.557857147
 30
0.0
 11
264.5828962743
 21
205.557857147
 31
0.0
  0
LINE
  5
185
330
1F
100
AcDbEntity
  8
0
  6
Continuous
 62
     7
370
    15
100
AcDbLine
 10
253.0063443303
 20
219.0028573112
 30
0.0
 11
223.8063436419
 21
219.0028573112
 31
0.0
  0
LINE
  5
186
330
1F
100
AcDbEntity
  8
0
  6
Continuous
 62
     7
370
    15
100
AcDbLine
 10
223.8063436419
 20
207.1028579684
 30
0.0
 11
253.0063443303
 21
207.1028579684
 31
0.0
  0
ARC
  5
187
330
1F
100
AcDbEntity
  8
0
  6
Continuous
 62
     7
370
    15
100
AcDbCircle
 10
223.8063447028
 20
207.4028571429
 30
0.0
 40
0.3000000000000114
100
AcDbArc
 50
180.0
 51
270.0
  0
ARC
  5
188
330
1F
100
AcDbEntity
  8
0
  6
Continuous
 62
     7
370
    15
100
AcDbCircle
 10
223.8063447028
 20
218.7028571429
 30
0.0
 40
0.3000000000000114
100
AcDbArc
 50
90.0
 51
180.0
  0
LINE
  5
189
330
1F
100
AcDbEntity
  8
0
  6
Continuous
 62
     7
370
    15
100
AcDbLine
 10
99.1528179914
 20
207.1028579684
 30
0.0
 11
128.3528205424
 21
207.1028579684
 31
0.0
  0
LINE
  5
18A
330
1F
100
AcDbEntity
  8
0
  6
Continuous
 62
     7
370
    15
100
AcDbLine
 10
128.3528205424
 20
219.0028573112
 30
0.0
 11
99.1528179914
 21
219.0028573112
 31
0.0
  0
ARC
  5
18B
330
1F
100
AcDbEntity
  8
0
  6
Continuous
 62
     7
370
    15
100
AcDbCircle
 10
128.3528150102
 20
218.7028571429
 30
0.0
 40
0.3000000000000114
100
AcDbArc
 50
0.0
 51
90.0
  0
ARC
  5
18C
330
1F
100
AcDbEntity
  8
0
  6
Continuous
 62
     7
370
    15
100
AcDbCircle
 10
128.3528150102
 20
207.4028571429
 30
0.0
 40
0.3000000000000114
100
AcDbArc
 50
270.0
 51
0.0
  0
ARC
  5
18D
330
1F
100
AcDbEntity
  8
0
  6
Continuous
 62
     7
370
    15
100
AcDbCircle
 10
98.8528150102
 20
223.3528571429
 30
0.0
 40
0.1000000000000227
100
AcDbArc
 50
90.0
 51
180.0
  0
ARC
  5
18E
330
1F
100
AcDbEntity
  8
0
  6
Continuous
 62
     7
370
    15
100
AcDbCircle
 10
112.744488097
 20
218.4528571429
 30
0.0
 40
4.999999999999985
100
AcDbArc
 50
58.9972808661
 51
90.0
  0
LINE
  5
18F
330
1F
100
AcDbEntity
  8
0
  6
Continuous
 62
     7
370
    15
100
AcDbLine
 10
112.7444949418
 20
223.4528572025
 30
0.0
 11
98.852812913
 21
223.4528572025
 31
0.0
  0
ARC
  5
190
330
1F
100
AcDbEntity
  8
0
  6
Continuous
 62
     7
370
    15
100
AcDbCircle
 10
128.2634139141
 20
218.280519445
 30
0.0
 40
5.000000000000007
100
AcDbArc
 50
85.7108466712
 51
119.125466729
  0
LINE
  5
191
330
1F
100
AcDbEntity
  8
0
  6
Continuous
 62
     7
370
    15
100
AcDbLine
 10
130.6528147727
 20
217.7903563442
 30
0.0
 11
135.2276053697
 21
218.1334667565
 31
0.0
  0
LINE
  5
192
330
1F
100
AcDbEntity
  8
0
  6
Continuous
 62
     7
370
    15
100
AcDbLine
 10
135.2276053697
 20
222.7722475963
 30
0.0
 11
128.6373582154
 21
223.2665163191
 31
0.0
  0
LINE
  5
193
330
1F
100
AcDbEntity
  8
0
  6
Continuous
 62
     7
370
    15
100
AcDbLine
 10
98.7528112203
 20
223.2028566958
 30
0.0
 11
98.0471071273
 21
223.2028566958
 31
0.0
  0
ARC
  5
194
330
1F
100
AcDbEntity
  8
0
  6
Continuous
 62
     7
370
    15
100
AcDbCircle
 10
135.1528150102
 20
219.1306656989
 30
0.0
 40
1.0
100
AcDbArc
 50
274.2891533288
 51
0.0
  0
ARC
  5
195
330
1F
100
AcDbEntity
  8
0
  6
Continuous
 62
     7
370
    15
100
AcDbCircle
 10
135.1528150102
 20
221.7750485869
 30
0.0
 40
1.000000000000004
100
AcDbArc
 50
0.0
 51
85.7108466712
  0
ARC
  5
196
330
1F
100
AcDbEntity
  8
0
  6
Continuous
 62
     7
370
    15
100
AcDbCircle
 10
118.1528150102
 20
227.4528571429
 30
0.0
 40
5.5
100
AcDbArc
 50
238.9972808661
 51
270.0
  0
ARC
  5
197
330
1F
100
AcDbEntity
  8
0
  6
Continuous
 62
     7
370
    15
100
AcDbCircle
 10
123.1528150102
 20
227.4528571429
 30
0.0
 40
5.5
100
AcDbArc
 50
270.0
 51
299.125466729
  0
LINE
  5
198
330
1F
100
AcDbEntity
  8
0
  6
Continuous
 62
     7
370
    15
100
AcDbLine
 10
123.1528219253
 20
221.9528569566
 30
0.0
 11
118.1528117925
 21
221.9528569566
 31
0.0
  0
ARC
  5
199
330
1F
100
AcDbEntity
  8
0
  6
Continuous
 62
     7
370
    15
100
AcDbCircle
 10
253.3063447028
 20
223.3528571429
 30
0.0
 40
0.0999999999999943
100
AcDbArc
 50
0.0
 51
90.0
  0
ARC
  5
19A
330
1F
100
AcDbEntity
  8
0
  6
Continuous
 62
     7
370
    15
100
AcDbCircle
 10
239.414671616
 20
218.4528571429
 30
0.0
 40
5.0
100
AcDbArc
 50
90.0
 51
121.0027191339
  0
LINE
  5
19B
330
1F
100
AcDbEntity
  8
0
  6
Continuous
 62
     7
370
    15
100
AcDbLine
 10
247.5063443601
 20
223.4528572025
 30
0.0
 11
239.4146729678
 21
223.4528572025
 31
0.0
  0
LINE
  5
19C
330
1F
100
AcDbEntity
  8
0
  6
Continuous
 62
     7
370
    15
100
AcDbLine
 10
253.3063438207
 20
223.4528572025
 30
0.0
 11
251.0063440025
 21
223.4528572025
 31
0.0
  0
ARC
  5
19D
330
1F
100
AcDbEntity
  8
0
  6
Continuous
 62
     7
370
    15
100
AcDbCircle
 10
223.8957457989
 20
218.280519445
 30
0.0
 40
5.00000000000001
100
AcDbArc
 50
60.874533271
 51
94.2891533288
  0
LINE
  5
19E
330
1F
100
AcDbEntity
  8
0
  6
Continuous
 62
     7
370
    15
100
AcDbLine
 10
223.521794793
 20
223.2665163191
 30
0.0
 11
216.9315550893
 21
222.7722475963
 31
0.0
  0
LINE
  5
19F
330
1F
100
AcDbEntity
  8
0
  6
Continuous
 62
     7
370
    15
100
AcDbLine
 10
216.9315550893
 20
218.1334667565
 30
0.0
 11
221.5063456863
 21
217.7903563442
 31
0.0
  0
LINE
  5
1A0
330
1F
100
AcDbEntity
  8
0
  6
Continuous
 62
     7
370
    15
100
AcDbLine
 10
254.1120458811
 20
223.2028566958
 30
0.0
 11
253.4063455134
 21
223.2028566958
 31
0.0
  0
ARC
  5
1A1
330
1F
100
AcDbEntity
  8
0
  6
Continuous
 62
     7
370
    15
100
AcDbCircle
 10
217.0063447028
 20
221.7750485869
 30
0.0
 40
1.000000000000001
100
AcDbArc
 50
94.2891533288
 51
180.0
  0
ARC
  5
1A2
330
1F
100
AcDbEntity
  8
0
  6
Continuous
 62
     7
370
    15
100
AcDbCircle
 10
217.0063447028
 20
219.1306656989
 30
0.0
 40
1.0
100
AcDbArc
 50
180.0
 51
265.7108466712
  0
ARC
  5
1A3
330
1F
100
AcDbEntity
  8
0
  6
Continuous
 62
     7
370
    15
100
AcDbCircle
 10
234.0063447028
 20
227.4528571429
 30
0.0
 40
5.500000000000005
100
AcDbArc
 50
270.0
 51
301.0027191339
  0
ARC
  5
1A4
330
1F
100
AcDbEntity
  8
0
  6
Continuous
 62
     7
370
    15
100
AcDbCircle
 10
229.0063447028
 20
227.4528571429
 30
0.0
 40
5.5
100
AcDbArc
 50
240.874533271
 51
270.0
  0
LINE
  5
1A5
330
1F
100
AcDbEntity
  8
0
  6
Continuous
 62
     7
370
    15
100
AcDbLine
 10
234.0063449412
 20
221.9528569566
 30
0.0
 11
229.0063459843
 21
221.9528569566
 31
0.0
  0
LINE
  5
1A6
330
1F
100
AcDbEntity
  8
0
  6
Continuous
 62
     7
370
    15
100
AcDbLine
 10
130.6528147727
 20
211.0766716959
 30
0.0
 11
130.6528147727
 21
218.0528570624
 31
0.0
  0
LINE
  5
1A7
330
1F
100
AcDbEntity
  8
0
  6
Continuous
 62
     7
370
    15
100
AcDbLine
 10
130.6528147727
 20
208.0528572859
 30
0.0
 11
130.6528147727
 21
211.0766716959
 31
0.0
  0
LINE
  5
1A8
330
1F
100
AcDbEntity
  8
0
  6
Continuous
 62
     7
370
    15
100
AcDbLine
 10
221.5063456863
 20
213.0528562428
 30
0.0
 11
221.5063456863
 21
208.0528572859
 31
0.0
  0
LINE
  5
1A9
330
1F
100
AcDbEntity
  8
0
  6
Continuous
 62
     7
370
    15
100
AcDbLine
 10
221.5063456863
 20
218.0528570624
 30
0.0
 11
221.5063456863
 21
213.0528562428
 31
0.0
  0
LINE
  5
1AA
330
1F
100
AcDbEntity
  8
0
  6
Continuous
 62
     7
370
    15
100
AcDbLine
 10
99.1528179914
 20
220.2478567796
 30
0.0
 11
99.1528179914
 21
205.8578566374
 31
0.0
  0
LINE
  5
1AB
330
1F
100
AcDbEntity
  8
0
  6
Continuous
 62
     7
370
    15
100
AcDbLine
 10
253.0063443303
 20
219.4034806179
 30
0.0
 11
253.0063443303
 21
220.2478567796
 31
0.0
  0
LINE
  5
1AC
330
1F
100
AcDbEntity
  8
0
  6
Continuous
 62
     7
370
    15
100
AcDbLine
 10
253.0063443303
 20
205.8578566374
 30
0.0
 11
253.0063443303
 21
219.4034806179
 31
0.0
  0
LINE
  5
1AD
330
1F
100
AcDbEntity
  8
0
  6
Continuous
 62
     7
370
    15
100
AcDbLine
 10
223.5063460141
 20
214.5284977468
 30
0.0
 11
223.5063460141
 21
218.7028568895
 31
0.0
  0
LINE
  5
1AE
330
1F
100
AcDbEntity
  8
0
  6
Continuous
 62
     7
370
    15
100
AcDbLine
 10
223.5063460141
 20
207.4028574588
 30
0.0
 11
223.5063460141
 21
214.5284977468
 31
0.0
  0
LINE
  5
1AF
330
1F
100
AcDbEntity
  8
0
  6
Continuous
 62
     7
370
    15
100
AcDbLine
 10
128.6528107196
 20
218.7028568895
 30
0.0
 11
128.6528107196
 21
207.4028574588
 31
0.0
  0
CIRCLE
  5
1B0
330
1F
100
AcDbEntity
  8
0
  6
Continuous
 62
     7
370
    15
100
AcDbCircle
 10
74.1528150102
 20
225.4528571429
 30
0.0
 40
21.99999999999999
  0
CIRCLE
  5
1B1
330
1F
100
AcDbEntity
  8
0
  6
Continuous
 62
     7
370
    15
100
AcDbCircle
 10
74.1528150102
 20
225.4528571429
 30
0.0
 40
24.0
  0
CIRCLE
  5
1B2
330
1F
100
AcDbEntity
  8
0
  6
Continuous
 62
     7
370
    15
100
AcDbCircle
 10
84.9028150102
 20
225.4528571429
 30
0.0
 40
1.299999999999997
  0
CIRCLE
  5
1B3
330
1F
100
AcDbEntity
  8
0
  6
Continuous
 62
     7
370
    15
100
AcDbCircle
 10
63.4028150102
 20
225.4528571429
 30
0.0
 40
1.300000000000018
  0
CIRCLE
  5
1B4
330
1F
100
AcDbEntity
  8
0
  6
Continuous
 62
     7
370
    15
100
AcDbCircle
 10
74.1528150102
 20
236.2028571429
 30
0.0
 40
1.299999999999997
  0
CIRCLE
  5
1B5
330
1F
100
AcDbEntity
  8
0
  6
Continuous
 62
     7
370
    15
100
AcDbCircle
 10
74.1528150102
 20
214.7028571429
 30
0.0
 40
1.299999999999997
  0
CIRCLE
  5
1B6
330
1F
100
AcDbEntity
  8
0
  6
Continuous
 62
     7
370
    15
100
AcDbCircle
 10
281.5366616653
 20
235.6066427495
 30
0.0
 40
1.300000000000031
  0
CIRCLE
  5
1B7
330
1F
100
AcDbEntity
  8
0
  6
Continuous
 62
     7
370
    15
100
AcDbCircle
 10
278.0063447028
 20
225.4528571429
 30
0.0
 40
21.99999999999999
  0
CIRCLE
  5
1B8
330
1F
100
AcDbEntity
  8
0
  6
Continuous
 62
     7
370
    15
100
AcDbCircle
 10
274.4760277404
 20
215.2990715363
 30
0.0
 40
1.299999999999986
  0
CIRCLE
  5
1B9
330
1F
100
AcDbEntity
  8
0
  6
Continuous
 62
     7
370
    15
100
AcDbCircle
 10
267.8525590962
 20
228.9831741053
 30
0.0
 40
1.299999999999959
  0
CIRCLE
  5
1BA
330
1F
100
AcDbEntity
  8
0
  6
Continuous
 62
     7
370
    15
100
AcDbCircle
 10
288.1601303094
 20
221.9225401804
 30
0.0
 40
1.299999999999986
  0
CIRCLE
  5
1BB
330
1F
100
AcDbEntity
  8
0
  6
Continuous
 62
     7
370
    15
100
AcDbCircle
 10
278.0063447028
 20
225.4528571429
 30
0.0
 40
24.0
  0
LINE
  5
1BC
330
1F
100
AcDbEntity
  8
0
  6
Continuous
 62
     7
370
    15
100
AcDbLine
 10
98.7528112203
 20
220.5478572013
 30
0.0
 11
98.7528112203
 21
223.3528573723
 31
0.0
  0
LINE
  5
1BD
330
1F
100
AcDbEntity
  8
0
  6
Continuous
 62
     7
370
    15
100
AcDbLine
 10
104.6528216868
 20
222.1841863083
 30
0.0
 11
101.1528220445
 21
222.1841863083
 31
0.0
  0
LINE
  5
1BE
330
1F
100
AcDbEntity
  8
0
  6
Continuous
 62
     7
370
    15
100
AcDbLine
 10
101.1528220445
 20
219.0028573112
 30
0.0
 11
101.1528220445
 21
222.1841863083
 31
0.0
  0
LINE
  5
1BF
330
1F
100
AcDbEntity
  8
0
  6
Continuous
 62
     7
370
    15
100
AcDbLine
 10
104.6528216868
 20
219.0028573112
 30
0.0
 11
104.6528216868
 21
222.1841863083
 31
0.0
  0
LINE
  5
1C0
330
1F
100
AcDbEntity
  8
0
  6
Continuous
 62
     7
370
    15
100
AcDbLine
 10
136.1528184682
 20
220.4528567107
 30
0.0
 11
136.1528184682
 21
219.1306655021
 31
0.0
  0
LINE
  5
1C1
330
1F
100
AcDbEntity
  8
0
  6
Continuous
 62
     7
370
    15
100
AcDbLine
 10
136.1528184682
 20
221.7750488506
 30
0.0
 11
136.1528184682
 21
220.4528567107
 31
0.0
  0
LINE
  5
1C2
330
1F
100
AcDbEntity
  8
0
  6
Continuous
 62
     7
370
    15
100
AcDbLine
 10
253.4063455134
 20
223.3528573723
 30
0.0
 11
253.4063455134
 21
220.5478572013
 31
0.0
  0
LINE
  5
1C3
330
1F
100
AcDbEntity
  8
0
  6
Continuous
 62
     7
370
    15
100
AcDbLine
 10
247.5063443601
 20
223.2429315062
 30
0.0
 11
251.0063440025
 21
223.2429315062
 31
0.0
  0
LINE
  5
1C4
330
1F
100
AcDbEntity
  8
0
  6
Continuous
 62
     7
370
    15
100
AcDbLine
 10
251.0063440025
 20
223.4528572025
 30
0.0
 11
251.0063440025
 21
223.2429315062
 31
0.0
  0
LINE
  5
1C5
330
1F
100
AcDbEntity
  8
0
  6
Continuous
 62
     7
370
    15
100
AcDbLine
 10
247.5063443601
 20
223.4528572025
 30
0.0
 11
247.5063443601
 21
223.2429315062
 31
0.0
  0
LINE
  5
1C6
330
1F
100
AcDbEntity
  8
0
  6
Continuous
 62
     7
370
    15
100
AcDbLine
 10
216.0063457161
 20
219.1306655021
 30
0.0
 11
216.0063457161
 21
221.7750488506
 31
0.0
  0
LINE
  5
1C7
330
1F
100
AcDbEntity
  8
0
  6
Continuous
 62
     8
370
    15
100
AcDbLine
 10
98.852812913
 20
205.557857147
 30
0.0
 11
98.852812913
 21
220.5478572013
 31
0.0
  0
LINE
  5
1C8
330
1F
100
AcDbEntity
  8
0
  6
Continuous
 62
     8
370
    15
100
AcDbLine
 10
253.3063438207
 20
219.668273321
 30
0.0
 11
253.3063438207
 21
205.557857147
 31
0.0
  0
LINE
  5
1C9
330
1F
100
AcDbEntity
  8
0
  6
Continuous
 62
     8
370
    15
100
AcDbLine
 10
253.3063438207
 20
220.5478572013
 30
0.0
 11
253.3063438207
 21
219.668273321
 31
0.0
  0
LINE
  5
1CA
330
1F
100
AcDbEntity
  8
0
  6
Continuous
 62
     8
370
    15
100
AcDbLine
 10
223.8063436419
 20
214.606849915
 30
0.0
 11
223.8063436419
 21
207.1028579684
 31
0.0
  0
LINE
  5
1CB
330
1F
100
AcDbEntity
  8
0
  6
Continuous
 62
     8
370
    15
100
AcDbLine
 10
223.8063436419
 20
219.0028573112
 30
0.0
 11
223.8063436419
 21
214.606849915
 31
0.0
  0
LINE
  5
1CC
330
1F
100
AcDbEntity
  8
0
  6
Continuous
 62
     8
370
    15
100
AcDbLine
 10
128.3528205424
 20
207.1028579684
 30
0.0
 11
128.3528205424
 21
219.0028573112
 31
0.0
  0
LINE
  5
1CD
330
1F
100
AcDbEntity
  8
0
  6
Continuous
 62
     8
370
    15
100
AcDbLine
 10
98.852812913
 20
223.4528572025
 30
0.0
 11
98.852812913
 21
220.5478572013
 31
0.0
  0
LINE
  5
1CE
330
1F
100
AcDbEntity
  8
0
  6
Continuous
 62
     8
370
    15
100
AcDbLine
 10
115.3198775321
 20
222.738570972
 30
0.0
 11
115.3198775321
 21
219.0028573112
 31
0.0
  0
LINE
  5
1CF
330
1F
100
AcDbEntity
  8
0
  6
Continuous
 62
     8
370
    15
100
AcDbLine
 10
112.7444949418
 20
220.4528567107
 30
0.0
 11
112.7444949418
 21
223.4528572025
 31
0.0
  0
LINE
  5
1D0
330
1F
100
AcDbEntity
  8
0
  6
Continuous
 62
     8
370
    15
100
AcDbLine
 10
112.7444949418
 20
219.0028573112
 30
0.0
 11
112.7444949418
 21
220.4528567107
 31
0.0
  0
LINE
  5
1D1
330
1F
100
AcDbEntity
  8
0
  6
Continuous
 62
     8
370
    15
100
AcDbLine
 10
128.6373582154
 20
223.2665163191
 30
0.0
 11
128.6373582154
 21
218.797894633
 31
0.0
  0
LINE
  5
1D2
330
1F
100
AcDbEntity
  8
0
  6
Continuous
 62
     8
370
    15
100
AcDbLine
 10
125.8298006326
 20
220.4528567107
 30
0.0
 11
125.8298006326
 21
222.6482997374
 31
0.0
  0
LINE
  5
1D3
330
1F
100
AcDbEntity
  8
0
  6
Continuous
 62
     8
370
    15
100
AcDbLine
 10
125.8298006326
 20
219.0028573112
 30
0.0
 11
125.8298006326
 21
220.4528567107
 31
0.0
  0
LINE
  5
1D4
330
1F
100
AcDbEntity
  8
0
  6
Continuous
 62
     8
370
    15
100
AcDbLine
 10
135.2276053697
 20
220.4528567107
 30
0.0
 11
135.2276053697
 21
222.7722475963
 31
0.0
  0
LINE
  5
1D5
330
1F
100
AcDbEntity
  8
0
  6
Continuous
 62
     8
370
    15
100
AcDbLine
 10
135.2276053697
 20
218.1334667565
 30
0.0
 11
135.2276053697
 21
220.4528567107
 31
0.0
  0
LINE
  5
1D6
330
1F
100
AcDbEntity
  8
0
  6
Continuous
 62
     8
370
    15
100
AcDbLine
 10
118.1528117925
 20
220.4528567107
 30
0.0
 11
118.1528117925
 21
221.9528569566
 31
0.0
  0
LINE
  5
1D7
330
1F
100
AcDbEntity
  8
0
  6
Continuous
 62
     8
370
    15
100
AcDbLine
 10
118.1528117925
 20
219.0028573112
 30
0.0
 11
118.1528117925
 21
220.4528567107
 31
0.0
  0
LINE
  5
1D8
330
1F
100
AcDbEntity
  8
0
  6
Continuous
 62
     8
370
    15
100
AcDbLine
 10
123.1528219253
 20
220.4528567107
 30
0.0
 11
123.1528219253
 21
221.9528569566
 31
0.0
  0
LINE
  5
1D9
330
1F
100
AcDbEntity
  8
0
  6
Continuous
 62
     8
370
    15
100
AcDbLine
 10
123.1528219253
 20
219.0028573112
 30
0.0
 11
123.1528219253
 21
220.4528567107
 31
0.0
  0
LINE
  5
1DA
330
1F
100
AcDbEntity
  8
0
  6
Continuous
 62
     8
370
    15
100
AcDbLine
 10
253.3063438207
 20
220.5478572013
 30
0.0
 11
253.3063438207
 21
223.4528572025
 31
0.0
  0
LINE
  5
1DB
330
1F
100
AcDbEntity
  8
0
  6
Continuous
 62
     8
370
    15
100
AcDbLine
 10
236.8392792016
 20
219.0028573112
 30
0.0
 11
236.8392792016
 21
222.738570972
 31
0.0
  0
LINE
  5
1DC
330
1F
100
AcDbEntity
  8
0
  6
Continuous
 62
     8
370
    15
100
AcDbLine
 10
239.4146729678
 20
223.4528572025
 30
0.0
 11
239.4146729678
 21
219.0028573112
 31
0.0
  0
LINE
  5
1DD
330
1F
100
AcDbEntity
  8
0
  6
Continuous
 62
     8
370
    15
100
AcDbLine
 10
223.521794793
 20
218.797894633
 30
0.0
 11
223.521794793
 21
223.2665163191
 31
0.0
  0
LINE
  5
1DE
330
1F
100
AcDbEntity
  8
0
  6
Continuous
 62
     8
370
    15
100
AcDbLine
 10
226.3293635517
 20
222.6482997374
 30
0.0
 11
226.3293635517
 21
219.0028573112
 31
0.0
  0
LINE
  5
1DF
330
1F
100
AcDbEntity
  8
0
  6
Continuous
 62
     8
370
    15
100
AcDbLine
 10
216.9315550893
 20
218.1993224384
 30
0.0
 11
216.9315550893
 21
218.1334667565
 31
0.0
  0
LINE
  5
1E0
330
1F
100
AcDbEntity
  8
0
  6
Continuous
 62
     8
370
    15
100
AcDbLine
 10
216.9315550893
 20
222.7722475963
 30
0.0
 11
216.9315550893
 21
218.1993224384
 31
0.0
  0
LINE
  5
1E1
330
1F
100
AcDbEntity
  8
0
  6
Continuous
 62
     8
370
    15
100
AcDbLine
 10
234.0063449412
 20
221.9528569566
 30
0.0
 11
234.0063449412
 21
219.0028573112
 31
0.0
  0
LINE
  5
1E2
330
1F
100
AcDbEntity
  8
0
  6
Continuous
 62
     8
370
    15
100
AcDbLine
 10
229.0063459843
 20
221.9528569566
 30
0.0
 11
229.0063459843
 21
219.0028573112
 31
0.0
  0
LINE
  5
1E3
330
1F
100
AcDbEntity
  8
0
  6
Continuous
 62
     7
370
    15
100
AcDbLine
 10
50.152808097
 20
130.6306936064
 30
0.0
 11
50.152808097
 21
118.2488577657
 31
0.0
  0
LINE
  5
1E4
330
1F
100
AcDbEntity
  8
0
  6
Continuous
 62
     7
370
    15
100
AcDbLine
 10
50.152808097
 20
154.1488573172
 30
0.0
 11
50.152808097
 21
148.2205309191
 31
0.0
  0
LINE
  5
1E5
330
1F
100
AcDbEntity
  8
0
  6
Continuous
 62
     7
370
    15
100
AcDbLine
 10
98.1528159648
 20
148.2282897674
 30
0.0
 11
98.1528159648
 21
154.1488573172
 31
0.0
  0
LINE
  5
1E6
330
1F
100
AcDbEntity
  8
0
  6
Continuous
 62
     7
370
    15
100
AcDbLine
 10
98.1528159648
 20
118.2488577657
 30
0.0
 11
98.1528159648
 21
130.6918824308
 31
0.0
  0
LINE
  5
1E7
330
1F
100
AcDbEntity
  8
0
  6
Continuous
 62
     7
370
    15
100
AcDbLine
 10
98.1528159648
 20
154.1488573172
 30
0.0
 11
97.8528108865
 21
154.4488568076
 31
0.0
  0
LINE
  5
1E8
330
1F
100
AcDbEntity
  8
0
  6
Continuous
 62
     7
370
    15
100
AcDbLine
 10
50.4528131753
 20
154.4488568076
 30
0.0
 11
50.152808097
 21
154.1488573172
 31
0.0
  0
LINE
  5
1E9
330
1F
100
AcDbEntity
  8
0
  6
Continuous
 62
     7
370
    15
100
AcDbLine
 10
50.152808097
 20
118.2488577657
 30
0.0
 11
50.4528131753
 21
117.9488564127
 31
0.0
  0
LINE
  5
1EA
330
1F
100
AcDbEntity
  8
0
  6
Continuous
 62
     7
370
    15
100
AcDbLine
 10
97.8528108865
 20
117.9488564127
 30
0.0
 11
98.1528159648
 21
118.2488577657
 31
0.0
  0
LINE
  5
1EB
330
1F
100
AcDbEntity
  8
0
  6
Continuous
 62
     7
370
    15
100
AcDbLine
 10
130.6528147727
 20
137.4488570479
 30
0.0
 11
128.6528107196
 21
137.4488570479
 31
0.0
  0
LINE
  5
1EC
330
1F
100
AcDbEntity
  8
0
  6
Continuous
 62
     7
370
    15
100
AcDbLine
 10
128.6528107196
 20
127.4488570385
 30
0.0
 11
130.6528147727
 21
127.4488570385
 31
0.0
  0
LINE
  5
1ED
330
1F
100
AcDbEntity
  8
0
  6
Continuous
 62
     7
370
    15
100
AcDbLine
 10
221.5063456863
 20
127.4488570385
 30
0.0
 11
223.5063460141
 21
127.4488570385
 31
0.0
  0
LINE
  5
1EE
330
1F
100
AcDbEntity
  8
0
  6
Continuous
 62
     7
370
    15
100
AcDbLine
 10
223.5063460141
 20
137.4488570479
 30
0.0
 11
221.5063456863
 21
137.4488570479
 31
0.0
  0
LINE
  5
1EF
330
1F
100
AcDbEntity
  8
0
  6
Continuous
 62
     7
370
    15
100
AcDbLine
 10
98.1528159648
 20
124.9538568997
 30
0.0
 11
98.852812913
 21
124.9538568997
 31
0.0
  0
LINE
  5
1F0
330
1F
100
AcDbEntity
  8
0
  6
Continuous
 62
     7
370
    15
100
AcDbLine
 10
98.852812913
 20
139.9438571285
 30
0.0
 11
97.8882309466
 21
139.9438571285
 31
0.0
  0
ARC
  5
1F1
330
1F
100
AcDbEntity
  8
0
  6
Continuous
 62
     7
370
    15
100
AcDbCircle
 10
98.8528150102
 20
139.6438571429
 30
0.0
 40
0.3000000000000256
100
AcDbArc
 50
0.0
 51
90.0
  0
ARC
  5
1F2
330
1F
100
AcDbEntity
  8
0
  6
Continuous
 62
     7
370
    15
100
AcDbCircle
 10
98.8528150102
 20
125.2538571429
 30
0.0
 40
0.3000000000000256
100
AcDbArc
 50
270.0
 51
0.0
  0
ARC
  5
1F3
330
1F
100
AcDbEntity
  8
0
  6
Continuous
 62
     7
370
    15
100
AcDbCircle
 10
253.3063447028
 20
125.2538571429
 30
0.0
 40
0.3000000000000398
100
AcDbArc
 50
180.0
 51
270.0
  0
ARC
  5
1F4
330
1F
100
AcDbEntity
  8
0
  6
Continuous
 62
     7
370
    15
100
AcDbCircle
 10
253.3063447028
 20
139.6438571429
 30
0.0
 40
0.3000000000000398
100
AcDbArc
 50
90.0
 51
180.0
  0
LINE
  5
1F5
330
1F
100
AcDbEntity
  8
0
  6
Continuous
 62
     7
370
    15
100
AcDbLine
 10
254.2732168406
 20
139.9438571285
 30
0.0
 11
253.3063438207
 21
139.9438571285
 31
0.0
  0
LINE
  5
1F6
330
1F
100
AcDbEntity
  8
0
  6
Continuous
 62
     7
370
    15
100
AcDbLine
 10
253.3063438207
 20
124.9538568997
 30
0.0
 11
254.0063444942
 21
124.9538568997
 31
0.0
  0
LINE
  5
1F7
330
1F
100
AcDbEntity
  8
0
  6
Continuous
 62
     7
370
    15
100
AcDbLine
 10
253.0063443303
 20
138.3988571803
 30
0.0
 11
223.8063436419
 21
138.3988571803
 31
0.0
  0
LINE
  5
1F8
330
1F
100
AcDbEntity
  8
0
  6
Continuous
 62
     7
370
    15
100
AcDbLine
 10
223.8063436419
 20
126.4988567897
 30
0.0
 11
253.0063443303
 21
126.4988567897
 31
0.0
  0
ARC
  5
1F9
330
1F
100
AcDbEntity
  8
0
  6
Continuous
 62
     7
370
    15
100
AcDbCircle
 10
223.8063447028
 20
126.7988571429
 30
0.0
 40
0.3000000000000114
100
AcDbArc
 50
180.0
 51
270.0
  0
ARC
  5
1FA
330
1F
100
AcDbEntity
  8
0
  6
Continuous
 62
     7
370
    15
100
AcDbCircle
 10
223.8063447028
 20
138.0988571429
 30
0.0
 40
0.3000000000000114
100
AcDbArc
 50
90.0
 51
180.0
  0
ARC
  5
1FB
330
1F
100
AcDbEntity
  8
0
  6
Continuous
 62
     7
370
    15
100
AcDbCircle
 10
128.3528150102
 20
138.0988571429
 30
0.0
 40
0.3000000000000398
100
AcDbArc
 50
0.0
 51
90.0
  0
ARC
  5
1FC
330
1F
100
AcDbEntity
  8
0
  6
Continuous
 62
     7
370
    15
100
AcDbCircle
 10
128.3528150102
 20
126.7988571429
 30
0.0
 40
0.3000000000000114
100
AcDbArc
 50
270.0
 51
0.0
  0
LINE
  5
1FD
330
1F
100
AcDbEntity
  8
0
  6
Continuous
 62
     7
370
    15
100
AcDbLine
 10
99.1528179914
 20
126.4988567897
 30
0.0
 11
128.3528205424
 21
126.4988567897
 31
0.0
  0
LINE
  5
1FE
330
1F
100
AcDbEntity
  8
0
  6
Continuous
 62
     7
370
    15
100
AcDbLine
 10
128.3528205424
 20
138.3988571803
 30
0.0
 11
99.1528179914
 21
138.3988571803
 31
0.0
  0
LINE
  5
1FF
330
1F
100
AcDbEntity
  8
0
  6
Continuous
 62
     7
370
    15
100
AcDbLine
 10
98.1528159648
 20
117.7488567524
 30
0.0
 11
97.9528125793
 21
117.9488564127
 31
0.0
  0
LINE
  5
200
330
1F
100
AcDbEntity
  8
0
  6
Continuous
 62
     7
370
    15
100
AcDbLine
 10
50.3528114825
 20
117.9488564127
 30
0.0
 11
50.152808097
 21
117.7488567524
 31
0.0
  0
LINE
  5
201
330
1F
100
AcDbEntity
  8
0
  6
Continuous
 62
     7
370
    15
100
AcDbLine
 10
50.152808097
 20
117.7488567524
 30
0.0
 11
50.152808097
 21
114.4488567703
 31
0.0
  0
LINE
  5
202
330
1F
100
AcDbEntity
  8
0
  6
Continuous
 62
     7
370
    15
100
AcDbLine
 10
98.1528159648
 20
114.4488567703
 30
0.0
 11
98.1528159648
 21
117.7488567524
 31
0.0
  0
LINE
  5
203
330
1F
100
AcDbEntity
  8
0
  6
Continuous
 62
     7
370
    15
100
AcDbLine
 10
50.152808097
 20
114.4488567703
 30
0.0
 11
52.1528121501
 21
112.4488564425
 31
0.0
  0
LINE
  5
204
330
1F
100
AcDbEntity
  8
0
  6
Continuous
 62
     7
370
    15
100
AcDbLine
 10
96.1528119117
 20
112.4488564425
 30
0.0
 11
98.1528159648
 21
114.4488567703
 31
0.0
  0
LINE
  5
205
330
1F
100
AcDbEntity
  8
0
  6
Continuous
 62
     7
370
    15
100
AcDbLine
 10
254.0063444942
 20
117.7488567524
 30
0.0
 11
254.0063444942
 21
114.4488567703
 31
0.0
  0
LINE
  5
206
330
1F
100
AcDbEntity
  8
0
  6
Continuous
 62
     7
370
    15
100
AcDbLine
 10
302.0063449114
 20
114.4488567703
 30
0.0
 11
302.0063449114
 21
117.7488567524
 31
0.0
  0
LINE
  5
207
330
1F
100
AcDbEntity
  8
0
  6
Continuous
 62
     7
370
    15
100
AcDbLine
 10
302.0063449114
 20
117.7488567524
 30
0.0
 11
301.8063452512
 21
117.9488564127
 31
0.0
  0
LINE
  5
208
330
1F
100
AcDbEntity
  8
0
  6
Continuous
 62
     7
370
    15
100
AcDbLine
 10
254.2063441545
 20
117.9488564127
 30
0.0
 11
254.0063444942
 21
117.7488567524
 31
0.0
  0
LINE
  5
209
330
1F
100
AcDbEntity
  8
0
  6
Continuous
 62
     7
370
    15
100
AcDbLine
 10
254.0063444942
 20
114.4488567703
 30
0.0
 11
256.006344822
 21
112.4488564425
 31
0.0
  0
LINE
  5
20A
330
1F
100
AcDbEntity
  8
0
  6
Continuous
 62
     7
370
    15
100
AcDbLine
 10
300.0063445836
 20
112.4488564425
 30
0.0
 11
302.0063449114
 21
114.4488567703
 31
0.0
  0
ARC
  5
20B
330
1F
100
AcDbEntity
  8
0
  6
Continuous
 62
     7
370
    15
100
AcDbCircle
 10
98.8528150102
 20
146.3488571429
 30
0.0
 40
0.1000000000000227
100
AcDbArc
 50
180.0
 51
270.0
  0
ARC
  5
20C
330
1F
100
AcDbEntity
  8
0
  6
Continuous
 62
     7
370
    15
100
AcDbCircle
 10
98.8528150102
 20
152.1488571429
 30
0.0
 40
0.1000000000000227
100
AcDbArc
 50
90.0
 51
180.0
  0
LINE
  5
20D
330
1F
100
AcDbEntity
  8
0
  6
Continuous
 62
     7
370
    15
100
AcDbLine
 10
101.1528220445
 20
152.2488568195
 30
0.0
 11
98.852812913
 21
152.2488568195
 31
0.0
  0
LINE
  5
20E
330
1F
100
AcDbEntity
  8
0
  6
Continuous
 62
     7
370
    15
100
AcDbLine
 10
112.7444949418
 20
152.2488568195
 30
0.0
 11
104.6528216868
 21
152.2488568195
 31
0.0
  0
LINE
  5
20F
330
1F
100
AcDbEntity
  8
0
  6
Continuous
 62
     7
370
    15
100
AcDbLine
 10
104.6528216868
 20
146.248857233
 30
0.0
 11
112.7444949418
 21
146.248857233
 31
0.0
  0
LINE
  5
210
330
1F
100
AcDbEntity
  8
0
  6
Continuous
 62
     7
370
    15
100
AcDbLine
 10
98.852812913
 20
146.248857233
 30
0.0
 11
101.1528220445
 21
146.248857233
 31
0.0
  0
ARC
  5
211
330
1F
100
AcDbEntity
  8
0
  6
Continuous
 62
     7
370
    15
100
AcDbCircle
 10
112.744488097
 20
147.2488571429
 30
0.0
 40
5.0
100
AcDbArc
 50
58.9972808661
 51
90.0
  0
ARC
  5
212
330
1F
100
AcDbEntity
  8
0
  6
Continuous
 62
     7
370
    15
100
AcDbCircle
 10
112.744488097
 20
151.2488571429
 30
0.0
 40
5.0
100
AcDbArc
 50
270.0
 51
301.0027191339
  0
ARC
  5
213
330
1F
100
AcDbEntity
  8
0
  6
Continuous
 62
     7
370
    15
100
AcDbCircle
 10
128.2634139141
 20
147.076519445
 30
0.0
 40
4.999999999999979
100
AcDbArc
 50
85.7108466712
 51
119.125466729
  0
ARC
  5
214
330
1F
100
AcDbEntity
  8
0
  6
Continuous
 62
     7
370
    15
100
AcDbCircle
 10
128.2634139141
 20
151.4211948407
 30
0.0
 40
5.000000000000007
100
AcDbArc
 50
240.874533271
 51
274.2891533288
  0
LINE
  5
215
330
1F
100
AcDbEntity
  8
0
  6
Continuous
 62
     7
370
    15
100
AcDbLine
 10
128.6373582154
 20
146.4351981164
 30
0.0
 11
135.2276053697
 21
146.9294663736
 31
0.0
  0
LINE
  5
216
330
1F
100
AcDbEntity
  8
0
  6
Continuous
 62
     7
370
    15
100
AcDbLine
 10
135.2276053697
 20
151.5682481446
 30
0.0
 11
128.6373582154
 21
152.0625159361
 31
0.0
  0
LINE
  5
217
330
1F
100
AcDbEntity
  8
0
  6
Continuous
 62
     7
370
    15
100
AcDbLine
 10
98.1063094407
 20
146.498857274
 30
0.0
 11
98.7528112203
 21
146.498857274
 31
0.0
  0
LINE
  5
218
330
1F
100
AcDbEntity
  8
0
  6
Continuous
 62
     7
370
    15
100
AcDbLine
 10
98.7528112203
 20
151.9988572442
 30
0.0
 11
98.1528159648
 21
151.9988572442
 31
0.0
  0
ARC
  5
219
330
1F
100
AcDbEntity
  8
0
  6
Continuous
 62
     7
370
    15
100
AcDbCircle
 10
135.1528150102
 20
147.9266656989
 30
0.0
 40
1.000000000000028
100
AcDbArc
 50
274.2891533288
 51
0.0
  0
ARC
  5
21A
330
1F
100
AcDbEntity
  8
0
  6
Continuous
 62
     7
370
    15
100
AcDbCircle
 10
135.1528150102
 20
150.5710485869
 30
0.0
 40
1.000000000000028
100
AcDbArc
 50
0.0
 51
85.7108466712
  0
ARC
  5
21B
330
1F
100
AcDbEntity
  8
0
  6
Continuous
 62
     7
370
    15
100
AcDbCircle
 10
118.1528150102
 20
142.2488571429
 30
0.0
 40
5.500000000000012
100
AcDbArc
 50
90.0
 51
121.0027191339
  0
ARC
  5
21C
330
1F
100
AcDbEntity
  8
0
  6
Continuous
 62
     7
370
    15
100
AcDbCircle
 10
118.1528150102
 20
156.2488571429
 30
0.0
 40
5.500000000000012
100
AcDbArc
 50
238.9972808661
 51
270.0
  0
ARC
  5
21D
330
1F
100
AcDbEntity
  8
0
  6
Continuous
 62
     7
370
    15
100
AcDbCircle
 10
123.1528150102
 20
142.2488571429
 30
0.0
 40
5.5
100
AcDbArc
 50
60.874533271
 51
90.0
  0
ARC
  5
21E
330
1F
100
AcDbEntity
  8
0
  6
Continuous
 62
     7
370
    15
100
AcDbCircle
 10
123.1528150102
 20
156.2488571429
 30
0.0
 40
5.500000000000022
100
AcDbArc
 50
270.0
 51
299.125466729
  0
LINE
  5
21F
330
1F
100
AcDbEntity
  8
0
  6
Continuous
 62
     7
370
    15
100
AcDbLine
 10
118.1528117925
 20
147.7488570132
 30
0.0
 11
123.1528219253
 21
147.7488570132
 31
0.0
  0
LINE
  5
220
330
1F
100
AcDbEntity
  8
0
  6
Continuous
 62
     7
370
    15
100
AcDbLine
 10
123.1528219253
 20
150.748857505
 30
0.0
 11
118.1528117925
 21
150.748857505
 31
0.0
  0
ARC
  5
221
330
1F
100
AcDbEntity
  8
0
  6
Continuous
 62
     7
370
    15
100
AcDbCircle
 10
253.3063447028
 20
152.1488571429
 30
0.0
 40
0.0999999999999943
100
AcDbArc
 50
0.0
 51
90.0
  0
ARC
  5
222
330
1F
100
AcDbEntity
  8
0
  6
Continuous
 62
     7
370
    15
100
AcDbCircle
 10
253.3063447028
 20
146.3488571429
 30
0.0
 40
0.0999999999999943
100
AcDbArc
 50
270.0
 51
0.0
  0
LINE
  5
223
330
1F
100
AcDbEntity
  8
0
  6
Continuous
 62
     7
370
    15
100
AcDbLine
 10
239.4146729678
 20
146.248857233
 30
0.0
 11
253.3063438207
 21
146.248857233
 31
0.0
  0
LINE
  5
224
330
1F
100
AcDbEntity
  8
0
  6
Continuous
 62
     7
370
    15
100
AcDbLine
 10
253.3063438207
 20
152.2488568195
 30
0.0
 11
239.4146729678
 21
152.2488568195
 31
0.0
  0
ARC
  5
225
330
1F
100
AcDbEntity
  8
0
  6
Continuous
 62
     7
370
    15
100
AcDbCircle
 10
239.414671616
 20
151.2488571429
 30
0.0
 40
5.0
100
AcDbArc
 50
238.9972808661
 51
270.0
  0
ARC
  5
226
330
1F
100
AcDbEntity
  8
0
  6
Continuous
 62
     7
370
    15
100
AcDbCircle
 10
239.414671616
 20
147.2488571429
 30
0.0
 40
5.000000000000023
100
AcDbArc
 50
90.0
 51
121.0027191339
  0
ARC
  5
227
330
1F
100
AcDbEntity
  8
0
  6
Continuous
 62
     7
370
    15
100
AcDbCircle
 10
223.8957457989
 20
151.4211948407
 30
0.0
 40
5.000000000000018
100
AcDbArc
 50
265.7108466712
 51
299.125466729
  0
ARC
  5
228
330
1F
100
AcDbEntity
  8
0
  6
Continuous
 62
     7
370
    15
100
AcDbCircle
 10
223.8957457989
 20
147.076519445
 30
0.0
 40
5.00000000000001
100
AcDbArc
 50
60.874533271
 51
94.2891533288
  0
LINE
  5
229
330
1F
100
AcDbEntity
  8
0
  6
Continuous
 62
     7
370
    15
100
AcDbLine
 10
223.521794793
 20
152.0625159361
 30
0.0
 11
216.9315550893
 21
151.5682481446
 31
0.0
  0
LINE
  5
22A
330
1F
100
AcDbEntity
  8
0
  6
Continuous
 62
     7
370
    15
100
AcDbLine
 10
216.9315550893
 20
146.9294663736
 30
0.0
 11
223.521794793
 21
146.4351981164
 31
0.0
  0
LINE
  5
22B
330
1F
100
AcDbEntity
  8
0
  6
Continuous
 62
     7
370
    15
100
AcDbLine
 10
254.0063444942
 20
151.9988572442
 30
0.0
 11
253.4063455134
 21
151.9988572442
 31
0.0
  0
LINE
  5
22C
330
1F
100
AcDbEntity
  8
0
  6
Continuous
 62
     7
370
    15
100
AcDbLine
 10
253.4063455134
 20
146.498857274
 30
0.0
 11
254.0526945561
 21
146.498857274
 31
0.0
  0
ARC
  5
22D
330
1F
100
AcDbEntity
  8
0
  6
Continuous
 62
     7
370
    15
100
AcDbCircle
 10
217.0063447028
 20
150.5710485869
 30
0.0
 40
1.0
100
AcDbArc
 50
94.2891533288
 51
180.0
  0
ARC
  5
22E
330
1F
100
AcDbEntity
  8
0
  6
Continuous
 62
     7
370
    15
100
AcDbCircle
 10
217.0063447028
 20
147.9266656989
 30
0.0
 40
1.0
100
AcDbArc
 50
180.0
 51
265.7108466712
  0
ARC
  5
22F
330
1F
100
AcDbEntity
  8
0
  6
Continuous
 62
     7
370
    15
100
AcDbCircle
 10
234.0063447028
 20
156.2488571429
 30
0.0
 40
5.5
100
AcDbArc
 50
270.0
 51
301.0027191339
  0
ARC
  5
230
330
1F
100
AcDbEntity
  8
0
  6
Continuous
 62
     7
370
    15
100
AcDbCircle
 10
234.0063447028
 20
142.2488571429
 30
0.0
 40
5.500000000000005
100
AcDbArc
 50
58.9972808661
 51
90.0
  0
ARC
  5
231
330
1F
100
AcDbEntity
  8
0
  6
Continuous
 62
     7
370
    15
100
AcDbCircle
 10
229.0063447028
 20
156.2488571429
 30
0.0
 40
5.500000000000029
100
AcDbArc
 50
240.874533271
 51
270.0
  0
ARC
  5
232
330
1F
100
AcDbEntity
  8
0
  6
Continuous
 62
     7
370
    15
100
AcDbCircle
 10
229.0063447028
 20
142.2488571429
 30
0.0
 40
5.500000000000004
100
AcDbArc
 50
90.0
 51
119.125466729
  0
LINE
  5
233
330
1F
100
AcDbEntity
  8
0
  6
Continuous
 62
     7
370
    15
100
AcDbLine
 10
234.0063449412
 20
150.748857505
 30
0.0
 11
229.0063459843
 21
150.748857505
 31
0.0
  0
LINE
  5
234
330
1F
100
AcDbEntity
  8
0
  6
Continuous
 62
     7
370
    15
100
AcDbLine
 10
229.0063459843
 20
147.7488570132
 30
0.0
 11
234.0063449412
 21
147.7488570132
 31
0.0
  0
LINE
  5
235
330
1F
100
AcDbEntity
  8
0
  6
Continuous
 62
     7
370
    15
100
AcDbLine
 10
302.0063449114
 20
154.1488573172
 30
0.0
 11
301.7063454211
 21
154.4488568076
 31
0.0
  0
LINE
  5
236
330
1F
100
AcDbEntity
  8
0
  6
Continuous
 62
     7
370
    15
100
AcDbLine
 10
254.3063439846
 20
154.4488568076
 30
0.0
 11
254.0063444942
 21
154.1488573172
 31
0.0
  0
LINE
  5
237
330
1F
100
AcDbEntity
  8
0
  6
Continuous
 62
     7
370
    15
100
AcDbLine
 10
254.0063444942
 20
130.6306936064
 30
0.0
 11
254.0063444942
 21
118.2488577657
 31
0.0
  0
LINE
  5
238
330
1F
100
AcDbEntity
  8
0
  6
Continuous
 62
     7
370
    15
100
AcDbLine
 10
254.0063444942
 20
154.1488573172
 30
0.0
 11
254.0063444942
 21
148.2205309191
 31
0.0
  0
LINE
  5
239
330
1F
100
AcDbEntity
  8
0
  6
Continuous
 62
     7
370
    15
100
AcDbLine
 10
302.0063449114
 20
148.2282897674
 30
0.0
 11
302.0063449114
 21
154.1488573172
 31
0.0
  0
LINE
  5
23A
330
1F
100
AcDbEntity
  8
0
  6
Continuous
 62
     7
370
    15
100
AcDbLine
 10
302.0063449114
 20
118.2488577657
 30
0.0
 11
302.0063449114
 21
130.6918824308
 31
0.0
  0
LINE
  5
23B
330
1F
100
AcDbEntity
  8
0
  6
Continuous
 62
     7
370
    15
100
AcDbLine
 10
254.0063444942
 20
118.2488577657
 30
0.0
 11
254.3063439846
 21
117.9488564127
 31
0.0
  0
LINE
  5
23C
330
1F
100
AcDbEntity
  8
0
  6
Continuous
 62
     7
370
    15
100
AcDbLine
 10
301.7063454211
 20
117.9488564127
 30
0.0
 11
302.0063449114
 21
118.2488577657
 31
0.0
  0
SPLINE
  5
23D
330
1F
100
AcDbEntity
  8
0
  6
Continuous
 62
     7
370
    15
100
AcDbSpline
210
0.0
220
0.0
230
1.0
 70
    11
 71
     3
 72
    47
 73
    43
 74
     0
 42
0.000000001
 43
0.00000001
 40
0.0
 40
0.0
 40
0.0
 40
0.0
 40
0.0224842437685283
 40
0.0455957785695856
 40
0.06809044705658
 40
0.091264718667223
 40
0.1133886446185006
 40
0.1360941916349764
 40
0.1593735217214452
 40
0.1832762573248334
 40
0.2074582036028177
 40
0.2323497147790182
 40
0.2563757642687733
 40
0.2810997243680314
 40
0.3051344040806618
 40
0.3298554374382027
 40
0.3540228160529327
 40
0.3789501407823472
 40
0.4020805863344846
 40
0.4259522488898183
 40
0.448016856127241
 40
0.4706703184859438
 40
0.493835466258871
 40
0.5175015715771124
 40
0.5510200582077278
 40
0.5855031218416543
 40
0.619734904354262
 40
0.6547332169468147
 40
0.6712354360036116
 40
0.6879167577373628
 40
0.7019341697839001
 40
0.7162886291140236
 40
0.738289401571696
 40
0.7602516027557978
 40
0.7787025368221605
 40
0.7976287669254813
 40
0.8320431479624127
 40
0.8673633551989467
 40
0.9037780943146299
 40
0.9412773543836198
 40
0.970169867745301
 40
1.0
 40
1.0
 40
1.0
 40
1.0
 10
96.40140798388319
 20
152.0488571592484
 30
0.0
 10
96.63061579775211
 20
152.023857778964
 30
0.0
 10
97.09542612605027
 20
151.9731615572206
 30
0.0
 10
97.58542303860062
 20
151.5403869516553
 30
0.0
 10
97.92419898653756
 20
150.8263082360751
 30
0.0
 10
98.10483637429724
 20
149.8357838100878
 30
0.0
 10
98.16526761604815
 20
148.5893680124544
 30
0.0
 10
98.13953844429105
 20
147.120651489791
 30
0.0
 10
98.06218620593721
 20
145.4210136552373
 30
0.0
 10
97.96993775930513
 20
143.5277584633114
 30
0.0
 10
97.8975267423688
 20
141.4783803715627
 30
0.0
 10
97.87206278280856
 20
139.3662192867107
 30
0.0
 10
97.90214027640477
 20
137.2419734991027
 30
0.0
 10
97.97727036250012
 20
135.2042282831099
 30
0.0
 10
98.07267440845472
 20
133.2680585237091
 30
0.0
 10
98.1494727791625
 20
131.517283008562
 30
0.0
 10
98.16273334820208
 20
129.9690896490492
 30
0.0
 10
98.06575769607872
 20
128.7187704915781
 30
0.0
 10
97.82048595375267
 20
127.771083800724
 30
0.0
 10
97.41984933777562
 20
127.1621538092948
 30
0.0
 10
96.8528354273393
 20
126.8548438871363
 30
0.0
 10
96.13478310754012
 20
126.8245636482005
 30
0.0
 10
95.25314239633984
 20
127.0549151740746
 30
0.0
 10
94.08947331796408
 20
127.5909786237619
 30
0.0
 10
92.60272274869011
 20
128.5241866429028
 30
0.0
 10
90.81298989764022
 20
129.9061014742726
 30
0.0
 10
88.94051495702149
 20
131.6049299603879
 30
0.0
 10
87.4170752581157
 20
133.2500532496404
 30
0.0
 10
86.3057207007533
 20
134.7256321774695
 30
0.0
 10
85.61410312494006
 20
135.8361549431123
 30
0.0
 10
85.07106918270604
 20
136.9862615055612
 30
0.0
 10
84.64497925051226
 20
138.3662730644636
 30
0.0
 10
84.54467089695383
 20
140.0812020677398
 30
0.0
 10
85.00949661794205
 20
141.8355742772324
 30
0.0
 10
85.75720050353999
 20
143.3316272454019
 30
0.0
 10
86.85802233243916
 20
144.9728946400419
 30
0.0
 10
88.40369659897662
 20
146.753201698789
 30
0.0
 10
90.32197473216053
 20
148.5753087053949
 30
0.0
 10
92.25952285065806
 20
150.1353321478918
 30
0.0
 10
93.95114389625518
 20
151.2358778135341
 30
0.0
 10
95.36805959632719
 20
151.9183090714967
 30
0.0
 10
96.0533114045658
 20
152.0048803714293
 30
0.0
 10
96.40140798388319
 20
152.0488571592484
 30
0.0
  0
SPLINE
  5
23E
330
1F
100
AcDbEntity
  8
0
  6
Continuous
 62
     7
370
    15
100
AcDbSpline
210
0.0
220
0.0
230
1.0
 70
    11
 71
     3
 72
    50
 73
    46
 74
     0
 42
0.000000001
 43
0.00000001
 40
0.0
 40
0.0
 40
0.0
 40
0.0
 40
0.0241097172178353
 40
0.0489288897922273
 40
0.0730345962908829
 40
0.097836299576127
 40
0.1219619239934979
 40
0.1467987899744287
 40
0.1707546601238553
 40
0.1953900378874724
 40
0.2195946053898021
 40
0.2445321907871607
 40
0.2681250931898284
 40
0.2924879113108915
 40
0.3147391088712218
 40
0.3376296016475208
 40
0.3601234377265663
 40
0.3831347151761162
 40
0.4143165596911958
 40
0.4463977531221739
 40
0.4782492330231384
 40
0.5107201059032312
 40
0.5348819096770717
 40
0.5594095442635212
 40
0.573946222835832
 40
0.5887411181532286
 40
0.6000214105140204
 40
0.6116044812892456
 40
0.6228978161339943
 40
0.6345365118183668
 40
0.6502726935268355
 40
0.6664320253019552
 40
0.6957902110437536
 40
0.7258761911507428
 40
0.7583364132425241
 40
0.7914547516991021
 40
0.8208604922262966
 40
0.8510147994605172
 40
0.8752356677087488
 40
0.9001174768186674
 40
0.924363436878928
 40
0.9494557571710077
 40
0.9716332043342454
 40
0.994436375067973
 40
1.0
 40
1.0
 40
1.0
 40
1.0
 10
50.15280809698896
 20
130.6306936063681
 30
0.0
 10
50.16139823766657
 20
131.1513497280013
 30
0.0
 10
50.17883129350517
 20
132.2079828591519
 30
0.0
 10
50.27370289915278
 20
134.0530607967974
 30
0.0
 10
50.36386202724591
 20
136.0494026955902
 30
0.0
 10
50.42281170683857
 20
138.1291561272158
 30
0.0
 10
50.42943467211617
 20
140.2658221387487
 30
0.0
 10
50.38207095503203
 20
142.3558172011268
 30
0.0
 10
50.29610858752748
 20
144.3760579884664
 30
0.0
 10
50.20279313572748
 20
146.2427371029621
 30
0.0
 10
50.14180473661381
 20
147.9431369945645
 30
0.0
 10
50.16138635809362
 20
149.3826187008188
 30
0.0
 10
50.30671862564012
 20
150.5453190609438
 30
0.0
 10
50.60192455166504
 20
151.3668169638985
 30
0.0
 10
51.06429172210888
 20
151.8747969066447
 30
0.0
 10
51.677768052875
 20
152.0836317765634
 30
0.0
 10
52.45343637332023
 20
152.0222163313668
 30
0.0
 10
53.47506006945291
 20
151.678841926181
 30
0.0
 10
54.79257298839504
 20
150.9729861242027
 30
0.0
 10
56.39478606260548
 20
149.8625447589635
 30
0.0
 10
58.10877498362388
 20
148.4564141889729
 30
0.0
 10
59.70772108161857
 20
146.9342934008525
 30
0.0
 10
61.1291984489831
 20
145.3479486070764
 30
0.0
 10
62.15554828207628
 20
143.9631319257733
 30
0.0
 10
62.90116723918057
 20
142.6590644311568
 30
0.0
 10
63.34831185865605
 20
141.5950985557963
 30
0.0
 10
63.618403187332
 20
140.5472280019251
 30
0.0
 10
63.71760025765044
 20
139.5627883466147
 30
0.0
 10
63.65373995498078
 20
138.5645147922594
 30
0.0
 10
63.40999884834744
 20
137.4776487167059
 30
0.0
 10
62.94964929845215
 20
136.3255228928234
 30
0.0
 10
62.10514831021108
 20
134.8380345134604
 30
0.0
 10
60.85584551315207
 20
133.2046637997659
 30
0.0
 10
59.22093369220305
 20
131.4725928869088
 30
0.0
 10
57.49401168590227
 20
129.9109539772098
 30
0.0
 10
55.82957213805215
 20
128.6202717476764
 30
0.0
 10
54.31336980111453
 20
127.6436976025282
 30
0.0
 10
53.08268733905913
 20
127.054776259453
 30
0.0
 10
52.08620778466563
 20
126.8088938746294
 30
0.0
 10
51.3317985338464
 20
126.880086074747
 30
0.0
 10
50.75993736410506
 20
127.2859008520544
 30
0.0
 10
50.39777407496162
 20
128.0108538201422
 30
0.0
 10
50.20536295287545
 20
129.0238856729893
 30
0.0
 10
50.15582997142545
 20
129.9399508497074
 30
0.0
 10
50.1533035985377
 20
130.5174314199622
 30
0.0
 10
50.15280809698896
 20
130.6306936063681
 30
0.0
  0
LINE
  5
23F
330
1F
100
AcDbEntity
  8
0
  6
Continuous
 62
     7
370
    15
100
AcDbLine
 10
50.152808097
 20
118.2488577657
 30
0.0
 11
98.1528159648
 21
118.2488577657
 31
0.0
  0
LINE
  5
240
330
1F
100
AcDbEntity
  8
0
  6
Continuous
 62
     7
370
    15
100
AcDbLine
 10
98.1528159648
 20
154.1488573172
 30
0.0
 11
50.152808097
 21
154.1488573172
 31
0.0
  0
LINE
  5
241
330
1F
100
AcDbEntity
  8
0
  6
Continuous
 62
     7
370
    15
100
AcDbLine
 10
50.4528131753
 20
154.4488568076
 30
0.0
 11
97.8528108865
 21
154.4488568076
 31
0.0
  0
LINE
  5
242
330
1F
100
AcDbEntity
  8
0
  6
Continuous
 62
     7
370
    15
100
AcDbLine
 10
130.6528147727
 20
127.4488570385
 30
0.0
 11
130.6528147727
 21
137.4488570479
 31
0.0
  0
LINE
  5
243
330
1F
100
AcDbEntity
  8
0
  6
Continuous
 62
     7
370
    15
100
AcDbLine
 10
221.5063456863
 20
137.4488570479
 30
0.0
 11
221.5063456863
 21
127.4488570385
 31
0.0
  0
LINE
  5
244
330
1F
100
AcDbEntity
  8
0
  6
Continuous
 62
     7
370
    15
100
AcDbLine
 10
99.1528179914
 20
139.6438571434
 30
0.0
 11
99.1528179914
 21
125.2538573214
 31
0.0
  0
LINE
  5
245
330
1F
100
AcDbEntity
  8
0
  6
Continuous
 62
     7
370
    15
100
AcDbLine
 10
253.0063443303
 20
129.0669042834
 30
0.0
 11
253.0063443303
 21
139.6438571434
 31
0.0
  0
LINE
  5
246
330
1F
100
AcDbEntity
  8
0
  6
Continuous
 62
     7
370
    15
100
AcDbLine
 10
253.0063443303
 20
125.2538573214
 30
0.0
 11
253.0063443303
 21
129.0669042834
 31
0.0
  0
LINE
  5
247
330
1F
100
AcDbEntity
  8
0
  6
Continuous
 62
     7
370
    15
100
AcDbLine
 10
223.5063460141
 20
126.9949611493
 30
0.0
 11
223.5063460141
 21
138.0988571078
 31
0.0
  0
LINE
  5
248
330
1F
100
AcDbEntity
  8
0
  6
Continuous
 62
     7
370
    15
100
AcDbLine
 10
223.5063460141
 20
126.7988572114
 30
0.0
 11
223.5063460141
 21
126.9949611493
 31
0.0
  0
LINE
  5
249
330
1F
100
AcDbEntity
  8
0
  6
Continuous
 62
     7
370
    15
100
AcDbLine
 10
128.6528107196
 20
137.9738078437
 30
0.0
 11
128.6528107196
 21
126.7988572114
 31
0.0
  0
LINE
  5
24A
330
1F
100
AcDbEntity
  8
0
  6
Continuous
 62
     7
370
    15
100
AcDbLine
 10
128.6528107196
 20
138.0988571078
 30
0.0
 11
128.6528107196
 21
137.9738078437
 31
0.0
  0
LINE
  5
24B
330
1F
100
AcDbEntity
  8
0
  6
Continuous
 62
     7
370
    15
100
AcDbLine
 10
98.1528159648
 20
117.7488567524
 30
0.0
 11
50.152808097
 21
117.7488567524
 31
0.0
  0
LINE
  5
24C
330
1F
100
AcDbEntity
  8
0
  6
Continuous
 62
     7
370
    15
100
AcDbLine
 10
50.3528114825
 20
117.9488564127
 30
0.0
 11
97.9528125793
 21
117.9488564127
 31
0.0
  0
LINE
  5
24D
330
1F
100
AcDbEntity
  8
0
  6
Continuous
 62
     7
370
    15
100
AcDbLine
 10
50.152808097
 20
114.4488567703
 30
0.0
 11
98.1528159648
 21
114.4488567703
 31
0.0
  0
LINE
  5
24E
330
1F
100
AcDbEntity
  8
0
  6
Continuous
 62
     7
370
    15
100
AcDbLine
 10
96.1528119117
 20
112.4488564425
 30
0.0
 11
52.1528121501
 21
112.4488564425
 31
0.0
  0
LINE
  5
24F
330
1F
100
AcDbEntity
  8
0
  6
Continuous
 62
     7
370
    15
100
AcDbLine
 10
285.8879823655
 20
114.4488567703
 30
0.0
 11
302.0063449114
 21
114.4488567703
 31
0.0
  0
LINE
  5
250
330
1F
100
AcDbEntity
  8
0
  6
Continuous
 62
     7
370
    15
100
AcDbLine
 10
254.0063444942
 20
114.4488567703
 30
0.0
 11
285.8879823655
 21
114.4488567703
 31
0.0
  0
LINE
  5
251
330
1F
100
AcDbEntity
  8
0
  6
Continuous
 62
     7
370
    15
100
AcDbLine
 10
285.8879823655
 20
117.7488567524
 30
0.0
 11
254.0063444942
 21
117.7488567524
 31
0.0
  0
LINE
  5
252
330
1F
100
AcDbEntity
  8
0
  6
Continuous
 62
     7
370
    15
100
AcDbLine
 10
302.0063449114
 20
117.7488567524
 30
0.0
 11
285.8879823655
 21
117.7488567524
 31
0.0
  0
LINE
  5
253
330
1F
100
AcDbEntity
  8
0
  6
Continuous
 62
     7
370
    15
100
AcDbLine
 10
285.8223027035
 20
117.9488564127
 30
0.0
 11
301.8063452512
 21
117.9488564127
 31
0.0
  0
LINE
  5
254
330
1F
100
AcDbEntity
  8
0
  6
Continuous
 62
     7
370
    15
100
AcDbLine
 10
254.2063441545
 20
117.9488564127
 30
0.0
 11
285.8223027035
 21
117.9488564127
 31
0.0
  0
LINE
  5
255
330
1F
100
AcDbEntity
  8
0
  6
Continuous
 62
     7
370
    15
100
AcDbLine
 10
285.2311792269
 20
112.4488564425
 30
0.0
 11
256.006344822
 21
112.4488564425
 31
0.0
  0
LINE
  5
256
330
1F
100
AcDbEntity
  8
0
  6
Continuous
 62
     7
370
    15
100
AcDbLine
 10
300.0063445836
 20
112.4488564425
 30
0.0
 11
285.2311792269
 21
112.4488564425
 31
0.0
  0
LINE
  5
257
330
1F
100
AcDbEntity
  8
0
  6
Continuous
 62
     7
370
    15
100
AcDbLine
 10
98.7528112203
 20
146.3488570631
 30
0.0
 11
98.7528112203
 21
152.1488569894
 31
0.0
  0
LINE
  5
258
330
1F
100
AcDbEntity
  8
0
  6
Continuous
 62
     7
370
    15
100
AcDbLine
 10
104.6528216868
 20
146.79885723
 30
0.0
 11
101.1528220445
 21
146.79885723
 31
0.0
  0
LINE
  5
259
330
1F
100
AcDbEntity
  8
0
  6
Continuous
 62
     7
370
    15
100
AcDbLine
 10
101.1528220445
 20
146.248857233
 30
0.0
 11
101.1528220445
 21
146.79885723
 31
0.0
  0
LINE
  5
25A
330
1F
100
AcDbEntity
  8
0
  6
Continuous
 62
     7
370
    15
100
AcDbLine
 10
104.6528216868
 20
146.248857233
 30
0.0
 11
104.6528216868
 21
146.79885723
 31
0.0
  0
LINE
  5
25B
330
1F
100
AcDbEntity
  8
0
  6
Continuous
 62
     7
370
    15
100
AcDbLine
 10
101.1528220445
 20
151.6988568225
 30
0.0
 11
101.1528220445
 21
152.2488568195
 31
0.0
  0
LINE
  5
25C
330
1F
100
AcDbEntity
  8
0
  6
Continuous
 62
     7
370
    15
100
AcDbLine
 10
104.6528216868
 20
151.6988568225
 30
0.0
 11
101.1528220445
 21
151.6988568225
 31
0.0
  0
LINE
  5
25D
330
1F
100
AcDbEntity
  8
0
  6
Continuous
 62
     7
370
    15
100
AcDbLine
 10
104.6528216868
 20
151.6988568225
 30
0.0
 11
104.6528216868
 21
152.2488568195
 31
0.0
  0
LINE
  5
25E
330
1F
100
AcDbEntity
  8
0
  6
Continuous
 62
     7
370
    15
100
AcDbLine
 10
136.1528184682
 20
150.5710484677
 30
0.0
 11
136.1528184682
 21
147.9266660505
 31
0.0
  0
LINE
  5
25F
330
1F
100
AcDbEntity
  8
0
  6
Continuous
 62
     7
370
    15
100
AcDbLine
 10
253.4063455134
 20
152.1488569894
 30
0.0
 11
253.4063455134
 21
146.3488570631
 31
0.0
  0
LINE
  5
260
330
1F
100
AcDbEntity
  8
0
  6
Continuous
 62
     7
370
    15
100
AcDbLine
 10
247.5063443601
 20
148.1463669085
 30
0.0
 11
251.0063440025
 21
148.1463669085
 31
0.0
  0
LINE
  5
261
330
1F
100
AcDbEntity
  8
0
  6
Continuous
 62
     7
370
    15
100
AcDbLine
 10
251.0063440025
 20
151.5107073107
 30
0.0
 11
251.0063440025
 21
148.1463669085
 31
0.0
  0
LINE
  5
262
330
1F
100
AcDbEntity
  8
0
  6
Continuous
 62
     7
370
    15
100
AcDbLine
 10
247.5063443601
 20
151.5107073107
 30
0.0
 11
251.0063440025
 21
151.5107073107
 31
0.0
  0
LINE
  5
263
330
1F
100
AcDbEntity
  8
0
  6
Continuous
 62
     7
370
    15
100
AcDbLine
 10
247.5063443601
 20
151.5107073107
 30
0.0
 11
247.5063443601
 21
148.1463669085
 31
0.0
  0
LINE
  5
264
330
1F
100
AcDbEntity
  8
0
  6
Continuous
 62
     7
370
    15
100
AcDbLine
 10
216.0063457161
 20
147.9266660505
 30
0.0
 11
216.0063457161
 21
150.5710484677
 31
0.0
  0
LINE
  5
265
330
1F
100
AcDbEntity
  8
0
  6
Continuous
 62
     7
370
    15
100
AcDbLine
 10
254.3063439846
 20
154.4488568076
 30
0.0
 11
301.7063454211
 21
154.4488568076
 31
0.0
  0
LINE
  5
266
330
1F
100
AcDbEntity
  8
0
  6
Continuous
 62
     7
370
    15
100
AcDbLine
 10
302.0063449114
 20
154.1488573172
 30
0.0
 11
254.0063444942
 21
154.1488573172
 31
0.0
  0
SPLINE
  5
267
330
1F
100
AcDbEntity
  8
0
  6
Continuous
 62
     7
370
    15
100
AcDbSpline
210
0.0
220
0.0
230
1.0
 70
    11
 71
     3
 72
    47
 73
    43
 74
     0
 42
0.000000001
 43
0.00000001
 40
0.0
 40
0.0
 40
0.0
 40
0.0
 40
0.022484207998149
 40
0.0455957596549781
 40
0.0680904322695681
 40
0.0912647063910144
 40
0.1133886298879596
 40
0.1360941769329331
 40
0.1593735067259523
 40
0.1832762419011152
 40
0.2074581914592256
 40
0.2323497023949242
 40
0.2563757532304806
 40
0.2810997101947807
 40
0.3051343885729953
 40
0.3298554238379593
 40
0.3540228029894148
 40
0.3789501292926445
 40
0.4020805753057405
 40
0.4259522296409068
 40
0.4480168373180474
 40
0.4706702922617785
 40
0.4938354782136319
 40
0.5175015517029485
 40
0.5510200870609291
 40
0.5855030735175419
 40
0.619734883467741
 40
0.6547332032854339
 40
0.6712354105871372
 40
0.6879167380509388
 40
0.7019341592300158
 40
0.7162886371652534
 40
0.7382894019598902
 40
0.7602515831100681
 40
0.7787025541789092
 40
0.7976287056288164
 40
0.8320431766597617
 40
0.8673633311117466
 40
0.9037780972110899
 40
0.941277345822383
 40
0.9701698489517498
 40
0.9999999999999999
 40
0.9999999999999999
 40
0.9999999999999999
 40
0.9999999999999999
 10
300.2549406558116
 20
152.0488571592484
 30
0.0
 10
300.4841440570636
 20
152.0238576760857
 30
0.0
 10
300.9489459836623
 20
151.9731611860925
 30
0.0
 10
301.4389540682747
 20
151.5403871499106
 30
0.0
 10
301.777728309842
 20
150.8263082326638
 30
0.0
 10
301.9583728798902
 20
149.8357839768546
 30
0.0
 10
302.0187886384904
 20
148.5893679031624
 30
0.0
 10
301.993069326448
 20
147.1206515104865
 30
0.0
 10
301.9157156583598
 20
145.421013685609
 30
0.0
 10
301.8234740996583
 20
143.5277582481731
 30
0.0
 10
301.7510477347065
 20
141.4783806034832
 30
0.0
 10
301.7255934413583
 20
139.366219140447
 30
0.0
 10
301.7556808835649
 20
137.2419737594164
 30
0.0
 10
301.830795483985
 20
135.2042281803213
 30
0.0
 10
301.9261962723058
 20
133.2680583851811
 30
0.0
 10
302.0030004516562
 20
131.5172830828148
 30
0.0
 10
302.0162631627063
 20
129.969089603142
 30
0.0
 10
301.9192844685414
 20
128.7187705100687
 30
0.0
 10
301.6740118955877
 20
127.7710839734401
 30
0.0
 10
301.2733815946207
 20
127.1621537052463
 30
0.0
 10
300.706364762433
 20
126.8548438691998
 30
0.0
 10
299.9883185609831
 20
126.8245639127913
 30
0.0
 10
299.1066643227854
 20
127.0549143313434
 30
0.0
 10
297.9430078931309
 20
127.5909802458189
 30
0.0
 10
296.456242433155
 20
128.524183259991
 30
0.0
 10
294.6665266786777
 20
129.9061047614275
 30
0.0
 10
292.794044926457
 20
131.604929121405
 30
0.0
 10
291.2706043468719
 20
133.2500521937685
 30
0.0
 10
290.159252865316
 20
134.7256329305372
 30
0.0
 10
289.4676334525824
 20
135.8361549863093
 30
0.0
 10
288.924600021948
 20
136.9862620402972
 30
0.0
 10
288.4984963374238
 20
138.3662715625564
 30
0.0
 10
288.3982169794263
 20
140.0812010443004
 30
0.0
 10
288.8630189314112
 20
141.8355780448289
 30
0.0
 10
289.6107418202783
 20
143.3316213506077
 30
0.0
 10
290.7115383020046
 20
144.9729038749414
 30
0.0
 10
292.2572386041562
 20
146.7531942436688
 30
0.0
 10
294.175500716698
 20
148.5753124828923
 30
0.0
 10
296.1130569457684
 20
150.1353305196161
 30
0.0
 10
297.8046749376892
 20
151.2358780302379
 30
0.0
 10
299.2215878396543
 20
151.9183092375269
 30
0.0
 10
299.9068424728858
 20
152.0048804132373
 30
0.0
 10
300.2549406558116
 20
152.0488571592484
 30
0.0
  0
SPLINE
  5
268
330
1F
100
AcDbEntity
  8
0
  6
Continuous
 62
     7
370
    15
100
AcDbSpline
210
0.0
220
0.0
230
1.0
 70
    11
 71
     3
 72
    50
 73
    46
 74
     0
 42
0.000000001
 43
0.00000001
 40
0.0
 40
0.0
 40
0.0
 40
0.0
 40
0.0241097152703439
 40
0.0489288881959725
 40
0.0730345976491642
 40
0.0978362995921656
 40
0.1219619243509581
 40
0.1467987879386555
 40
0.1707546641940288
 40
0.1953900423062813
 40
0.2195946101511498
 40
0.2445321961844902
 40
0.2681251082224697
 40
0.292487926688311
 40
0.3147391195924348
 40
0.3376295856932323
 40
0.3601234220906065
 40
0.3831347394664077
 40
0.4143165617982127
 40
0.4463977806654521
 40
0.4782491686844678
 40
0.5107200821394007
 40
0.5348819251755976
 40
0.5594095303502398
 40
0.5739461785141432
 40
0.5887410860885517
 40
0.6000213943364878
 40
0.6116044600090356
 40
0.6228977869583565
 40
0.634536487401738
 40
0.6502726770090866
 40
0.6664320090128903
 40
0.6957902313197092
 40
0.7258761789776689
 40
0.7583364416531904
 40
0.7914547545937657
 40
0.8208604955371053
 40
0.8510148358452637
 40
0.8752356484082373
 40
0.9001174731504912
 40
0.9243634220641862
 40
0.9494557541348342
 40
0.9716332079224643
 40
0.9944363750991453
 40
1.0
 40
1.0
 40
1.0
 40
1.0
 10
254.0063444942077
 20
130.6306936063681
 30
0.0
 10
254.014930129036
 20
131.1513497355993
 30
0.0
 10
254.0323540414257
 20
132.2079829330487
 30
0.0
 10
254.1272264062589
 20
134.0530609498325
 30
0.0
 10
254.2173963157017
 20
136.0494024387164
 30
0.0
 10
254.2763358880123
 20
138.1291562825073
 30
0.0
 10
254.2829552982578
 20
140.265821909805
 30
0.0
 10
254.2356160435723
 20
142.3558177088354
 30
0.0
 10
254.1496260693872
 20
144.3760576325822
 30
0.0
 10
254.0563179378601
 20
146.2427371673512
 30
0.0
 10
253.9953281376121
 20
147.9431369496837
 30
0.0
 10
254.0149080366327
 20
149.3826190367041
 30
0.0
 10
254.1602589647673
 20
150.5453187767938
 30
0.0
 10
254.4554600067801
 20
151.3668169353072
 30
0.0
 10
254.9178279264484
 20
151.8747966847119
 30
0.0
 10
255.5312937146478
 20
152.0836319478383
 30
0.0
 10
256.306962316537
 20
152.0222159700064
 30
0.0
 10
257.3285974988886
 20
151.6788428852178
 30
0.0
 10
258.64610091302
 20
150.9729846165174
 30
0.0
 10
260.2483232059828
 20
149.8625482492104
 30
0.0
 10
261.9622946752788
 20
148.4564100538593
 30
0.0
 10
263.5612478097707
 20
146.93429304783
 30
0.0
 10
264.9827312414535
 20
145.3479509286115
 30
0.0
 10
266.0090781689872
 20
143.9631329263514
 30
0.0
 10
266.7546889845005
 20
142.659062522579
 30
0.0
 10
267.2018344984373
 20
141.5950981828331
 30
0.0
 10
267.4719383317747
 20
140.5472290654917
 30
0.0
 10
267.5711200233371
 20
139.5627884507925
 30
0.0
 10
267.5072824440446
 20
138.5645141526597
 30
0.0
 10
267.2635320682719
 20
137.4776487166865
 30
0.0
 10
266.8031830186323
 20
136.325523341899
 30
0.0
 10
265.9586822234199
 20
134.8380330079386
 30
0.0
 10
264.709371802859
 20
133.2046670289979
 30
0.0
 10
263.0744679938567
 20
131.4725898064792
 30
0.0
 10
261.3475375541387
 20
129.9109563719961
 30
0.0
 10
259.6831028213516
 20
128.6202709293096
 30
0.0
 10
258.1669026542689
 20
127.6436971744279
 30
0.0
 10
256.9362079017058
 20
127.0547770797894
 30
0.0
 10
255.9397485566664
 20
126.8088936402399
 30
0.0
 10
255.1853277559782
 20
126.8800859500537
 30
0.0
 10
254.6134765744114
 20
127.2859011618246
 30
0.0
 10
254.2513059170178
 20
128.0108537644439
 30
0.0
 10
254.058883757448
 20
129.0238853477003
 30
0.0
 10
254.0093628854821
 20
129.93995093535
 30
0.0
 10
254.0068394246669
 20
130.517431422558
 30
0.0
 10
254.0063444942077
 20
130.6306936063681
 30
0.0
  0
LINE
  5
269
330
1F
100
AcDbEntity
  8
0
  6
Continuous
 62
     7
370
    15
100
AcDbLine
 10
254.0063444942
 20
118.2488577657
 30
0.0
 11
302.0063449114
 21
118.2488577657
 31
0.0
  0
LINE
  5
26A
330
1F
100
AcDbEntity
  8
0
  6
Continuous
 62
     8
370
    15
100
AcDbLine
 10
98.852812913
 20
124.9538568997
 30
0.0
 11
98.852812913
 21
139.9438571285
 31
0.0
  0
LINE
  5
26B
330
1F
100
AcDbEntity
  8
0
  6
Continuous
 62
     8
370
    15
100
AcDbLine
 10
253.3063438207
 20
128.9258918011
 30
0.0
 11
253.3063438207
 21
124.9538568997
 31
0.0
  0
LINE
  5
26C
330
1F
100
AcDbEntity
  8
0
  6
Continuous
 62
     8
370
    15
100
AcDbLine
 10
253.3063438207
 20
139.9438571285
 30
0.0
 11
253.3063438207
 21
128.9258918011
 31
0.0
  0
LINE
  5
26D
330
1F
100
AcDbEntity
  8
0
  6
Continuous
 62
     8
370
    15
100
AcDbLine
 10
223.8063436419
 20
126.7053738453
 30
0.0
 11
223.8063436419
 21
126.4988567897
 31
0.0
  0
LINE
  5
26E
330
1F
100
AcDbEntity
  8
0
  6
Continuous
 62
     8
370
    15
100
AcDbLine
 10
223.8063436419
 20
138.3988571803
 30
0.0
 11
223.8063436419
 21
126.7053738453
 31
0.0
  0
LINE
  5
26F
330
1F
100
AcDbEntity
  8
0
  6
Continuous
 62
     8
370
    15
100
AcDbLine
 10
128.3528205424
 20
138.2671680518
 30
0.0
 11
128.3528205424
 21
138.3988571803
 31
0.0
  0
LINE
  5
270
330
1F
100
AcDbEntity
  8
0
  6
Continuous
 62
     8
370
    15
100
AcDbLine
 10
128.3528205424
 20
126.4988567897
 30
0.0
 11
128.3528205424
 21
138.2671680518
 31
0.0
  0
LINE
  5
271
330
1F
100
AcDbEntity
  8
0
  6
Continuous
 62
     8
370
    15
100
AcDbLine
 10
98.852812913
 20
152.2488568195
 30
0.0
 11
98.852812913
 21
146.248857233
 31
0.0
  0
LINE
  5
272
330
1F
100
AcDbEntity
  8
0
  6
Continuous
 62
     8
370
    15
100
AcDbLine
 10
112.7444949418
 20
146.248857233
 30
0.0
 11
112.7444949418
 21
152.2488568195
 31
0.0
  0
LINE
  5
273
330
1F
100
AcDbEntity
  8
0
  6
Continuous
 62
     8
370
    15
100
AcDbLine
 10
115.3198775321
 20
151.5345715203
 30
0.0
 11
115.3198775321
 21
146.9631429979
 31
0.0
  0
LINE
  5
274
330
1F
100
AcDbEntity
  8
0
  6
Continuous
 62
     8
370
    15
100
AcDbLine
 10
128.6373582154
 20
152.0625159361
 30
0.0
 11
128.6373582154
 21
146.4351981164
 31
0.0
  0
LINE
  5
275
330
1F
100
AcDbEntity
  8
0
  6
Continuous
 62
     8
370
    15
100
AcDbLine
 10
125.8298006326
 20
147.0534151637
 30
0.0
 11
125.8298006326
 21
151.4442993545
 31
0.0
  0
LINE
  5
276
330
1F
100
AcDbEntity
  8
0
  6
Continuous
 62
     8
370
    15
100
AcDbLine
 10
135.2276053697
 20
146.9294663736
 30
0.0
 11
135.2276053697
 21
151.5682481446
 31
0.0
  0
LINE
  5
277
330
1F
100
AcDbEntity
  8
0
  6
Continuous
 62
     8
370
    15
100
AcDbLine
 10
118.1528117925
 20
147.7488570132
 30
0.0
 11
118.1528117925
 21
150.748857505
 31
0.0
  0
LINE
  5
278
330
1F
100
AcDbEntity
  8
0
  6
Continuous
 62
     8
370
    15
100
AcDbLine
 10
123.1528219253
 20
147.7488570132
 30
0.0
 11
123.1528219253
 21
150.748857505
 31
0.0
  0
LINE
  5
279
330
1F
100
AcDbEntity
  8
0
  6
Continuous
 62
     8
370
    15
100
AcDbLine
 10
253.3063438207
 20
146.248857233
 30
0.0
 11
253.3063438207
 21
152.2488568195
 31
0.0
  0
LINE
  5
27A
330
1F
100
AcDbEntity
  8
0
  6
Continuous
 62
     8
370
    15
100
AcDbLine
 10
239.4146729678
 20
152.2488568195
 30
0.0
 11
239.4146729678
 21
146.248857233
 31
0.0
  0
LINE
  5
27B
330
1F
100
AcDbEntity
  8
0
  6
Continuous
 62
     8
370
    15
100
AcDbLine
 10
236.8392792016
 20
149.7896669649
 30
0.0
 11
236.8392792016
 21
151.5345715203
 31
0.0
  0
LINE
  5
27C
330
1F
100
AcDbEntity
  8
0
  6
Continuous
 62
     8
370
    15
100
AcDbLine
 10
236.8392792016
 20
146.9631429979
 30
0.0
 11
236.8392792016
 21
149.7896669649
 31
0.0
  0
LINE
  5
27D
330
1F
100
AcDbEntity
  8
0
  6
Continuous
 62
     8
370
    15
100
AcDbLine
 10
223.521794793
 20
149.9145806053
 30
0.0
 11
223.521794793
 21
152.0625159361
 31
0.0
  0
LINE
  5
27E
330
1F
100
AcDbEntity
  8
0
  6
Continuous
 62
     8
370
    15
100
AcDbLine
 10
223.521794793
 20
146.4351981164
 30
0.0
 11
223.521794793
 21
149.9145806053
 31
0.0
  0
LINE
  5
27F
330
1F
100
AcDbEntity
  8
0
  6
Continuous
 62
     8
370
    15
100
AcDbLine
 10
226.3293635517
 20
151.4442993545
 30
0.0
 11
226.3293635517
 21
147.0534151637
 31
0.0
  0
LINE
  5
280
330
1F
100
AcDbEntity
  8
0
  6
Continuous
 62
     8
370
    15
100
AcDbLine
 10
216.9315550893
 20
151.5682481446
 30
0.0
 11
216.9315550893
 21
146.9294663736
 31
0.0
  0
LINE
  5
281
330
1F
100
AcDbEntity
  8
0
  6
Continuous
 62
     8
370
    15
100
AcDbLine
 10
234.0063449412
 20
150.748857505
 30
0.0
 11
234.0063449412
 21
147.7488570132
 31
0.0
  0
LINE
  5
282
330
1F
100
AcDbEntity
  8
0
  6
Continuous
 62
     8
370
    15
100
AcDbLine
 10
229.0063459843
 20
150.748857505
 30
0.0
 11
229.0063459843
 21
147.7488570132
 31
0.0
  0
LINE
  5
283
330
1F
100
AcDbEntity
  8
0
  6
Continuous
 62
     7
370
    15
100
AcDbLine
 10
373.3065988613
 20
201.4528571429
 30
0.0
 11
375.3065988613
 21
203.4528571429
 31
0.0
  0
LINE
  5
284
330
1F
100
AcDbEntity
  8
0
  6
Continuous
 62
     7
370
    15
100
AcDbLine
 10
375.3065988613
 20
247.4528571429
 30
0.0
 11
373.3065988613
 21
249.4528571429
 31
0.0
  0
LINE
  5
285
330
1F
100
AcDbEntity
  8
0
  6
Continuous
 62
     7
370
    15
100
AcDbLine
 10
370.0065988613
 20
249.4528571429
 30
0.0
 11
369.8065988613
 21
249.2528571429
 31
0.0
  0
LINE
  5
286
330
1F
100
AcDbEntity
  8
0
  6
Continuous
 62
     7
370
    15
100
AcDbLine
 10
369.8065988613
 20
201.6528571429
 30
0.0
 11
370.0065988613
 21
201.4528571429
 31
0.0
  0
LINE
  5
287
330
1F
100
AcDbEntity
  8
0
  6
Continuous
 62
     7
370
    15
100
AcDbLine
 10
370.0065988613
 20
201.4528571429
 30
0.0
 11
373.3065988613
 21
201.4528571429
 31
0.0
  0
LINE
  5
288
330
1F
100
AcDbEntity
  8
0
  6
Continuous
 62
     7
370
    15
100
AcDbLine
 10
373.3065988613
 20
249.4528571429
 30
0.0
 11
370.0065988613
 21
249.4528571429
 31
0.0
  0
CIRCLE
  5
289
330
1F
100
AcDbEntity
  8
0
  6
Continuous
 62
     7
370
    15
100
AcDbCircle
 10
338.5065988613
 20
220.4528571429
 30
0.0
 40
2.827662302171325
  0
LINE
  5
28A
330
1F
100
AcDbEntity
  8
0
  6
Continuous
 62
     7
370
    15
100
AcDbLine
 10
359.3065988613
 20
201.4528571429
 30
0.0
 11
369.5065988613
 21
201.4528571429
 31
0.0
  0
LINE
  5
28B
330
1F
100
AcDbEntity
  8
0
  6
Continuous
 62
     7
370
    15
100
AcDbLine
 10
369.5065988613
 20
249.4528571429
 30
0.0
 11
333.6065988613
 21
249.4528571429
 31
0.0
  0
LINE
  5
28C
330
1F
100
AcDbEntity
  8
0
  6
Continuous
 62
     7
370
    15
100
AcDbLine
 10
333.6065988613
 20
249.4528571429
 30
0.0
 11
333.3065988613
 21
249.1528571429
 31
0.0
  0
LINE
  5
28D
330
1F
100
AcDbEntity
  8
0
  6
Continuous
 62
     7
370
    15
100
AcDbLine
 10
369.5065988613
 20
201.4528571429
 30
0.0
 11
369.8065988613
 21
201.7528571429
 31
0.0
  0
LINE
  5
28E
330
1F
100
AcDbEntity
  8
0
  6
Continuous
 62
     7
370
    15
100
AcDbLine
 10
369.8065988613
 20
249.1528571429
 30
0.0
 11
369.5065988613
 21
249.4528571429
 31
0.0
  0
CIRCLE
  5
28F
330
1F
100
AcDbEntity
  8
0
  6
Continuous
 62
     7
370
    15
100
AcDbCircle
 10
355.3065988613
 20
213.0528571429
 30
0.0
 40
5.0
  0
CIRCLE
  5
290
330
1F
100
AcDbEntity
  8
0
  6
Continuous
 62
     7
370
    15
100
AcDbCircle
 10
355.3065988613
 20
213.0528571429
 30
0.0
 40
5.999999999999965
  0
CIRCLE
  5
291
330
1F
100
AcDbEntity
  8
0
  6
Continuous
 62
     7
370
    15
100
AcDbCircle
 10
355.3065988613
 20
213.0528571429
 30
0.0
 40
6.299999999999971
  0
CIRCLE
  5
292
330
1F
100
AcDbEntity
  8
0
  6
Continuous
 62
     7
370
    15
100
AcDbCircle
 10
355.3065988613
 20
213.0528571429
 30
0.0
 40
7.194999999999975
  0
CIRCLE
  5
293
330
1F
100
AcDbEntity
  8
0
  6
Continuous
 62
     7
370
    15
100
AcDbCircle
 10
355.3065988613
 20
213.0528571429
 30
0.0
 40
7.494999999999981
  0
CIRCLE
  5
294
330
1F
100
AcDbEntity
  8
0
  6
Continuous
 62
     7
370
    15
100
AcDbCircle
 10
355.3065988613
 20
213.0528571429
 30
0.0
 40
5.24999999999997
  0
CIRCLE
  5
295
330
1F
100
AcDbEntity
  8
0
  6
Continuous
 62
     7
370
    15
100
AcDbCircle
 10
355.3065988613
 20
213.0528571429
 30
0.0
 40
5.649999999999963
  0
CIRCLE
  5
296
330
1F
100
AcDbEntity
  8
0
  6
Continuous
 62
     7
370
    15
100
AcDbCircle
 10
355.3065988613
 20
213.0528571429
 30
0.0
 40
5.949999999999936
  0
LINE
  5
297
330
1F
100
AcDbEntity
  8
0
  6
Continuous
 62
     7
370
    15
100
AcDbLine
 10
375.3065988613
 20
247.4528571429
 30
0.0
 11
375.3065988613
 21
203.4528571429
 31
0.0
  0
LINE
  5
298
330
1F
100
AcDbEntity
  8
0
  6
Continuous
 62
     7
370
    15
100
AcDbLine
 10
373.3065988613
 20
201.4528571429
 30
0.0
 11
373.3065988613
 21
249.4528571429
 31
0.0
  0
LINE
  5
299
330
1F
100
AcDbEntity
  8
0
  6
Continuous
 62
     7
370
    15
100
AcDbLine
 10
370.0065988613
 20
249.4528571429
 30
0.0
 11
370.0065988613
 21
201.4528571429
 31
0.0
  0
LINE
  5
29A
330
1F
100
AcDbEntity
  8
0
  6
Continuous
 62
     7
370
    15
100
AcDbLine
 10
369.8065988613
 20
201.6528571429
 30
0.0
 11
369.8065988613
 21
249.2528571429
 31
0.0
  0
CIRCLE
  5
29B
330
1F
100
AcDbEntity
  8
0
  6
Continuous
 62
     7
370
    15
100
AcDbCircle
 10
338.5065988613
 20
220.4528571429
 30
0.0
 40
1.322191443993422
  0
CIRCLE
  5
29C
330
1F
100
AcDbEntity
  8
0
  6
Continuous
 62
     7
370
    15
100
AcDbCircle
 10
338.5065988613
 20
220.4528571429
 30
0.0
 40
2.31939075388185
  0
CIRCLE
  5
29D
330
1F
100
AcDbEntity
  8
0
  6
Continuous
 62
     7
370
    15
100
AcDbCircle
 10
338.5065988613
 20
220.4528571429
 30
0.0
 40
2.813658851613587
  0
CIRCLE
  5
29E
330
1F
100
AcDbEntity
  8
0
  6
Continuous
 62
     7
370
    15
100
AcDbCircle
 10
338.5065988613
 20
220.4528571429
 30
0.0
 40
2.999999999999993
  0
SPLINE
  5
29F
330
1F
100
AcDbEntity
  8
0
  6
Continuous
 62
     7
370
    15
100
AcDbSpline
210
0.0
220
0.0
230
1.0
 70
    11
 71
     3
 72
   116
 73
   112
 74
     0
 42
0.000000001
 43
0.00000001
 40
0.0
 40
0.0
 40
0.0
 40
0.0
 40
0.0312500000000001
 40
0.0312500000000001
 40
0.0468750000000001
 40
0.0468750000000001
 40
0.0625000000000001
 40
0.0625000000000001
 40
0.0937500000000002
 40
0.0937500000000002
 40
0.1093750000000002
 40
0.1093750000000002
 40
0.1250000000000003
 40
0.1250000000000003
 40
0.1406250000000003
 40
0.1406250000000003
 40
0.1562500000000003
 40
0.1562500000000003
 40
0.1875000000000003
 40
0.1875000000000003
 40
0.2031250000000003
 40
0.2031250000000003
 40
0.2187500000000003
 40
0.2187500000000003
 40
0.2343750000000003
 40
0.2343750000000003
 40
0.2500000000000003
 40
0.2500000000000003
 40
0.2812500000000003
 40
0.2812500000000003
 40
0.2968750000000004
 40
0.2968750000000004
 40
0.3125000000000004
 40
0.3125000000000004
 40
0.3281250000000004
 40
0.3281250000000004
 40
0.3437500000000003
 40
0.3437500000000003
 40
0.3750000000000001
 40
0.3750000000000001
 40
0.3906250000000001
 40
0.3906250000000001
 40
0.40625
 40
0.40625
 40
0.4374999999999998
 40
0.4374999999999998
 40
0.4531249999999997
 40
0.4531249999999997
 40
0.4687499999999996
 40
0.4687499999999996
 40
0.4999999999999995
 40
0.4999999999999995
 40
0.5156249999999994
 40
0.5156249999999994
 40
0.5312499999999994
 40
0.5312499999999994
 40
0.5468749999999993
 40
0.5468749999999993
 40
0.5624999999999992
 40
0.5624999999999992
 40
0.5781249999999991
 40
0.5781249999999991
 40
0.5859374999999992
 40
0.5859374999999992
 40
0.5937499999999992
 40
0.5937499999999992
 40
0.6093749999999992
 40
0.6093749999999992
 40
0.6171874999999992
 40
0.6171874999999992
 40
0.6249999999999992
 40
0.6249999999999992
 40
0.6406249999999993
 40
0.6406249999999993
 40
0.6562499999999993
 40
0.6562499999999993
 40
0.6718749999999993
 40
0.6718749999999993
 40
0.6874999999999993
 40
0.6874999999999993
 40
0.7187499999999996
 40
0.7187499999999996
 40
0.7343749999999996
 40
0.7343749999999996
 40
0.7499999999999996
 40
0.7499999999999996
 40
0.7812499999999997
 40
0.7812499999999997
 40
0.7968749999999997
 40
0.7968749999999997
 40
0.8124999999999998
 40
0.8124999999999998
 40
0.8437499999999997
 40
0.8437499999999997
 40
0.8593749999999997
 40
0.8593749999999997
 40
0.8749999999999998
 40
0.8749999999999998
 40
0.8906249999999998
 40
0.8906249999999998
 40
0.9062499999999998
 40
0.9062499999999998
 40
0.9375
 40
0.9375
 40
0.953125
 40
0.953125
 40
0.96875
 40
0.96875
 40
0.9843750000000001
 40
0.9843750000000001
 40
1.0
 40
1.0
 40
1.0
 40
1.0
 10
357.1247619353271
 20
225.4528571428572
 30
0.0
 10
356.4736901799406
 20
224.8149397082032
 30
0.0
 10
355.7665945617973
 20
224.2589342511236
 30
0.0
 10
354.6248930932699
 20
223.5422633028393
 30
0.0
 10
354.2306954475107
 20
223.3231076281429
 30
0.0
 10
353.4140655491954
 20
222.9254971391503
 30
0.0
 10
352.9954974300211
 20
222.7491490061242
 30
0.0
 10
351.7250356355008
 20
222.2920797922562
 30
0.0
 10
350.8523015654783
 20
222.0794066251268
 30
0.0
 10
349.5032759865339
 20
221.9016148198381
 30
0.0
 10
349.0482142719524
 20
221.8666224775297
 30
0.0
 10
348.1466863636402
 20
221.8458065575265
 30
0.0
 10
347.6975401101225
 20
221.8595745827408
 30
0.0
 10
346.8024430310477
 20
221.9349007026222
 30
0.0
 10
346.3564921070351
 20
221.9964571009912
 30
0.0
 10
345.4678487215904
 20
222.1684639547379
 30
0.0
 10
345.0243479312429
 20
222.2795052875304
 30
0.0
 10
343.7306004405876
 20
222.6785246904604
 30
0.0
 10
342.9059482233355
 20
223.0331622059662
 30
0.0
 10
341.7252733180778
 20
223.6987756369683
 30
0.0
 10
341.3395554328865
 20
223.9445524007961
 30
0.0
 10
340.6047510010474
 20
224.4705877504328
 30
0.0
 10
340.2537171452611
 20
224.7516910372213
 30
0.0
 10
339.5837371056012
 20
225.3493846991899
 30
0.0
 10
339.2647913577371
 20
225.6659754761411
 30
0.0
 10
338.659461476591
 20
226.3352027626253
 30
0.0
 10
338.3713428658004
 20
226.6904315373152
 30
0.0
 10
337.574859850204
 20
227.7889221410056
 30
0.0
 10
337.1314698515827
 20
228.5646663304707
 30
0.0
 10
336.5932952335615
 20
229.7884072309171
 30
0.0
 10
336.434364999356
 20
230.2093681535877
 30
0.0
 10
336.1651186481045
 20
231.0555649994996
 30
0.0
 10
336.0547109668362
 20
231.4797439624724
 30
0.0
 10
335.8792529597676
 20
232.3293617212591
 30
0.0
 10
335.8142123765707
 20
232.7548032147456
 30
0.0
 10
335.7277927768467
 20
233.6062493727868
 30
0.0
 10
335.7065370850004
 20
234.0346257133172
 30
0.0
 10
335.7067228244534
 20
235.2948910124645
 30
0.0
 10
335.7899785889887
 20
236.1059886922816
 30
0.0
 10
336.0218419363188
 20
237.2820626911024
 30
0.0
 10
336.1176551482736
 20
237.6686312348623
 30
0.0
 10
336.3394271989256
 20
238.4149720141606
 30
0.0
 10
336.4655566244967
 20
238.776298784574
 30
0.0
 10
336.8855383786527
 20
239.8277146279093
 30
0.0
 10
337.2205823430819
 20
240.485431934902
 30
0.0
 10
337.7980216485326
 20
241.4143753091154
 30
0.0
 10
338.0038246334187
 20
241.7152433325343
 30
0.0
 10
338.4349585124069
 20
242.2912324069549
 30
0.0
 10
338.6605942328506
 20
242.5670428834282
 30
0.0
 10
339.3670777391723
 20
243.3605293531318
 30
0.0
 10
339.8769732800894
 20
243.8444942892654
 30
0.0
 10
340.7060080853583
 20
244.5085211581714
 30
0.0
 10
340.9940657288443
 20
244.7200543677176
 30
0.0
 10
341.5895750422761
 20
245.1191625332966
 30
0.0
 10
341.8968541411344
 20
245.3067727480079
 30
0.0
 10
342.5336851959085
 20
245.6584708767572
 30
0.0
 10
342.8631944890067
 20
245.82257168758
 30
0.0
 10
343.5500718626558
 20
246.1266102197371
 30
0.0
 10
343.9090600173862
 20
246.2671337080418
 30
0.0
 10
344.6563797596804
 20
246.5189824178816
 30
0.0
 10
345.0427990588336
 20
246.6298585712439
 30
0.0
 10
345.6482172636604
 20
246.7709716704819
 30
0.0
 10
345.85435329594
 20
246.8137869687771
 30
0.0
 10
346.2768998434846
 20
246.8901565430979
 30
0.0
 10
346.4933054540362
 20
246.9236274356843
 30
0.0
 10
347.1462626744058
 20
247.0069878830805
 30
0.0
 10
347.590733612195
 20
247.0407457617083
 30
0.0
 10
348.2737102331428
 20
247.0548716275342
 30
0.0
 10
348.5028546628585
 20
247.0533486330646
 30
0.0
 10
348.9538318495246
 20
247.0382451620402
 30
0.0
 10
349.1771648468462
 20
247.0247094033267
 30
0.0
 10
349.8411331224285
 20
246.9669540810481
 30
0.0
 10
350.2796966271007
 20
246.9046270401449
 30
0.0
 10
351.1121076927392
 20
246.7438623322278
 30
0.0
 10
351.5093387360167
 20
246.6455763758229
 30
0.0
 10
352.2761207741349
 20
246.4179246638772
 30
0.0
 10
352.647380464385
 20
246.2876937535245
 30
0.0
 10
353.3559183297334
 20
246.0031868105586
 30
0.0
 10
353.6942771418658
 20
245.8487693332113
 30
0.0
 10
354.6726554900927
 20
245.3509712283006
 30
0.0
 10
355.2766917415211
 20
244.9733843533287
 30
0.0
 10
356.1296863364485
 20
244.3364407157604
 30
0.0
 10
356.4052523064549
 20
244.1118595222659
 30
0.0
 10
356.9331405336986
 20
243.6434661196617
 30
0.0
 10
357.1863091406278
 20
243.3990723381273
 30
0.0
 10
357.9150616000867
 20
242.6341484624764
 30
0.0
 10
358.3602875544726
 20
242.082145363709
 30
0.0
 10
358.9652875709223
 20
241.1821237273749
 30
0.0
 10
359.157025901206
 20
240.8687777567332
 30
0.0
 10
359.5134550140776
 20
240.2236611979989
 30
0.0
 10
359.6783951944023
 20
239.8917751085019
 30
0.0
 10
360.1318133857312
 20
238.8667696210281
 30
0.0
 10
360.3794407397146
 20
238.1445715690264
 30
0.0
 10
360.654070859646
 20
236.9936251087684
 30
0.0
 10
360.729363173382
 20
236.5972063450482
 30
0.0
 10
360.8412398548694
 20
235.7967625773307
 30
0.0
 10
360.878365449869
 20
235.3910232663987
 30
0.0
 10
360.9127925431918
 20
234.5684066450306
 30
0.0
 10
360.9101045737606
 20
234.151529903593
 30
0.0
 10
360.8614696378215
 20
233.3063955717625
 30
0.0
 10
360.8149279346699
 20
232.8752688285697
 30
0.0
 10
360.608487332048
 20
231.5942098331947
 30
0.0
 10
360.38345280012
 20
230.7524565302142
 30
0.0
 10
359.9065216380352
 20
229.5134611259011
 30
0.0
 10
359.722790858222
 20
229.1018704654939
 30
0.0
 10
359.3119806050399
 20
228.3011036687284
 30
0.0
 10
359.0862390618827
 20
227.9137509186745
 30
0.0
 10
358.5947969534312
 20
227.1649539408226
 30
0.0
 10
358.3290962741603
 20
226.8035089908709
 30
0.0
 10
357.7571678469412
 20
226.1072159219133
 30
0.0
 10
357.4502978130204
 20
225.7718158601842
 30
0.0
 10
357.1247619353271
 20
225.4528571428572
 30
0.0
  0
LINE
  5
2A0
330
1F
100
AcDbEntity
  8
0
  6
Continuous
 62
     7
370
    15
100
AcDbLine
 10
369.5065988613
 20
201.4528571429
 30
0.0
 11
369.5065988613
 21
249.4528571429
 31
0.0
  0
LINE
  5
2A1
330
1F
100
AcDbEntity
  8
0
  6
Continuous
 62
     7
370
    15
100
AcDbLine
 10
359.3065988613
 20
203.4528571429
 30
0.0
 11
333.6065988613
 21
203.4528571429
 31
0.0
  0
LINE
  5
2A2
330
1F
100
AcDbEntity
  8
0
  6
Continuous
 62
     7
370
    15
100
AcDbLine
 10
333.6065988613
 20
249.4528571429
 30
0.0
 11
333.6065988613
 21
203.4528571429
 31
0.0
  0
LINE
  5
2A3
330
1F
100
AcDbEntity
  8
0
  6
Continuous
 62
     7
370
    15
100
AcDbLine
 10
359.3065988613
 20
201.4528571429
 30
0.0
 11
359.3065988613
 21
203.4528571429
 31
0.0
  0
LINE
  5
2A4
330
1F
100
AcDbEntity
  8
0
  6
Continuous
 62
     7
370
    15
100
AcDbLine
 10
362.8065988613
 20
213.0528571429
 30
0.0
 11
362.7888216926
 21
213.2662270752
 31
0.0
  0
LINE
  5
2A5
330
1F
100
AcDbEntity
  8
0
  6
Continuous
 62
     7
370
    15
100
AcDbLine
 10
358.9242931086
 20
219.6043937806
 30
0.0
 11
358.3595999264
 21
219.8800856002
 31
0.0
  0
SPLINE
  5
2A6
330
1F
100
AcDbEntity
  8
0
  6
Continuous
 62
     7
370
    15
100
AcDbSpline
210
0.0
220
0.0
230
1.0
 70
     8
 71
     3
 72
    11
 73
     7
 74
     0
 42
0.000000001
 43
0.00000001
 40
0.0
 40
0.0
 40
0.0
 40
0.0
 40
0.1385265732560584
 40
0.5080954328032622
 40
0.9641718218677381
 40
1.0
 40
1.0
 40
1.0
 40
1.0
 10
361.6287381466015
 20
209.0507117013931
 30
0.0
 10
361.7038640829381
 20
209.1602936669573
 30
0.0
 10
361.979415150437
 20
209.5622244655909
 30
0.0
 10
362.3420800068845
 20
210.4256942625398
 30
0.0
 10
362.6378888689599
 20
211.2264544412067
 30
0.0
 10
362.6821894568503
 20
211.7299104058106
 30
0.0
 10
362.6854161179959
 20
211.7665799372288
 30
0.0
  0
LINE
  5
2A7
330
1F
100
AcDbEntity
  8
0
  6
Continuous
 62
     7
370
    15
100
AcDbLine
 10
362.7151553362
 20
212.0822426917
 30
0.0
 11
362.8065988613
 21
213.0528571429
 31
0.0
  0
LINE
  5
2A8
330
1F
100
AcDbEntity
  8
0
  6
Continuous
 62
     7
370
    15
100
AcDbLine
 10
333.3065988613
 20
203.4528571429
 30
0.0
 11
333.3065988613
 21
249.1528571429
 31
0.0
  0
SPLINE
  5
2A9
330
1F
100
AcDbEntity
  8
0
  6
Continuous
 62
     7
370
    15
100
AcDbSpline
210
0.0
220
0.0
230
1.0
 70
    24
 71
     3
 72
     8
 73
     4
 74
     0
 42
0.000000001
 43
0.00000001
 40
0.0
 40
0.0
 40
0.0
 40
0.0
 40
1.0
 40
1.0
 40
1.0
 40
1.0
 10
333.6065988613076
 20
203.4528571428572
 30
0.0
 10
333.5036114627221
 20
203.4528571428572
 30
0.0
 10
333.4035388474784
 20
203.4528571428572
 30
0.0
 10
333.3065988613076
 20
203.4528571428572
 30
0.0
  0
LINE
  5
2AA
330
1F
100
AcDbEntity
  8
0
  6
Continuous
 62
     7
370
    15
100
AcDbLine
 10
147.7024507654
 20
22.7835725264
 30
0.0
 11
149.4702177184
 21
23.8040826662
 31
0.0
  0
LINE
  5
2AB
330
1F
100
AcDbEntity
  8
0
  6
Continuous
 62
     7
370
    15
100
AcDbLine
 10
144.4706240552
 20
32.46457129
 30
0.0
 11
142.7028571022
 21
31.4440611502
 31
0.0
  0
SPLINE
  5
2AC
330
1F
100
AcDbEntity
  8
0
  6
Continuous
 62
     7
370
    15
100
AcDbSpline
210
0.0
220
0.0
230
1.0
 70
     8
 71
     3
 72
    13
 73
     9
 74
     0
 42
0.000000001
 43
0.00000001
 40
0.0
 40
0.0
 40
0.0
 40
0.0
 40
0.1483361441518925
 40
0.3400919651607553
 40
0.5330397804839381
 40
0.7281256605237901
 40
0.9253254854575876
 40
1.0
 40
1.0
 40
1.0
 40
1.0
 10
163.8250457109991
 20
46.50315265349523
 30
0.0
 10
163.7088426424781
 20
46.424703969048
 30
0.0
 10
163.4424225453605
 20
46.24484377778798
 30
0.0
 10
163.0986933605958
 20
45.85744429442713
 30
0.0
 10
162.7866615762148
 20
45.3688827281489
 30
0.0
 10
162.5529103784278
 20
44.79800412109047
 30
0.0
 10
162.4119259583955
 20
44.30248037224332
 30
0.0
 10
162.3772371115249
 20
43.98145035612192
 30
0.0
 10
162.3677092803766
 20
43.8932744706978
 30
0.0
  0
SPLINE
  5
2AD
330
1F
100
AcDbEntity
  8
0
  6
Continuous
 62
     7
370
    15
100
AcDbSpline
210
0.0
220
0.0
230
1.0
 70
     8
 71
     3
 72
    13
 73
     9
 74
     0
 42
0.000000001
 43
0.00000001
 40
0.0
 40
0.0
 40
0.0
 40
0.0
 40
0.0842581903830307
 40
0.2807244072937889
 40
0.4765067130798274
 40
0.6707636518497718
 40
0.8627309271740887
 40
1.0
 40
1.0
 40
1.0
 40
1.0
 10
168.317915443889
 20
33.58769116620113
 30
0.0
 10
168.4112107805169
 20
33.54701745320545
 30
0.0
 10
168.7220443975112
 20
33.41150417050563
 30
0.0
 10
169.2411282229218
 20
33.2848997545163
 30
0.0
 10
169.8639009431414
 20
33.20902313332293
 30
0.0
 10
170.4530960972861
 20
33.24715302501433
 30
0.0
 10
170.956834279827
 20
33.36291428249847
 30
0.0
 10
171.2376591365527
 20
33.50993243035098
 30
0.0
 10
171.3547439235934
 20
33.57122895777781
 30
0.0
  0
LINE
  5
2AE
330
1F
100
AcDbEntity
  8
0
  6
Continuous
 62
     7
370
    15
100
AcDbLine
 10
165.2544008882
 20
47.3436900729
 30
0.0
 11
163.941454125
 21
46.5857420398
 31
0.0
  0
LINE
  5
2AF
330
1F
100
AcDbEntity
  8
0
  6
Continuous
 62
     7
370
    15
100
AcDbLine
 10
171.4358450261
 20
33.6036695928
 30
0.0
 11
177.4173949133
 21
37.0567448419
 31
0.0
  0
SPLINE
  5
2B0
330
1F
100
AcDbEntity
  8
0
  6
Continuous
 62
     7
370
    15
100
AcDbSpline
210
0.0
220
0.0
230
1.0
 70
     8
 71
     3
 72
    18
 73
    14
 74
     0
 42
0.000000001
 43
0.00000001
 40
0.0
 40
0.0
 40
0.0
 40
0.0
 40
0.053559730310014
 40
0.1578168996403643
 40
0.2621288816841816
 40
0.3643383453629634
 40
0.46462881855188
 40
0.5638788385645764
 40
0.6627498727794294
 40
0.7615616073639884
 40
0.8604488676677198
 40
0.9594730191926508
 40
1.0
 40
1.0
 40
1.0
 40
1.0
 10
164.5128625968671
 20
45.15910493066756
 30
0.0
 10
164.5725164897341
 20
45.20672063369759
 30
0.0
 10
164.7482901982506
 20
45.34702310689712
 30
0.0
 10
165.0984357571018
 20
45.47980272519101
 30
0.0
 10
165.5567995549365
 20
45.55956298430958
 30
0.0
 10
166.0599409852586
 20
45.53587948598404
 30
0.0
 10
166.5914184954842
 20
45.41575353234793
 30
0.0
 10
167.1423579348829
 20
45.20070022004646
 30
0.0
 10
167.7034970440106
 20
44.89454125797001
 30
0.0
 10
168.2653616655009
 20
44.502023110795
 30
0.0
 10
168.8170935962595
 20
44.02876032803999
 30
0.0
 10
169.2452025721666
 20
43.59279178188013
 30
0.0
 10
169.4835187630338
 20
43.31445160425816
 30
0.0
 10
169.5527280595257
 20
43.23361895999455
 30
0.0
  0
SPLINE
  5
2B1
330
1F
100
AcDbEntity
  8
0
  6
Continuous
 62
     7
370
    15
100
AcDbSpline
210
0.0
220
0.0
230
1.0
 70
     8
 71
     3
 72
    22
 73
    18
 74
     0
 42
0.000000001
 43
0.00000001
 40
0.0
 40
0.0
 40
0.0
 40
0.0
 40
0.0376736129836065
 40
0.1097261672081627
 40
0.1818484513211943
 40
0.2539792272357115
 40
0.3260730185933007
 40
0.3980906915558775
 40
0.4699967057407645
 40
0.5417606306369303
 40
0.613367423869175
 40
0.6848398508412692
 40
0.7562669841772195
 40
0.8278183701807029
 40
0.8998998430678534
 40
0.9731359924538656
 40
1.0
 40
1.0
 40
1.0
 40
1.0
 10
169.5527280595257
 20
43.23361895999455
 30
0.0
 10
169.6396183830513
 20
43.12730915199248
 30
0.0
 10
169.8926905312442
 20
42.8176768431991
 30
0.0
 10
170.2829997424828
 20
42.26398940348607
 30
0.0
 10
170.7007577279308
 20
41.56853286893858
 30
0.0
 10
171.0624599266401
 20
40.84475898369051
 30
0.0
 10
171.3619076581637
 20
40.1073716799907
 30
0.0
 10
171.5935914834626
 20
39.3700159710744
 30
0.0
 10
171.7536512197216
 20
38.64675123211317
 30
0.0
 10
171.8397753344126
 20
37.95131210963148
 30
0.0
 10
171.8513478485011
 20
37.2969512366932
 30
0.0
 10
171.78963478776
 20
36.69577907003328
 30
0.0
 10
171.6572771063983
 20
36.15919582339925
 30
0.0
 10
171.4597626559454
 20
35.69390613618787
 30
0.0
 10
171.1974923789572
 20
35.31303860951845
 30
0.0
 10
170.9568021211495
 20
35.06177987293847
 30
0.0
 10
170.7861120135689
 20
34.9688336696203
 30
0.0
 10
170.7403036903991
 20
34.9438895777842
 30
0.0
  0
SPLINE
  5
2B2
330
1F
100
AcDbEntity
  8
0
  6
Continuous
 62
     7
370
    15
100
AcDbSpline
210
0.0
220
0.0
230
1.0
 70
     8
 71
     3
 72
    12
 73
     8
 74
     0
 42
0.000000001
 43
0.00000001
 40
0.0
 40
0.0
 40
0.0
 40
0.0
 40
0.1444225393280663
 40
0.3632318913027134
 40
0.582212744431829
 40
0.8036994208191455
 40
1.0
 40
1.0
 40
1.0
 40
1.0
 10
144.0178212471114
 20
33.27725572653584
 30
0.0
 10
143.9203405606756
 20
33.23150224475241
 30
0.0
 10
143.6751704212757
 20
33.11642932193025
 30
0.0
 10
143.3456307649679
 20
32.82443877432971
 30
0.0
 10
143.0344740730145
 20
32.42370307916777
 30
0.0
 10
142.7990112443423
 20
31.96789355125665
 30
0.0
 10
142.7050591582492
 20
31.619692869415
 30
0.0
 10
142.6609150426269
 20
31.45608808107907
 30
0.0
  0
SPLINE
  5
2B3
330
1F
100
AcDbEntity
  8
0
  6
Continuous
 62
     7
370
    15
100
AcDbSpline
210
0.0
220
0.0
230
1.0
 70
     8
 71
     3
 72
    12
 73
     8
 74
     0
 42
0.000000001
 43
0.00000001
 40
0.0
 40
0.0
 40
0.0
 40
0.0
 40
0.0783312225867323
 40
0.3539634780289192
 40
0.6271207438377675
 40
0.8960311870127302
 40
1.0
 40
1.0
 40
1.0
 40
1.0
 10
147.6917186000259
 20
22.7460062119781
 30
0.0
 10
147.7467857007336
 20
22.72687940910938
 30
0.0
 10
147.995623161044
 20
22.64044912698933
 30
0.0
 10
148.4255438502281
 20
22.58740588964064
 30
0.0
 10
148.9624655345452
 20
22.60198342691973
 30
0.0
 10
149.3690261251246
 20
22.68523256654863
 30
0.0
 10
149.5738231622955
 20
22.79417271000078
 30
0.0
 10
149.6309261105182
 20
22.82454816590023
 30
0.0
  0
LINE
  5
2B4
330
1F
100
AcDbEntity
  8
0
  6
Continuous
 62
     7
370
    15
100
AcDbLine
 10
165.060834401
 20
45.44798251
 30
0.0
 11
143.8542413009
 21
33.2056768981
 31
0.0
  0
LINE
  5
2B5
330
1F
100
AcDbEntity
  8
0
  6
Continuous
 62
     7
370
    15
100
AcDbLine
 10
149.8037577601
 20
22.8996954358
 30
0.0
 11
170.9849975504
 21
35.1273648934
 31
0.0
  0
LINE
  5
2B6
330
1F
100
AcDbEntity
  8
0
  6
Continuous
 62
     7
370
    15
100
AcDbLine
 10
197.8848673259
 20
33.3593921032
 30
0.0
 11
199.2988510388
 21
34.1759329043
 31
0.0
  0
LINE
  5
2B7
330
1F
100
AcDbEntity
  8
0
  6
Continuous
 62
     7
370
    15
100
AcDbLine
 10
214.8526718807
 20
61.1188601765
 30
0.0
 11
214.8526718807
 21
62.7516764002
 31
0.0
  0
LINE
  5
2B8
330
1F
100
AcDbEntity
  8
0
  6
Continuous
 62
     7
370
    15
100
AcDbLine
 10
183.5496319627
 20
33.5166797457
 30
0.0
 11
185.8830843406
 21
32.1696063612
 31
0.0
  0
LINE
  5
2B9
330
1F
100
AcDbEntity
  8
0
  6
Continuous
 62
     7
370
    15
100
AcDbLine
 10
209.8811339238
 20
73.7399517554
 30
0.0
 11
207.5476815459
 21
75.0870251399
 31
0.0
  0
LINE
  5
2BA
330
1F
100
AcDbEntity
  8
0
  6
Continuous
 62
     7
370
    15
100
AcDbLine
 10
195.5458985606
 20
73.8972393979
 30
0.0
 11
195.4045001893
 21
73.8155853178
 31
0.0
  0
LINE
  5
2BB
330
1F
100
AcDbEntity
  8
0
  6
Continuous
 62
     7
370
    15
100
AcDbLine
 10
178.5780940058
 20
44.6682367233
 30
0.0
 11
178.5780940058
 21
44.5049551009
 31
0.0
  0
LINE
  5
2BC
330
1F
100
AcDbEntity
  8
0
  6
Continuous
 62
     7
370
    15
100
AcDbLine
 10
133.2690436185
 20
43.2270212669
 30
0.0
 11
128.8689138554
 21
40.1169675093
 31
0.0
  0
LINE
  5
2BD
330
1F
100
AcDbEntity
  8
0
  6
Continuous
 62
     7
370
    15
100
AcDbLine
 10
131.1848519131
 20
36.1052104439
 30
0.0
 11
136.0785139956
 21
38.3603485173
 31
0.0
  0
SPLINE
  5
2BE
330
1F
100
AcDbEntity
  8
0
  6
Continuous
 62
     7
370
    15
100
AcDbSpline
210
0.0
220
0.0
230
1.0
 70
     8
 71
     3
 72
    19
 73
    15
 74
     0
 42
0.000000001
 43
0.00000001
 40
0.0
 40
0.0
 40
0.0
 40
0.0
 40
0.0266365552898554
 40
0.1052194925928046
 40
0.1823180304246962
 40
0.2614390592106458
 40
0.3454591826140351
 40
0.43542626327939
 40
0.529131422217391
 40
0.6233672191074405
 40
0.7183770854057385
 40
0.8154074354835877
 40
0.9161829218468628
 40
0.9999999999999999
 40
0.9999999999999999
 40
0.9999999999999999
 40
0.9999999999999999
 10
128.8707462679785
 20
40.10300723327241
 30
0.0
 10
128.8333297599013
 20
40.08062962183647
 30
0.0
 10
128.6855273901263
 20
39.99223377278212
 30
0.0
 10
128.4955992753393
 20
39.75382681577362
 30
0.0
 10
128.3151047453716
 20
39.41807047504589
 30
0.0
 10
128.2168643005341
 20
39.03708661724999
 30
0.0
 10
128.1948624801542
 20
38.61971718602523
 30
0.0
 10
128.255385421253
 20
38.16904987857497
 30
0.0
 10
128.4006929319351
 20
37.70385462556332
 30
0.0
 10
128.625559447252
 20
37.25036835559158
 30
0.0
 10
128.919964424373
 20
36.83207085076822
 30
0.0
 10
129.2784198895851
 20
36.46958118928369
 30
0.0
 10
129.6669921365994
 20
36.19304169614887
 30
0.0
 10
129.9500583742791
 20
36.0888946119577
 30
0.0
 10
130.0785889303623
 20
36.04160503494822
 30
0.0
  0
SPLINE
  5
2BF
330
1F
100
AcDbEntity
  8
0
  6
Continuous
 62
     7
370
    15
100
AcDbSpline
210
0.0
220
0.0
230
1.0
 70
     8
 71
     3
 72
    11
 73
     7
 74
     0
 42
0.000000001
 43
0.00000001
 40
0.0
 40
0.0
 40
0.0
 40
0.0
 40
0.2799743699423322
 40
0.6177968675408338
 40
0.9475122711983274
 40
1.0
 40
1.0
 40
1.0
 40
1.0
 10
130.0785889303623
 20
36.04160503494822
 30
0.0
 10
130.1822869682117
 20
36.01622970539218
 30
0.0
 10
130.4111090670585
 20
35.9602360116988
 30
0.0
 10
130.7714348243329
 20
35.9752362710242
 30
0.0
 10
131.0492035041565
 20
36.02811821903935
 30
0.0
 10
131.1732992719269
 20
36.10518492090342
 30
0.0
 10
131.1903412698882
 20
36.11576844522217
 30
0.0
  0
SPLINE
  5
2C0
330
1F
100
AcDbEntity
  8
0
  6
Continuous
 62
     7
370
    15
100
AcDbSpline
210
0.0
220
0.0
230
1.0
 70
     8
 71
     3
 72
    13
 73
     9
 74
     0
 42
0.000000001
 43
0.00000001
 40
0.0
 40
0.0
 40
0.0
 40
0.0
 40
0.1066905489260486
 40
0.3089131835214452
 40
0.5148935861923513
 40
0.723084629660887
 40
0.949039331501766
 40
1.0
 40
1.0
 40
1.0
 40
1.0
 10
136.1760126048451
 20
43.96654308491151
 30
0.0
 10
136.0692154661076
 20
43.98125476419975
 30
0.0
 10
135.7599936610794
 20
44.02385114906821
 30
0.0
 10
135.2307280129586
 20
43.99213493714801
 30
0.0
 10
134.6066558968714
 20
43.87747528187297
 30
0.0
 10
133.9869310165833
 20
43.65010541942736
 30
0.0
 10
133.5337915007809
 20
43.42591737388636
 30
0.0
 10
133.3104681182782
 20
43.24827468439636
 30
0.0
 10
133.2693699703145
 20
43.21558314329791
 30
0.0
  0
SPLINE
  5
2C1
330
1F
100
AcDbEntity
  8
0
  6
Continuous
 62
     7
370
    15
100
AcDbSpline
210
0.0
220
0.0
230
1.0
 70
     8
 71
     3
 72
    13
 73
     9
 74
     0
 42
0.000000001
 43
0.00000001
 40
0.0
 40
0.0
 40
0.0
 40
0.0
 40
0.0623326815635639
 40
0.2862525819094419
 40
0.5013277410246993
 40
0.7075684054521796
 40
0.9047476024890344
 40
1.0
 40
1.0
 40
1.0
 40
1.0
 10
136.0724455561844
 20
38.37052851669829
 30
0.0
 10
136.1320414293025
 20
38.39410544311587
 30
0.0
 10
136.4057256688266
 20
38.50237859760283
 30
0.0
 10
136.8371714070295
 20
38.7945341552433
 30
0.0
 10
137.3427217774529
 20
39.22475077707239
 30
0.0
 10
137.7483570871297
 20
39.71315024617213
 30
0.0
 10
138.0261575303843
 20
40.14305217549398
 30
0.0
 10
138.1365798755205
 20
40.41621058582567
 30
0.0
 10
138.172547237834
 20
40.50518521773783
 30
0.0
  0
SPLINE
  5
2C2
330
1F
100
AcDbEntity
  8
0
  6
Continuous
 62
     7
370
    15
100
AcDbSpline
210
0.0
220
0.0
230
1.0
 70
     8
 71
     3
 72
    12
 73
     8
 74
     0
 42
0.000000001
 43
0.00000001
 40
0.0
 40
0.0
 40
0.0
 40
0.0
 40
0.1164991037968785
 40
0.3646067656140022
 40
0.6399904009492609
 40
0.9330122300842675
 40
0.9999999999999999
 40
0.9999999999999999
 40
0.9999999999999999
 40
0.9999999999999999
 10
138.1863801128856
 20
40.49823928324753
 30
0.0
 10
138.2051318370489
 20
40.54324094801269
 30
0.0
 10
138.2638190309758
 20
40.68408247299026
 30
0.0
 10
138.4623280798634
 20
40.99527987170232
 30
0.0
 10
138.8017204128461
 20
41.36664635191457
 30
0.0
 10
139.1267555385518
 20
41.64269420487608
 30
0.0
 10
139.3400723206118
 20
41.74785213915231
 30
0.0
 10
139.3797646386874
 20
41.76741910493512
 30
0.0
  0
SPLINE
  5
2C3
330
1F
100
AcDbEntity
  8
0
  6
Continuous
 62
     7
370
    15
100
AcDbSpline
210
0.0
220
0.0
230
1.0
 70
     8
 71
     3
 72
    11
 73
     7
 74
     0
 42
0.000000001
 43
0.00000001
 40
0.0
 40
0.0
 40
0.0
 40
0.0
 40
0.2170336811930142
 40
0.5020535632753798
 40
0.7654963835685903
 40
1.0
 40
1.0
 40
1.0
 40
1.0
 10
137.8725001859377
 20
44.38452533182326
 30
0.0
 10
137.7470120822079
 20
44.31370492021256
 30
0.0
 10
137.4567264948284
 20
44.14987947244641
 30
0.0
 10
136.9808328880169
 20
44.01480390047119
 30
0.0
 10
136.5137884040221
 20
43.95472415032695
 30
0.0
 10
136.278131849231
 20
43.97135047681975
 30
0.0
 10
136.1671514098533
 20
43.97918050310968
 30
0.0
  0
LINE
  5
2C4
330
1F
100
AcDbEntity
  8
0
  6
Continuous
 62
     7
370
    15
100
AcDbLine
 10
141.4121557252
 20
46.415670978
 30
0.0
 11
137.8766218193
 21
44.3746506985
 31
0.0
  0
LINE
  5
2C5
330
1F
100
AcDbEntity
  8
0
  6
Continuous
 62
     7
370
    15
100
AcDbLine
 10
139.3764999182
 20
41.7765041114
 30
0.0
 11
142.9120338242
 21
43.8175243909
 31
0.0
  0
SPLINE
  5
2C6
330
1F
100
AcDbEntity
  8
0
  6
Continuous
 62
     7
370
    15
100
AcDbSpline
210
0.0
220
0.0
230
1.0
 70
     8
 71
     3
 72
    12
 73
     8
 74
     0
 42
0.000000001
 43
0.00000001
 40
0.0
 40
0.0
 40
0.0
 40
0.0
 40
0.2127864940709226
 40
0.4773651808190547
 40
0.7216250557585471
 40
0.9404821080273617
 40
1.0
 40
1.0
 40
1.0
 40
1.0
 10
142.9152985446201
 20
43.80843938449189
 30
0.0
 10
143.0477822846585
 20
43.88216681853843
 30
0.0
 10
143.3449962821688
 20
44.04756693022608
 30
0.0
 10
143.8306906981852
 20
44.18231087414998
 30
0.0
 10
144.2811344394341
 20
44.23530437025757
 30
0.0
 10
144.5802566878526
 20
44.22370748760628
 30
0.0
 10
144.6810208265799
 20
44.2037168432867
 30
0.0
 10
144.7025646804632
 20
44.19944274810074
 30
0.0
  0
SPLINE
  5
2C7
330
1F
100
AcDbEntity
  8
0
  6
Continuous
 62
     7
370
    15
100
AcDbSpline
210
0.0
220
0.0
230
1.0
 70
     8
 71
     3
 72
    12
 73
     8
 74
     0
 42
0.000000001
 43
0.00000001
 40
0.0
 40
0.0
 40
0.0
 40
0.0
 40
0.1619538057477587
 40
0.3937848964527218
 40
0.6513888624091745
 40
0.9260568776491835
 40
1.0
 40
1.0
 40
1.0
 40
1.0
 10
142.6360956888251
 20
47.77070482049287
 30
0.0
 10
142.6097826509747
 20
47.70527147341497
 30
0.0
 10
142.5458034388937
 20
47.54617262615628
 30
0.0
 10
142.338250520658
 20
47.2123370872313
 30
0.0
 10
142.0023143962971
 20
46.83972276720225
 30
0.0
 10
141.6742977470695
 20
46.55852227333753
 30
0.0
 10
141.4546277909535
 20
46.44881530835642
 30
0.0
 10
141.4080340918705
 20
46.42554561138003
 30
0.0
  0
SPLINE
  5
2C8
330
1F
100
AcDbEntity
  8
0
  6
Continuous
 62
     7
370
    15
100
AcDbSpline
210
0.0
220
0.0
230
1.0
 70
     8
 71
     3
 72
    12
 73
     8
 74
     0
 42
0.000000001
 43
0.00000001
 40
0.0
 40
0.0
 40
0.0
 40
0.0
 40
0.2176538934804191
 40
0.4454647161826582
 40
0.6641297686300054
 40
0.873388300535614
 40
1.0
 40
1.0
 40
1.0
 40
1.0
 10
144.4847061030545
 20
49.91666700037348
 30
0.0
 10
144.3054824461161
 20
49.80455259640717
 30
0.0
 10
143.9386715694777
 20
49.57509191300647
 30
0.0
 10
143.4681138114915
 20
49.13036624714731
 30
0.0
 10
143.0749210371704
 20
48.63354625889806
 30
0.0
 10
142.7989334932639
 20
48.17297687734584
 30
0.0
 10
142.6878680372659
 20
47.8730620677791
 30
0.0
 10
142.6460001227493
 20
47.76000434432772
 30
0.0
  0
SPLINE
  5
2C9
330
1F
100
AcDbEntity
  8
0
  6
Continuous
 62
     7
370
    15
100
AcDbSpline
210
0.0
220
0.0
230
1.0
 70
     8
 71
     3
 72
    13
 73
     9
 74
     0
 42
0.000000001
 43
0.00000001
 40
0.0
 40
0.0
 40
0.0
 40
0.0
 40
0.0292551557569632
 40
0.2429972344882042
 40
0.4617476984925239
 40
0.6836799044388026
 40
0.9314670105224808
 40
0.9999999999999999
 40
0.9999999999999999
 40
0.9999999999999999
 40
0.9999999999999999
 10
144.7053785788057
 20
44.20735614273734
 30
0.0
 10
144.7323650540646
 20
44.2012781006569
 30
0.0
 10
144.9565183250639
 20
44.1507930706362
 30
0.0
 10
145.4033748864534
 20
44.14028750990425
 30
0.0
 10
146.0317089565315
 20
44.18679556250794
 30
0.0
 10
146.6775059137081
 20
44.3504340217147
 30
0.0
 10
147.1700939950267
 20
44.53502449576821
 30
0.0
 10
147.4272790376395
 20
44.70140075918832
 30
0.0
 10
147.48299999899
 20
44.73744735524807
 30
0.0
  0
LINE
  5
2CA
330
1F
100
AcDbEntity
  8
0
  6
Continuous
 62
     7
370
    15
100
AcDbLine
 10
155.6827881538
 20
49.4579200478
 30
0.0
 11
157.3091337506
 21
50.3967893764
 31
0.0
  0
LINE
  5
2CB
330
1F
100
AcDbEntity
  8
0
  6
Continuous
 62
     7
370
    15
100
AcDbLine
 10
147.4862375089
 20
44.726152079
 30
0.0
 11
153.2079144197
 21
48.0292058521
 31
0.0
  0
LINE
  5
2CC
330
1F
100
AcDbEntity
  8
0
  6
Continuous
 62
     7
370
    15
100
AcDbLine
 10
150.2081582218
 20
53.2254990264
 30
0.0
 11
144.4864813109
 21
49.9224452533
 31
0.0
  0
LINE
  5
2CD
330
1F
100
AcDbEntity
  8
0
  6
Continuous
 62
     7
370
    15
100
AcDbLine
 10
154.3093775527
 20
55.5930825507
 30
0.0
 11
152.6830319559
 21
54.6542132221
 31
0.0
  0
LINE
  5
2CE
330
1F
100
AcDbEntity
  8
0
  6
Continuous
 62
     7
370
    15
100
AcDbLine
 10
155.4635243574
 20
55.9706900038
 30
0.0
 11
155.0338950488
 21
55.7226702831
 31
0.0
  0
LINE
  5
2CF
330
1F
100
AcDbEntity
  8
0
  6
Continuous
 62
     7
370
    15
100
AcDbLine
 10
157.7836715635
 20
50.95940154
 30
0.0
 11
158.6966696908
 21
51.4864641401
 31
0.0
  0
LINE
  5
2D0
330
1F
100
AcDbEntity
  8
0
  6
Continuous
 62
     7
370
    15
100
AcDbLine
 10
177.354708283
 20
37.0929330633
 30
0.0
 11
183.1960785721
 21
33.7207817736
 31
0.0
  0
LINE
  5
2D1
330
1F
100
AcDbEntity
  8
0
  6
Continuous
 62
     7
370
    15
100
AcDbLine
 10
157.8109451275
 20
48.3753073808
 30
0.0
 11
162.8642720726
 21
45.4580838303
 31
0.0
  0
LINE
  5
2D2
330
1F
100
AcDbEntity
  8
0
  6
Continuous
 62
     7
370
    15
100
AcDbLine
 10
185.308995709
 20
87.9251452065
 30
0.0
 11
181.8089947107
 21
89.9456527751
 31
0.0
  0
LINE
  5
2D3
330
1F
100
AcDbEntity
  8
0
  6
Continuous
 62
     7
370
    15
100
AcDbLine
 10
207.1941281553
 20
75.2911271679
 30
0.0
 11
199.0947263451
 21
79.9668123082
 31
0.0
  0
LINE
  5
2D4
330
1F
100
AcDbEntity
  8
0
  6
Continuous
 62
     7
370
    15
100
AcDbLine
 10
169.8072117254
 20
88.7558670331
 30
0.0
 11
169.5951141684
 21
88.6333859129
 31
0.0
  0
LINE
  5
2D5
330
1F
100
AcDbEntity
  8
0
  6
Continuous
 62
     7
370
    15
100
AcDbLine
 10
152.8394071706
 20
59.6085051696
 30
0.0
 11
152.8394071706
 21
59.3635827361
 31
0.0
  0
LWPOLYLINE
  5
2D6
330
1F
100
AcDbEntity
  8
0
  6
Continuous
 62
     7
370
    15
100
AcDbPolyline
 90
       41
 70
   128
 43
0.0
 10
148.7381878397
 20
25.0727965588
 10
148.6946595505
 20
24.4592492798
 10
148.5651464936
 20
23.9110662642
 10
148.3528377105
 20
23.441745597
 10
148.0629609479
 20
23.0628435107
 10
147.7026539338
 20
22.7836898321
 10
147.2807886227
 20
22.6111582513
 10
146.8077527386
 20
22.5494970683
 10
146.2951939949
 20
22.6002245862
 10
145.755733289
 20
22.7620917252
 10
145.2026539338
 20
23.0311127789
 10
144.6495745786
 20
23.4006635563
 10
144.1101138727
 20
23.8616444907
 10
143.597555129
 20
24.4027047017
 10
143.1245192449
 20
25.0105214912
 10
142.7026539338
 20
25.6701283925
 10
142.3423469197
 20
26.3652836947
 10
142.0524701571
 20
27.0788703672
 10
141.840161374
 20
27.7933175377
 10
141.7106483171
 20
28.4910331459
 10
141.6671200279
 20
29.1548371179
 10
141.7106483171
 20
29.7683843968
 10
141.840161374
 20
30.3165674125
 10
142.0524701571
 20
30.7858880796
 10
142.3423469197
 20
31.164790166
 10
142.7026539338
 20
31.4439438445
 10
143.1245192449
 20
31.6164754254
 10
143.597555129
 20
31.6781366083
 10
144.1101138727
 20
31.6274090904
 10
144.6495745786
 20
31.4655419515
 10
145.2026539338
 20
31.1965208977
 10
145.755733289
 20
30.8269701204
 10
146.2951939949
 20
30.3659891859
 10
146.8077527386
 20
29.8249289749
 10
147.2807886227
 20
29.2171121854
 10
147.7026539338
 20
28.5575052841
 10
148.0629609479
 20
27.8623499819
 10
148.3528377105
 20
27.1487633095
 10
148.5651464936
 20
26.4343161389
 10
148.6946595505
 20
25.7366005307
 10
148.7381878397
 20
25.0727965588
  0
LWPOLYLINE
  5
2D7
330
1F
100
AcDbEntity
  8
0
  6
Continuous
 62
     7
370
    15
100
AcDbPolyline
 90
        4
 70
   128
 43
0.0
 10
150.0908395526
 20
24.4134731459
 10
149.8307279009
 20
24.0833536505
 10
149.4704208868
 20
23.8041999719
 10
149.4702177184
 20
23.8040826662
  0
LWPOLYLINE
  5
2D8
330
1F
100
AcDbEntity
  8
0
  6
Continuous
 62
     7
370
    15
100
AcDbPolyline
 90
        3
 70
   128
 43
0.0
 10
144.4706240552
 20
32.46457129
 10
144.8922861979
 20
32.6369855651
 10
145.3087044492
 20
32.6972716819
  0
LINE
  5
2D9
330
1F
100
AcDbEntity
  8
0
  6
Continuous
 62
     7
370
    15
100
AcDbLine
 10
171.4358450261
 20
33.6036695928
 30
0.0
 11
171.3657805901
 21
33.5647070652
 31
0.0
  0
LWPOLYLINE
  5
2DA
330
1F
100
AcDbEntity
  8
0
  6
Continuous
 62
     7
370
    15
100
AcDbPolyline
 90
        3
 70
   128
 43
0.0
 10
163.8290946714
 20
46.5168669694
 10
163.9129777451
 20
46.569051243
 10
163.941454125
 20
46.5857420398
  0
LWPOLYLINE
  5
2DB
330
1F
100
AcDbEntity
  8
0
  6
Continuous
 62
     7
370
    15
100
AcDbPolyline
 90
        3
 70
   128
 43
0.0
 10
164.6888933776
 20
45.2909989906
 10
164.6574333092
 20
45.2724525453
 10
164.4860166229
 20
45.1568482179
  0
LWPOLYLINE
  5
2DC
330
1F
100
AcDbEntity
  8
0
  6
Continuous
 62
     7
370
    15
100
AcDbPolyline
 90
        3
 70
   128
 43
0.0
 10
170.6884057734
 20
34.898412642
 10
170.7198658419
 20
34.9169590873
 10
170.7530299404
 20
34.9373622985
  0
LINE
  5
2DD
330
1F
100
AcDbEntity
  8
0
  6
Continuous
 62
     7
370
    15
100
AcDbLine
 10
149.8037577601
 20
22.8996954358
 30
0.0
 11
149.6524715425
 21
22.8208217295
 31
0.0
  0
LINE
  5
2DE
330
1F
100
AcDbEntity
  8
0
  6
Continuous
 62
     7
370
    15
100
AcDbLine
 10
143.8542413009
 20
33.2056768981
 30
0.0
 11
143.9974099445
 21
33.2807293208
 31
0.0
  0
LWPOLYLINE
  5
2DF
330
1F
100
AcDbEntity
  8
0
  6
Continuous
 62
     7
370
    15
100
AcDbPolyline
 90
       17
 70
   128
 43
0.0
 10
150.2003288694
 20
26.9811535947
 10
150.0103289514
 20
27.7093869846
 10
149.7407891731
 20
28.4427966293
 10
149.3980273185
 20
29.1641920283
 10
148.9900774347
 20
29.8566642848
 10
148.5265015215
 20
30.503982436
 10
148.0181654052
 20
31.0909738933
 10
147.4769840537
 20
31.6038800742
 10
146.915642299
 20
32.0306788927
 10
146.3472975162
 20
32.3613665461
 10
145.7852712252
 20
32.5881919962
 10
145.242736846
 20
32.7058386466
 10
144.7324109246
 20
32.7115489596
 10
144.266255068
 20
32.6051890903
 10
143.8551955745
 20
32.3892520239
 10
143.5088673301
 20
32.0687991421
 10
143.3166150946
 20
31.7983760974
  0
LWPOLYLINE
  5
2E0
330
1F
100
AcDbEntity
  8
0
  6
Continuous
 62
     7
370
    15
100
AcDbPolyline
 90
       10
 70
   128
 43
0.0
 10
148.3162087577
 20
23.1378874736
 10
148.7406335479
 20
23.1881667337
 10
149.1805319724
 20
23.3497894347
 10
149.5603402744
 20
23.618773662
 10
149.8711560693
 20
23.9888146533
 10
150.1056940982
 20
24.4512389613
 10
150.2584569886
 20
24.9952077523
 10
150.3258641077
 20
25.6079708588
 10
150.3063354899
 20
26.2751656329
 10
150.2003288694
 20
26.9811535947
  0
LWPOLYLINE
  5
2E1
330
1F
100
AcDbEntity
  8
0
  6
Continuous
 62
     7
370
    15
100
AcDbPolyline
 90
        3
 70
   128
 43
0.0
 10
144.1748152097
 20
32.5687123493
 10
143.8624207207
 20
32.2729011701
 10
143.6701684852
 20
32.0024781254
  0
LWPOLYLINE
  5
2E2
330
1F
100
AcDbEntity
  8
0
  6
Continuous
 62
     7
370
    15
100
AcDbPolyline
 90
        3
 70
   128
 43
0.0
 10
148.6697621483
 20
23.3419895016
 10
149.0941869385
 20
23.3922687617
 10
149.4124731733
 20
23.4958395789
  0
LWPOLYLINE
  5
2E3
330
1F
100
AcDbEntity
  8
0
  6
Continuous
 62
     7
370
    15
100
AcDbPolyline
 90
       85
 70
   128
 43
0.0
 10
204.4050523137
 20
72.0551654585
 10
203.2927157075
 20
71.8064430393
 10
202.1580296505
 20
71.4477287829
 10
201.0073397675
 20
70.9810287649
 10
199.8470811828
 20
70.408952961
 10
198.6837425333
 20
69.7347006513
 10
197.5238296806
 20
68.9620425282
 10
196.3738293278
 20
68.0952996092
 10
195.2401727433
 20
67.1393190724
 10
194.1291997948
 20
66.0994471488
 10
193.0471234934
 20
64.9814992239
 10
191.9999952489
 20
63.791727316
 10
190.9936710271
 20
62.5367851123
 10
190.0337786014
 20
61.2236907586
 10
189.1256860794
 20
59.8597876111
 10
188.274471883
 20
58.4527031695
 10
187.4848963472
 20
57.0103064208
 10
186.7613750987
 20
55.5406638327
 10
186.1079543618
 20
54.0519942427
 10
185.5282883303
 20
52.552622895
 10
185.0256187318
 20
51.0509348823
 10
184.6027566986
 20
49.5553282532
 10
184.2620670467
 20
48.0741670467
 10
184.0054550508
 20
46.6157345169
 10
183.8343557894
 20
45.1881868102
 10
183.7497261189
 20
43.7995073525
 10
183.7520393227
 20
42.4574622026
 10
183.8412824644
 20
41.1695566213
 10
184.0169564603
 20
39.9429930991
 10
184.27807887
 20
38.7846310767
 10
184.6231893912
 20
37.7009485844
 10
185.0503580258
 20
36.6980060143
 10
185.5571958735
 20
35.7814122281
 10
186.1408684915
 20
34.9562931901
 10
186.7981117457
 20
34.2272633006
 10
187.5252500654
 20
33.5983995905
 10
188.3182169979
 20
33.0732189207
 10
189.1725779507
 20
32.6546583146
 10
190.0835549906
 20
32.3450585328
 10
191.0460535645
 20
32.146150983
 10
192.0546909901
 20
32.0590480368
 10
193.1038265576
 20
32.0842368092
 10
194.1875930755
 20
32.2215764345
 10
195.2999296816
 20
32.4702988536
 10
196.4346157386
 20
32.82901311
 10
197.5853056217
 20
33.2957131281
 10
198.7455642063
 20
33.8677889319
 10
199.9089028558
 20
34.5420412416
 10
201.0688157086
 20
35.3146993648
 10
202.2188160614
 20
36.1814422837
 10
203.3524726458
 20
37.1374228205
 10
204.4634455944
 20
38.1772947441
 10
205.5455218957
 20
39.295242669
 10
206.5926501402
 20
40.4850145769
 10
207.598974362
 20
41.7399567806
 10
208.5588667878
 20
43.0530511344
 10
209.4669593097
 20
44.4169542819
 10
210.3181735062
 20
45.8240387234
 10
211.107749042
 20
47.2664354721
 10
211.8312702905
 20
48.7360780602
 10
212.4846910274
 20
50.2247476502
 10
213.0643570589
 20
51.724118998
 10
213.5670266574
 20
53.2258070106
 10
213.9898886906
 20
54.7214136397
 10
214.3305783425
 20
56.2025748463
 10
214.5871903383
 20
57.661007376
 10
214.7582895997
 20
59.0885550827
 10
214.8429192703
 20
60.4772345404
 10
214.8406060665
 20
61.8192796903
 10
214.7513629247
 20
63.1071852716
 10
214.5756889289
 20
64.3337487939
 10
214.3145665191
 20
65.4921108163
 10
213.9694559979
 20
66.5757933086
 10
213.5422873634
 20
67.5787358786
 10
213.0354495157
 20
68.4953296648
 10
212.4517768977
 20
69.3204487028
 10
211.7945336434
 20
70.0494785923
 10
211.0673953238
 20
70.6783423024
 10
210.2744283912
 20
71.2035229722
 10
209.4200674385
 20
71.6220835784
 10
208.5090903986
 20
71.9316833601
 10
207.5465918246
 20
72.13059091
 10
206.5379543991
 20
72.2176938562
 10
205.4888188315
 20
72.1925050837
 10
204.4050523137
 20
72.0551654585
  0
LWPOLYLINE
  5
2E4
330
1F
100
AcDbEntity
  8
0
  6
Continuous
 62
     7
370
    15
100
AcDbPolyline
 90
       19
 70
   128
 43
0.0
 10
203.4552687167
 20
74.6821912532
 10
204.5845893046
 20
74.8278564672
 10
205.6797555898
 20
74.8620614925
 10
206.7351868561
 20
74.7846320281
 10
207.7455048676
 20
74.5959626368
 10
208.7055612754
 20
74.2970147346
 10
209.6104638519
 20
73.8893116914
 10
210.4556014212
 20
73.3749310686
 10
211.236667356
 20
72.7564940319
 10
211.9496815231
 20
72.0371519946
 10
212.5910105659
 20
71.2205705589
 10
213.1573864186
 20
70.3109108366
 10
213.6459229596
 20
69.3128082451
 10
214.0541307188
 20
68.2313488865
 10
214.3799295629
 20
67.0720436298
 10
214.6216592957
 20
65.8408000288
 10
214.778088118
 20
64.5438922186
 10
214.8484189042
 20
63.1879289443
 10
214.8526718807
 20
62.7516764002
  0
LWPOLYLINE
  5
2E5
330
1F
100
AcDbEntity
  8
0
  6
Continuous
 62
     7
370
    15
100
AcDbPolyline
 90
       51
 70
   128
 43
0.0
 10
197.8848673259
 20
33.3593921032
 10
197.0506899433
 20
32.901363965
 10
195.843596013
 20
32.3228865642
 10
194.6468898783
 20
31.8495445582
 10
193.4666696794
 20
31.4837499895
 10
192.3089495477
 20
31.2273668634
 10
191.1796289599
 20
31.0817016494
 10
190.0844626746
 20
31.0474966241
 10
189.0290314083
 20
31.1249260885
 10
188.0187133968
 20
31.3135954798
 10
187.058656989
 20
31.612543382
 10
186.1537544125
 20
32.0202464252
 10
185.3086168432
 20
32.534627048
 10
184.5275509085
 20
33.1530640847
 10
183.8145367413
 20
33.872406122
 10
183.1732076985
 20
34.6889875577
 10
182.6068318458
 20
35.59864728
 10
182.1182953048
 20
36.5967498715
 10
181.7100875456
 20
37.6782092301
 10
181.3842887015
 20
38.8375144868
 10
181.1425589687
 20
40.0687580878
 10
180.9861301464
 20
41.365665898
 10
180.9157993602
 20
42.7216291723
 10
180.9319249995
 20
44.1297382328
 10
181.0344248918
 20
45.5828176785
 10
181.2227767212
 20
47.0734629496
 10
181.4960206899
 20
48.5940780595
 10
181.8527644093
 20
50.136914302
 10
182.2911899951
 20
51.6941097375
 10
182.8090633311
 20
53.2577292548
 10
183.4037454534
 20
54.8198050074
 10
184.0722059983
 20
56.3723770153
 10
184.8110386441
 20
57.9075337273
 10
185.6164784689
 20
59.4174523369
 10
186.4844211361
 20
60.8944386448
 10
187.4104438086
 20
62.3309662673
 10
188.3898276874
 20
63.7197149891
 10
189.4175820566
 20
65.0536080649
 10
190.4884697155
 20
66.3258482813
 10
191.5970336661
 20
67.529952594
 10
192.7376249206
 20
68.6597851632
 10
193.9044312874
 20
69.7095886213
 10
195.0915069888
 20
70.6740134103
 10
196.292802959
 20
71.5481450427
 10
197.5021976692
 20
72.327529144
 10
198.7135283211
 20
73.0081941515
 10
199.9206222514
 20
73.5866715524
 10
201.1173283861
 20
74.0600135584
 10
202.2975485851
 20
74.4258081271
 10
203.4552687167
 20
74.6821912532
 10
203.4552687167
 20
74.6821912532
  0
LWPOLYLINE
  5
2E6
330
1F
100
AcDbEntity
  8
0
  6
Continuous
 62
     7
370
    15
100
AcDbPolyline
 90
       39
 70
   128
 43
0.0
 10
201.1218163388
 20
76.0292646377
 10
199.9640962071
 20
75.7728815116
 10
198.7838760082
 20
75.4070869429
 10
197.5871698734
 20
74.9337449369
 10
196.3800759431
 20
74.355267536
 10
195.1687452912
 20
73.6746025285
 10
193.9593505811
 20
72.8952184272
 10
192.7580546108
 20
72.0210867948
 10
191.5709789095
 20
71.0566620058
 10
190.4041725427
 20
70.0068585477
 10
189.2635812882
 20
68.8770259785
 10
188.1550173376
 20
67.6729216659
 10
187.0841296787
 20
66.4006814494
 10
186.0563753095
 20
65.0667883736
 10
185.0769914307
 20
63.6780396518
 10
184.1509687581
 20
62.2415120293
 10
183.283026091
 20
60.7645257214
 10
182.4775862662
 20
59.2546071118
 10
181.7387536204
 20
57.7194503998
 10
181.0702930755
 20
56.1668783919
 10
180.4756109532
 20
54.6048026394
 10
179.9577376172
 20
53.041183122
 10
179.5193120314
 20
51.4839876865
 10
179.162568312
 20
49.941151444
 10
178.8893243433
 20
48.4205363341
 10
178.7009725139
 20
46.929891063
 10
178.5984726216
 20
45.4768116173
 10
178.5823469823
 20
44.0687025568
 10
178.6526777685
 20
42.7127392825
 10
178.8091065908
 20
41.4158314723
 10
179.0508363236
 20
40.1845878713
 10
179.3766351677
 20
39.0252826146
 10
179.7848429269
 20
37.943823256
 10
180.2733794679
 20
36.9457206645
 10
180.8397553206
 20
36.0360609422
 10
181.4810843634
 20
35.2194795065
 10
182.1940985305
 20
34.5001374692
 10
182.9751644652
 20
33.8817004325
 10
183.5496319627
 20
33.5166797457
  0
ARC
  5
2E7
330
1F
100
AcDbEntity
  8
0
  6
Continuous
 62
     7
370
    15
100
AcDbCircle
 10
203.0440417687
 20
66.7558071192
 30
0.0
 40
9.470584192762333
100
AcDbArc
 50
61.6054973877
 51
101.7105728659
  0
LWPOLYLINE
  5
2E8
330
1F
100
AcDbEntity
  8
0
  6
Continuous
 62
     7
370
    15
100
AcDbPolyline
 90
       21
 70
   128
 43
0.0
 10
202.094513236
 20
63.047342486
 10
201.8114322899
 20
62.9425742216
 10
201.5265112126
 20
62.7328580868
 10
201.2676400643
 20
62.4387225579
 10
201.0601589566
 20
62.0889596698
 10
200.924377586
 20
61.7178066511
 10
200.873587179
 20
61.3615945452
 10
200.9127594546
 20
61.0551918748
 10
201.0380599575
 20
60.8285914682
 10
201.2372234015
 20
60.703974552
 10
201.490754281
 20
60.6935394982
 10
201.773835227
 20
60.7983077626
 10
202.0587563043
 20
61.0080238975
 10
202.3176274526
 20
61.3021594264
 10
202.5251085603
 20
61.6519223144
 10
202.6608899309
 20
62.0230753331
 10
202.7116803379
 20
62.379287439
 10
202.6725080623
 20
62.6856901094
 10
202.5472075594
 20
62.912290516
 10
202.3480441154
 20
63.0369074322
 10
202.094513236
 20
63.047342486
  0
LWPOLYLINE
  5
2E9
330
1F
100
AcDbEntity
  8
0
  6
Continuous
 62
     7
370
    15
100
AcDbPolyline
 90
       21
 70
   128
 43
0.0
 10
206.7780128292
 20
54.5774410291
 10
206.4949318831
 20
54.4726727647
 10
206.2100108059
 20
54.2629566299
 10
205.9511396575
 20
53.968821101
 10
205.7436585499
 20
53.6190582129
 10
205.6078771792
 20
53.2479051942
 10
205.5570867723
 20
52.8916930883
 10
205.5962590479
 20
52.5852904179
 10
205.7215595508
 20
52.3586900113
 10
205.9207229947
 20
52.2340730951
 10
206.1742538742
 20
52.2236380413
 10
206.4573348203
 20
52.3284063057
 10
206.7422558976
 20
52.5381224406
 10
207.0011270459
 20
52.8322579695
 10
207.2086081536
 20
53.1820208575
 10
207.3443895242
 20
53.5531738762
 10
207.3951799312
 20
53.9093859821
 10
207.3560076556
 20
54.2157886525
 10
207.2307071527
 20
54.4423890591
 10
207.0315437087
 20
54.5670059753
 10
206.7780128292
 20
54.5774410291
  0
LWPOLYLINE
  5
2EA
330
1F
100
AcDbEntity
  8
0
  6
Continuous
 62
     7
370
    15
100
AcDbPolyline
 90
       21
 70
   128
 43
0.0
 10
197.1018911082
 20
43.5832023947
 10
196.8188101621
 20
43.4784341303
 10
196.5338890848
 20
43.2687179955
 10
196.2750179365
 20
42.9745824666
 10
196.0675368288
 20
42.6248195786
 10
195.9317554582
 20
42.2536665599
 10
195.8809650512
 20
41.8974544539
 10
195.9201373268
 20
41.5910517835
 10
196.0454378298
 20
41.3644513769
 10
196.2446012737
 20
41.2398344607
 10
196.4981321532
 20
41.2293994069
 10
196.7812130993
 20
41.3341676713
 10
197.0661341766
 20
41.5438838062
 10
197.3250053249
 20
41.8380193351
 10
197.5324864326
 20
42.1877822231
 10
197.6682678032
 20
42.5589352418
 10
197.7190582102
 20
42.9151473477
 10
197.6798859346
 20
43.2215500181
 10
197.5545854316
 20
43.4481504247
 10
197.3554219877
 20
43.5727673409
 10
197.1018911082
 20
43.5832023947
  0
LWPOLYLINE
  5
2EB
330
1F
100
AcDbEntity
  8
0
  6
Continuous
 62
     7
370
    15
100
AcDbPolyline
 90
       21
 70
   128
 43
0.0
 10
192.4183915149
 20
52.0531038516
 10
192.1353105689
 20
51.9483355872
 10
191.8503894916
 20
51.7386194524
 10
191.5915183433
 20
51.4444839235
 10
191.3840372356
 20
51.0947210355
 10
191.2482558649
 20
50.7235680168
 10
191.197465458
 20
50.3673559108
 10
191.2366377336
 20
50.0609532405
 10
191.3619382365
 20
49.8343528339
 10
191.5611016805
 20
49.7097359176
 10
191.8146325599
 20
49.6993008638
 10
192.097713506
 20
49.8040691282
 10
192.3826345833
 20
50.0137852631
 10
192.6415057316
 20
50.307920792
 10
192.8489868393
 20
50.65768368
 10
192.9847682099
 20
51.0288366987
 10
193.0355586169
 20
51.3850488046
 10
192.9963863413
 20
51.691451475
 10
192.8710858384
 20
51.9180518816
 10
192.6719223944
 20
52.0426687978
 10
192.4183915149
 20
52.0531038516
  0
ARC
  5
2EC
330
1F
100
AcDbEntity
  8
0
  6
Continuous
 62
     7
370
    15
100
AcDbCircle
 10
214.9905055709
 20
43.0783120208
 30
0.0
 40
36.44710655928376
100
AcDbArc
 50
122.5055720322
 51
177.4998045005
  0
LWPOLYLINE
  5
2ED
330
1F
100
AcDbEntity
  8
0
  6
Continuous
 62
     7
370
    15
100
AcDbPolyline
 90
       21
 70
   128
 43
0.0
 10
129.6553811239
 20
36.5922551766
 10
129.9252605845
 20
36.5667335813
 10
130.1470689426
 20
36.6588908266
 10
130.2990940508
 20
36.8597059195
 10
130.3664546322
 20
37.1495216793
 10
130.3425569638
 20
37.4999689203
 10
130.2297403158
 20
37.8767434247
 10
130.0390479679
 20
38.2429638791
 10
129.7891462157
 20
38.5627820736
 10
129.5044971838
 20
38.8048919751
 10
129.2129643028
 20
38.9455941796
 10
128.9430848422
 20
38.9711157749
 10
128.7212764841
 20
38.8789585295
 10
128.5692513759
 20
38.6781434367
 10
128.5018907945
 20
38.3883276769
 10
128.5257884629
 20
38.0378804359
 10
128.6386051109
 20
37.6611059314
 10
128.8292974587
 20
37.2948854771
 10
129.079199211
 20
36.9750672826
 10
129.3638482429
 20
36.7329573811
 10
129.6553811239
 20
36.5922551766
  0
LINE
  5
2EE
330
1F
100
AcDbEntity
  8
0
  6
Continuous
 62
     7
370
    15
100
AcDbLine
 10
155.7822794831
 20
49.5235353674
 30
0.0
 11
155.5762129493
 21
49.4045756896
 31
0.0
  0
LINE
  5
2EF
330
1F
100
AcDbEntity
  8
0
  6
Continuous
 62
     7
370
    15
100
AcDbLine
 10
153.307405749
 20
48.0948211717
 30
0.0
 11
155.7822794831
 21
49.5235353674
 31
0.0
  0
LINE
  5
2F0
330
1F
100
AcDbEntity
  8
0
  6
Continuous
 62
     7
370
    15
100
AcDbLine
 10
153.307405749
 20
48.0948211717
 30
0.0
 11
153.2079144197
 21
48.0292058521
 31
0.0
  0
LWPOLYLINE
  5
2F1
330
1F
100
AcDbEntity
  8
0
  6
Continuous
 62
     7
370
    15
100
AcDbPolyline
 90
       18
 70
   128
 43
0.0
 10
157.3091337506
 20
50.3967893764
 10
157.3986415808
 20
50.4550317992
 10
157.6489188112
 20
50.713215962
 10
157.8238800157
 20
51.0648140097
 10
157.9163622619
 20
51.4954314771
 10
157.922579316
 20
51.9874388343
 10
157.842276651
 20
52.5206932424
 10
157.6787418673
 20
53.0733632031
 10
157.4386700984
 20
53.6228223435
 10
157.1318899105
 20
54.1465757417
 10
156.7709609207
 20
54.6231808721
 10
156.3706596042
 20
55.0331254646
 10
155.9473743438
 20
55.3596263395
 10
155.518434488
 20
55.5893165125
 10
155.1014008848
 20
55.7127924411
 10
154.713346939
 20
55.7249990061
 10
154.3701596246
 20
55.6254364693
 10
154.3093775527
 20
55.5930825507
  0
LINE
  5
2F2
330
1F
100
AcDbEntity
  8
0
  6
Continuous
 62
     7
370
    15
100
AcDbLine
 10
152.4876143212
 20
52.4555214194
 30
0.0
 11
154.9624880554
 21
53.8842356151
 31
0.0
  0
LWPOLYLINE
  5
2F3
330
1F
100
AcDbEntity
  8
0
  6
Continuous
 62
     7
370
    15
100
AcDbPolyline
 90
        9
 70
   128
 43
0.0
 10
152.5835406266
 20
54.5885979025
 10
152.81589939
 20
54.7183924408
 10
153.0805287695
 20
54.785338242
 10
153.3711817376
 20
54.7878549364
 10
153.6809969358
 20
54.7258831131
 10
154.0026606484
 20
54.6008857227
 10
154.3285794553
 20
54.4158135416
 10
154.6510594879
 20
54.1750355138
 10
154.9624880554
 20
53.8842356151
  0
LINE
  5
2F4
330
1F
100
AcDbEntity
  8
0
  6
Continuous
 62
     7
370
    15
100
AcDbLine
 10
150.3147334263
 20
53.2788433847
 30
0.0
 11
152.5835406266
 21
54.5885979025
 31
0.0
  0
ARC
  5
2F5
330
1F
100
AcDbEntity
  8
0
  6
Continuous
 62
     7
370
    15
100
AcDbCircle
 10
150.8389667228
 20
51.333895279
 30
0.0
 40
1.994012061757338
100
AcDbArc
 50
34.2286701695
 51
108.4424156762
  0
LINE
  5
2F6
330
1F
100
AcDbEntity
  8
0
  6
Continuous
 62
     7
370
    15
100
AcDbLine
 10
154.9624880554
 20
53.8842356151
 30
0.0
 11
152.5835406266
 21
54.5885979025
 31
0.0
  0
ARC
  5
2F7
330
1F
100
AcDbEntity
  8
0
  6
Continuous
 62
     7
370
    15
100
AcDbCircle
 10
153.5063738203
 20
51.6655105803
 30
0.0
 40
4.426316170608272
100
AcDbArc
 50
1.8921932269
 51
58.102430171
  0
LWPOLYLINE
  5
2F8
330
1F
100
AcDbEntity
  8
0
  6
Continuous
 62
     7
370
    15
100
AcDbPolyline
 90
       47
 70
   128
 43
0.0
 10
183.3741571048
 20
33.6209858506
 10
183.1951033637
 20
33.7213448409
 10
182.36960779
 20
34.2686611058
 10
181.6094680018
 20
34.9191019789
 10
180.9185574974
 20
35.6693529625
 10
180.3003969982
 20
36.5155909498
 10
179.7581365085
 20
37.4535037057
 10
179.2945392634
 20
38.478311842
 10
178.9119676482
 20
39.5847931713
 10
178.6123711603
 20
40.7673093183
 10
178.3972764745
 20
42.0198344518
 10
178.2677796641
 20
43.3359859908
 10
178.2245406152
 20
44.7090571289
 10
178.2677796641
 20
46.1320510101
 10
178.3972764745
 20
47.597716384
 10
178.6123711603
 20
49.0985845556
 10
178.9119676482
 20
50.6270074448
 10
179.2945392634
 20
52.1751965589
 10
179.7581365085
 20
53.735262681
 10
180.3003969982
 20
55.2992560719
 10
180.9185574974
 20
56.8592069797
 10
181.6094680018
 20
58.4071662521
 10
182.36960779
 20
59.9352458435
 10
183.1951033637
 20
61.4356590105
 10
184.0817481868
 20
62.9007599917
 10
185.0250241204
 20
64.3230829682
 10
186.0201244467
 20
65.6953801081
 10
187.0619783624
 20
67.0106584999
 10
188.1452768189
 20
68.2622157862
 10
189.2644995755
 20
69.4436743181
 10
190.4139433295
 20
70.5490136537
 10
191.5877507792
 20
71.5726012371
 10
192.7799404707
 20
72.5092211006
 10
193.9844372788
 20
73.354100444
 10
195.1951033637
 20
74.102933956
 10
196.4057694486
 20
74.7519057526
 10
197.6102662567
 20
75.2977088222
 10
198.8024559482
 20
75.7375618775
 10
199.9762633979
 20
76.0692235282
 10
201.1257071519
 20
76.2910037025
 10
202.2449299085
 20
76.4017722595
 10
203.328228365
 20
76.400964748
 10
204.3700822807
 20
76.288585283
 10
205.365182607
 20
76.0652065243
 10
206.3084585406
 20
75.7319667591
 10
207.1951033637
 20
75.2905641006
 10
207.3696030141
 20
75.1868210625
  0
SPLINE
  5
2F9
330
1F
100
AcDbEntity
  8
0
  6
Continuous
 62
     7
370
    15
100
AcDbSpline
210
0.0
220
0.0
230
1.0
 70
     8
 71
     3
 72
    15
 73
    11
 74
     0
 42
0.000000001
 43
0.00000001
 40
0.0
 40
0.0
 40
0.0
 40
0.0
 40
0.1352638474602936
 40
0.2706145500034869
 40
0.4040293479415901
 40
0.5363956388913361
 40
0.6686536916368396
 40
0.8009668739850329
 40
0.9332473005837377
 40
1.0
 40
1.0
 40
1.0
 40
1.0
 10
158.7272101396562
 20
52.31185170965808
 30
0.0
 10
158.6586599487443
 20
52.56417748079549
 30
0.0
 10
158.5215155497451
 20
53.06899104548933
 30
0.0
 10
158.0756589571496
 20
53.93568419653717
 30
0.0
 10
157.4972294406679
 20
54.74631944513971
 30
0.0
 10
156.8240127176637
 20
55.41193227667345
 30
0.0
 10
156.1207465361489
 20
55.85657793563057
 30
0.0
 10
155.476783358542
 20
56.01684715897451
 30
0.0
 10
155.0105202995814
 20
55.94968001079329
 30
0.0
 10
154.8679364209532
 20
55.74586190130791
 30
0.0
 10
154.8201159451247
 20
55.67750439082473
 30
0.0
  0
SPLINE
  5
2FA
330
1F
100
AcDbEntity
  8
0
  6
Continuous
 62
     7
370
    15
100
AcDbSpline
210
0.0
220
0.0
230
1.0
 70
     8
 71
     3
 72
    11
 73
     7
 74
     0
 42
0.000000001
 43
0.00000001
 40
0.0
 40
0.0
 40
0.0
 40
0.0
 40
0.1426872762684409
 40
0.4483449987125767
 40
0.7683659092732223
 40
1.0
 40
1.0
 40
1.0
 40
1.0
 10
158.1326854797536
 20
51.16088298523042
 30
0.0
 10
158.2121688041403
 20
51.15066084566184
 30
0.0
 10
158.4619174285571
 20
51.11854133738073
 30
0.0
 10
158.6966200369006
 20
51.3361344947987
 30
0.0
 10
158.8134275509571
 20
51.74887480787105
 30
0.0
 10
158.7527063349627
 20
52.14536829494553
 30
0.0
 10
158.7272101396562
 20
52.31185170965808
 30
0.0
  0
SPLINE
  5
2FB
330
1F
100
AcDbEntity
  8
0
  6
Continuous
 62
     7
370
    15
100
AcDbSpline
210
0.0
220
0.0
230
1.0
 70
     8
 71
     3
 72
    25
 73
    21
 74
     0
 42
0.000000001
 43
0.00000001
 40
0.0
 40
0.0
 40
0.0
 40
0.0
 40
0.0197925225181744
 40
0.1325844782797389
 40
0.190110704366159
 40
0.2479936619769752
 40
0.3023675467599406
 40
0.3573316166516222
 40
0.403518260899153
 40
0.4508154837334629
 40
0.4866701759874321
 40
0.523573347972296
 40
0.5594292207062902
 40
0.5961407343846784
 40
0.6569356855006666
 40
0.7192963241299528
 40
0.7758309174752603
 40
0.8327907071331111
 40
0.9491687139311591
 40
1.0
 40
1.0
 40
1.0
 40
1.0
 10
199.0906837637525
 20
79.95988651052096
 30
0.0
 10
198.9563126613166
 20
80.03974583663783
 30
0.0
 10
198.0561988685461
 20
80.57470074596053
 30
0.0
 10
196.6300781935634
 20
81.25728311388607
 30
0.0
 10
194.8582416804421
 20
82.0268175631466
 30
0.0
 10
193.499185882757
 20
82.5724240488972
 30
0.0
 10
192.1376924728933
 20
83.09685377058055
 30
0.0
 10
190.8633251922752
 20
83.5848432952519
 30
0.0
 10
189.6662302313405
 20
84.06458405225288
 30
0.0
 10
188.6705752247776
 20
84.50343355581464
 30
0.0
 10
187.8326675205332
 20
84.92766571417684
 30
0.0
 10
187.1723311195142
 20
85.3179943036877
 30
0.0
 10
186.6244957265342
 20
85.70498987345496
 30
0.0
 10
186.0981692054825
 20
86.15418174984423
 30
0.0
 10
185.6642059139447
 20
86.64125372838414
 30
0.0
 10
185.3738549576892
 20
87.09770814998855
 30
0.0
 10
185.2159030527091
 20
87.45542838380663
 30
0.0
 10
185.1276114973562
 20
87.80360938071335
 30
0.0
 10
185.1650081396636
 20
87.98388679000622
 30
0.0
 10
185.2736202591778
 20
87.9356243786242
 30
0.0
 10
185.3066381233343
 20
87.92095270340046
 30
0.0
  0
SPLINE
  5
2FC
330
1F
100
AcDbEntity
  8
0
  6
Continuous
 62
     7
370
    15
100
AcDbSpline
210
0.0
220
0.0
230
1.0
 70
     8
 71
     3
 72
    12
 73
     8
 74
     0
 42
0.000000001
 43
0.00000001
 40
0.0
 40
0.0
 40
0.0
 40
0.0
 40
0.1976935230524958
 40
0.399800891149557
 40
0.6036823197912095
 40
0.9161397286975467
 40
0.9999999999999999
 40
0.9999999999999999
 40
0.9999999999999999
 40
0.9999999999999999
 10
185.3228872324707
 20
87.91614013110764
 30
0.0
 10
185.3714506722447
 20
87.87472658916525
 30
0.0
 10
185.4696618134047
 20
87.7909748773308
 30
0.0
 10
185.6747864103244
 20
87.50379913063894
 30
0.0
 10
185.9704555033018
 20
86.9986135951919
 30
0.0
 10
186.2675776010447
 20
86.41352955038656
 30
0.0
 10
186.5097774724363
 20
85.88413537665495
 30
0.0
 10
186.5610266292078
 20
85.77211630394619
 30
0.0
  0
SPLINE
  5
2FD
330
1F
100
AcDbEntity
  8
0
  6
Continuous
 62
     7
370
    15
100
AcDbSpline
210
0.0
220
0.0
230
1.0
 70
    11
 71
     3
 72
   116
 73
   112
 74
     0
 42
0.000000001
 43
0.00000001
 40
0.0
 40
0.0
 40
0.0
 40
0.0
 40
0.0312500000000001
 40
0.0312500000000001
 40
0.0468750000000001
 40
0.0468750000000001
 40
0.0625000000000001
 40
0.0625000000000001
 40
0.0937500000000002
 40
0.0937500000000002
 40
0.1093750000000002
 40
0.1093750000000002
 40
0.1250000000000003
 40
0.1250000000000003
 40
0.1406250000000003
 40
0.1406250000000003
 40
0.1562500000000003
 40
0.1562500000000003
 40
0.1875000000000003
 40
0.1875000000000003
 40
0.2031250000000003
 40
0.2031250000000003
 40
0.2187500000000003
 40
0.2187500000000003
 40
0.2343750000000003
 40
0.2343750000000003
 40
0.2500000000000003
 40
0.2500000000000003
 40
0.2812500000000003
 40
0.2812500000000003
 40
0.2968750000000004
 40
0.2968750000000004
 40
0.3125000000000004
 40
0.3125000000000004
 40
0.3281250000000004
 40
0.3281250000000004
 40
0.3437500000000003
 40
0.3437500000000003
 40
0.3750000000000001
 40
0.3750000000000001
 40
0.3906250000000001
 40
0.3906250000000001
 40
0.40625
 40
0.40625
 40
0.4374999999999998
 40
0.4374999999999998
 40
0.4531249999999997
 40
0.4531249999999997
 40
0.4687499999999996
 40
0.4687499999999996
 40
0.4999999999999995
 40
0.4999999999999995
 40
0.5156249999999994
 40
0.5156249999999994
 40
0.5312499999999994
 40
0.5312499999999994
 40
0.5468749999999993
 40
0.5468749999999993
 40
0.5624999999999992
 40
0.5624999999999992
 40
0.5781249999999991
 40
0.5781249999999991
 40
0.5859374999999992
 40
0.5859374999999992
 40
0.5937499999999992
 40
0.5937499999999992
 40
0.6093749999999992
 40
0.6093749999999992
 40
0.6171874999999992
 40
0.6171874999999992
 40
0.6249999999999992
 40
0.6249999999999992
 40
0.6406249999999993
 40
0.6406249999999993
 40
0.6562499999999993
 40
0.6562499999999993
 40
0.6718749999999993
 40
0.6718749999999993
 40
0.6874999999999993
 40
0.6874999999999993
 40
0.7187499999999996
 40
0.7187499999999996
 40
0.7343749999999996
 40
0.7343749999999996
 40
0.7499999999999996
 40
0.7499999999999996
 40
0.7812499999999997
 40
0.7812499999999997
 40
0.7968749999999997
 40
0.7968749999999997
 40
0.8124999999999998
 40
0.8124999999999998
 40
0.8437499999999997
 40
0.8437499999999997
 40
0.8593749999999997
 40
0.8593749999999997
 40
0.8749999999999998
 40
0.8749999999999998
 40
0.8906249999999998
 40
0.8906249999999998
 40
0.9062499999999998
 40
0.9062499999999998
 40
0.9375
 40
0.9375
 40
0.953125
 40
0.953125
 40
0.96875
 40
0.96875
 40
0.9843750000000001
 40
0.9843750000000001
 40
1.0
 40
1.0
 40
1.0
 40
1.0
 10
169.469259761312
 20
49.76337318170025
 30
0.0
 10
169.0088825080392
 20
49.50825769292987
 30
0.0
 10
168.5265192536803
 20
49.35307276457674
 30
0.0
 10
167.7545985656744
 20
49.25435569890497
 30
0.0
 10
167.4892068318188
 20
49.2440249151744
 30
0.0
 10
166.9391699457148
 20
49.26853346147796
 30
0.0
 10
166.6571106213403
 20
49.30343103956608
 30
0.0
 10
165.7974950170092
 20
49.4711851618962
 30
0.0
 10
165.2022289948698
 20
49.66639625556926
 30
0.0
 10
164.2668124337097
 20
50.08257292979967
 30
0.0
 10
163.9488076384807
 20
50.24193606869577
 30
0.0
 10
163.3135621379304
 20
50.59423429623146
 30
0.0
 10
162.9944707177518
 20
50.78795553958359
 30
0.0
 10
162.3535624050925
 20
51.21023841342156
 30
0.0
 10
162.0317444891908
 20
51.43879814838231
 30
0.0
 10
161.3861272683036
 20
51.93203754445614
 30
0.0
 10
161.061709374498
 20
52.19750250365234
 30
0.0
 10
160.1108584736243
 20
53.0306295358004
 30
0.0
 10
159.4985764218727
 20
53.63999539542702
 30
0.0
 10
158.6248311265867
 20
54.64300607439635
 30
0.0
 10
158.3399561890675
 20
54.99414124210924
 30
0.0
 10
157.8010449213864
 20
55.71246401960211
 30
0.0
 10
157.5455570492353
 20
56.08109320382878
 30
0.0
 10
157.0647238951574
 20
56.83853253955669
 30
0.0
 10
156.8393722949941
 20
57.22733901571858
 30
0.0
 10
156.4221420394383
 20
58.02712473321412
 30
0.0
 10
156.2291809348287
 20
58.44101182171958
 30
0.0
 10
155.7180029856272
 20
59.69313267720453
 30
0.0
 10
155.4649639369277
 20
60.54247032556953
 30
0.0
 10
155.227962458623
 20
61.84425679651589
 30
0.0
 10
155.1727456285105
 20
62.28586450498065
 30
0.0
 10
155.1146108294746
 20
63.16307316466904
 30
0.0
 10
155.1113303005308
 20
63.59767651702633
 30
0.0
 10
155.1549342115631
 20
64.45984143387143
 30
0.0
 10
155.2018235050203
 20
64.8874000490336
 30
0.0
 10
155.3454763859982
 20
65.73612329142692
 30
0.0
 10
155.4430585599003
 20
66.1595963654743
 30
0.0
 10
155.8037611979478
 20
67.39673197749701
 30
0.0
 10
156.1336990028567
 20
68.18152469449723
 30
0.0
 10
156.7484320459269
 20
69.30741982671479
 30
0.0
 10
156.9744806524178
 20
69.67534121868756
 30
0.0
 10
157.4564395997182
 20
70.38193140143768
 30
0.0
 10
157.712993094086
 20
70.7221015495224
 30
0.0
 10
158.5253884079125
 20
71.70673481698643
 30
0.0
 10
159.1236699188269
 20
72.31563579507109
 30
0.0
 10
160.0970665265797
 20
73.1646597396334
 30
0.0
 10
160.435429660185
 20
73.43764441270112
 30
0.0
 10
161.128118536744
 20
73.95586257981424
 30
0.0
 10
161.4830179272386
 20
74.20174131487225
 30
0.0
 10
162.571666016654
 20
74.90133970043934
 30
0.0
 10
163.3291749541071
 20
75.31753456791374
 30
0.0
 10
164.5099036210985
 20
75.86452901732058
 30
0.0
 10
164.9121486093115
 20
76.03429300811304
 30
0.0
 10
165.7246056612716
 20
76.34302395220732
 30
0.0
 10
166.1346674905572
 20
76.48207385558615
 30
0.0
 10
166.9617218715831
 20
76.72678402358851
 30
0.0
 10
167.3787159818133
 20
76.83249054893035
 30
0.0
 10
168.2189475463932
 20
77.00503351668623
 30
0.0
 10
168.6441020157383
 20
77.07213228923659
 30
0.0
 10
169.4905474886277
 20
77.1563017099568
 30
0.0
 10
169.9098495752351
 20
77.17341870609884
 30
0.0
 10
170.5289019630414
 20
77.15174631387045
 30
0.0
 10
170.7335871022343
 20
77.13657783911201
 30
0.0
 10
171.1387175829798
 20
77.0878431326189
 30
0.0
 10
171.3390446972187
 20
77.05414456797533
 30
0.0
 10
171.9195398040468
 20
76.92424489608611
 30
0.0
 10
172.2832774067838
 20
76.79892115111129
 30
0.0
 10
172.7868249411601
 20
76.54355964758086
 30
0.0
 10
172.9466241055009
 20
76.4474907832167
 30
0.0
 10
173.2435000294361
 20
76.23835957218475
 30
0.0
 10
173.3817062062022
 20
76.12476092970572
 30
0.0
 10
173.767840763753
 20
75.75844300106898
 30
0.0
 10
173.9886917691064
 20
75.47699819731588
 30
0.0
 10
174.3548341547495
 20
74.8775096059379
 30
0.0
 10
174.5027730533469
 20
74.5583557735982
 30
0.0
 10
174.7492752263877
 20
73.88876445947807
 30
0.0
 10
174.8480289997848
 20
73.53633552339744
 30
0.0
 10
175.0066435877953
 20
72.81713418501295
 30
0.0
 10
175.0669844751857
 20
72.44964118658557
 30
0.0
 10
175.2073558465651
 20
71.32544736574835
 30
0.0
 10
175.2476859757216
 20
70.54727426478917
 30
0.0
 10
175.2592439388437
 20
69.33746435329117
 30
0.0
 10
175.2545548485667
 20
68.92640339576758
 30
0.0
 10
175.2310399901963
 20
68.09939399687717
 30
0.0
 10
175.2122353538254
 20
67.6822919102202
 30
0.0
 10
175.137520641613
 20
66.41960904308016
 30
0.0
 10
175.0636402632988
 20
65.56273966932955
 30
0.0
 10
174.9203374608073
 20
64.25118140361437
 30
0.0
 10
174.8668250076893
 20
63.80789282052593
 30
0.0
 10
174.7498801851824
 20
62.92262639383273
 30
0.0
 10
174.6864601235719
 20
62.48035773341118
 30
0.0
 10
174.4810326836241
 20
61.15463389422592
 30
0.0
 10
174.3241875769518
 20
60.27221997721832
 30
0.0
 10
174.0524421619865
 20
58.95133967358431
 30
0.0
 10
173.9553008255947
 20
58.51009981888297
 30
0.0
 10
173.7510472590695
 20
57.6472547105273
 30
0.0
 10
173.6435570723996
 20
57.22358960331665
 30
0.0
 10
173.416333324339
 20
56.39260952352949
 30
0.0
 10
173.296606904933
 20
55.98529053993254
 30
0.0
 10
173.0426755548563
 20
55.18831837457326
 30
0.0
 10
172.9074929862089
 20
54.79624358188372
 30
0.0
 10
172.4855014024422
 20
53.67513585640465
 30
0.0
 10
172.1817420726829
 20
52.9961734197863
 30
0.0
 10
171.6782821398888
 20
52.08321234320339
 30
0.0
 10
171.5012096625959
 20
51.79490930493119
 30
0.0
 10
171.1333666668046
 20
51.2640881162399
 30
0.0
 10
170.9435909698345
 20
51.02254083632022
 30
0.0
 10
170.5498824616243
 20
50.58505178398527
 30
0.0
 10
170.3459565465182
 20
50.38911349600673
 30
0.0
 10
169.9209579845439
 20
50.04214234805168
 30
0.0
 10
169.6994483879484
 20
49.89093092608543
 30
0.0
 10
169.469259761312
 20
49.76337318170025
 30
0.0
  0
LWPOLYLINE
  5
2FE
330
1F
100
AcDbEntity
  8
0
  6
Continuous
 62
     7
370
    15
100
AcDbPolyline
 90
       38
 70
   128
 43
0.0
 10
181.8089947107
 20
89.9456527751
 10
180.9814688273
 20
90.3616114328
 10
180.0355043233
 20
90.7036032228
 10
179.0367680157
 20
90.9344155458
 10
177.9904141696
 20
91.0528572286
 10
176.9018427943
 20
91.0583170189
 10
175.7766717746
 20
90.9507667399
 10
174.6207078784
 20
90.7307614356
 10
173.4399167888
 20
90.3994365067
 10
172.2403923171
 20
89.9585018503
 10
171.0283249534
 20
89.4102330363
 10
169.8099699191
 20
88.7574595632
 10
168.5916148848
 20
88.0035502558
 10
167.3795475211
 20
87.1523958792
 10
166.1800230494
 20
86.2083890599
 10
164.9992319598
 20
85.1764016158
 10
163.8432680636
 20
84.0617594141
 10
162.7180970439
 20
82.8702148858
 10
161.6295256686
 20
81.6079173381
 10
160.5831718225
 20
80.2813812197
 10
159.5844355149
 20
78.8974525007
 10
158.6384710109
 20
77.4632733423
 10
157.7501602318
 20
75.9862452375
 10
156.9240875602
 20
74.4739908135
 10
156.1645161809
 20
72.9343144931
 10
155.4753660802
 20
71.3751622175
 10
154.8601938146
 20
69.8045804395
 10
154.3221741573
 20
68.2306745968
 10
153.8640837129
 20
66.661567282
 10
153.4882865886
 20
65.1053563236
 10
153.1967221933
 20
63.5700729946
 10
152.9908952286
 20
62.063640565
 10
152.8718679238
 20
60.5938334116
 10
152.8402545532
 20
59.1682368958
 10
152.8962182669
 20
57.7942082173
 10
153.0394702479
 20
56.4788384454
 10
153.2692712034
 20
55.2289159231
 10
153.3175565871
 20
55.0205164947
  0
ARC
  5
2FF
330
1F
100
AcDbEntity
  8
0
  6
Continuous
 62
     7
370
    15
100
AcDbCircle
 10
161.9188951349
 20
55.465168559
 30
0.0
 40
8.193984671029266
100
AcDbArc
 50
224.7369444844
 51
239.9114865962
  0
SPLINE
  5
300
330
1F
100
AcDbEntity
  8
0
  6
Continuous
 62
     7
370
    15
100
AcDbSpline
210
0.0
220
0.0
230
1.0
 70
     8
 71
     3
 72
    30
 73
    26
 74
     0
 42
0.000000001
 43
0.00000001
 40
0.0
 40
0.0
 40
0.0
 40
0.0
 40
0.0383028631247474
 40
0.0768349239816555
 40
0.1161403619374268
 40
0.1557384089950606
 40
0.1940512366173162
 40
0.2722333371540102
 40
0.3122537764763429
 40
0.3469654088303512
 40
0.417674576423451
 40
0.4537704918062411
 40
0.4870191241617274
 40
0.5546494718384599
 40
0.589110893501419
 40
0.6223413300843703
 40
0.6899231600827459
 40
0.724354300073447
 40
0.757703693659993
 40
0.8255387015161388
 40
0.8601071471450471
 40
0.8933835757292459
 40
0.9610752173467053
 40
0.9955720439928678
 40
1.0
 40
1.0
 40
1.0
 40
1.0
 10
175.9275189001851
 20
38.72784300022825
 30
0.0
 10
175.8404180796408
 20
38.84487017436453
 30
0.0
 10
175.665695242252
 20
39.07962479307971
 30
0.0
 10
175.3737269781303
 20
39.47849518447475
 30
0.0
 10
175.0571953745383
 20
39.91258729481776
 30
0.0
 10
174.7174661625624
 20
40.37751033329256
 30
0.0
 10
174.2349896133492
 20
41.03140689748495
 30
0.0
 10
173.7046279686587
 20
41.7330449838509
 30
0.0
 10
173.1464678216668
 20
42.43680726291969
 30
0.0
 10
172.5927465029943
 20
43.10952618650293
 30
0.0
 10
172.0236028625498
 20
43.75992090914565
 30
0.0
 10
171.4389242280065
 20
44.37549799088639
 30
0.0
 10
170.8554036392617
 20
44.95423894882614
 30
0.0
 10
170.2643781498288
 20
45.48538988653673
 30
0.0
 10
169.6699780201292
 20
45.95859314454355
 30
0.0
 10
169.0761881954125
 20
46.39006807636284
 30
0.0
 10
168.4870509013465
 20
46.75473795037157
 30
0.0
 10
167.916276933477
 20
47.04259508576003
 30
0.0
 10
167.3607226345785
 20
47.27855633959515
 30
0.0
 10
166.8344205189719
 20
47.43456986463308
 30
0.0
 10
166.3555396314867
 20
47.50744799335165
 30
0.0
 10
165.9111074092881
 20
47.52761488142097
 30
0.0
 10
165.5321774842786
 20
47.46376786697989
 30
0.0
 10
165.2767707504037
 20
47.36899995321124
 30
0.0
 10
165.2032277266896
 20
47.31782248456796
 30
0.0
 10
165.1948617127664
 20
47.31200070306368
 30
0.0
  0
SPLINE
  5
301
330
1F
100
AcDbEntity
  8
0
  6
Continuous
 62
     7
370
    15
100
AcDbSpline
210
0.0
220
0.0
230
1.0
 70
     8
 71
     3
 72
    14
 73
    10
 74
     0
 42
0.000000001
 43
0.00000001
 40
0.0
 40
0.0
 40
0.0
 40
0.0
 40
0.1107725947512633
 40
0.2797994868955285
 40
0.450088185715072
 40
0.5854573085839782
 40
0.7215837279821474
 40
0.8602932601144294
 40
0.9999999999999999
 40
0.9999999999999999
 40
0.9999999999999999
 40
0.9999999999999999
 10
177.3542074714622
 20
37.09744677044704
 30
0.0
 10
177.3314206350008
 20
37.11052822873711
 30
0.0
 10
177.2738635725865
 20
37.1435705649361
 30
0.0
 10
177.1254665453002
 20
37.27568425194427
 30
0.0
 10
176.9329117690486
 20
37.47416628731533
 30
0.0
 10
176.7171759343824
 20
37.72008663300286
 30
0.0
 10
176.487847387383
 20
37.99873315430276
 30
0.0
 10
176.2285061133024
 20
38.32845122706374
 30
0.0
 10
176.0280872523082
 20
38.59439489769039
 30
0.0
 10
175.9275189001851
 20
38.72784300022825
 30
0.0
  0
ARC
  5
302
330
1F
100
AcDbEntity
  8
0
  6
Continuous
 62
     7
370
    15
100
AcDbCircle
 10
189.1003622322
 20
58.0243736343
 30
0.0
 40
36.29554152648747
100
AcDbArc
 50
122.5068653768
 51
177.4985111559
  0
LINE
  5
303
330
1F
100
AcDbEntity
  8
0
  6
Continuous
 62
     7
370
    15
100
AcDbLine
 10
158.7211120412
 20
51.4526667399
 30
0.0
 11
158.632995998
 21
51.4497060996
 31
0.0
  0
LWPOLYLINE
  5
304
330
1F
100
AcDbEntity
  8
0
  6
Continuous
 62
     8
370
    15
100
AcDbPolyline
 90
       16
 70
   128
 43
0.0
 10
169.867919533
 20
43.7772608315
 10
169.2613238985
 20
44.4435264357
 10
168.6241897324
 20
45.0332871681
 10
167.9674185769
 20
45.536452059
 10
167.3022479686
 20
45.9444118175
 10
166.6400591609
 20
46.2501861392
 10
165.9921823881
 20
46.4485431405
 10
165.3697030013
 20
46.5360888782
 10
164.7832717954
 20
46.5113254205
 10
164.2429227709
 20
46.3746764769
 10
163.7579014494
 20
46.1284801488
 10
163.3365066803
 20
45.7769489237
 10
162.9859486448
 20
45.3260975982
 10
162.7122254881
 20
44.7836403635
 10
162.5200206894
 20
44.1588588133
 10
162.4788786393
 20
43.9574511755
  0
LWPOLYLINE
  5
305
330
1F
100
AcDbEntity
  8
0
  6
Continuous
 62
     8
370
    15
100
AcDbPolyline
 90
       20
 70
   128
 43
0.0
 10
168.4283950984
 20
33.6514697132
 10
168.9608526943
 20
33.4959460586
 10
169.5833320811
 20
33.4084003209
 10
170.169763287
 20
33.4331637786
 10
170.7101123115
 20
33.5698127222
 10
171.195133633
 20
33.8160090502
 10
171.6165284021
 20
34.1675402754
 10
171.9670864376
 20
34.6183916009
 10
172.2408095942
 20
35.1608488355
 10
172.4330143929
 20
35.7856303857
 10
172.5404121563
 20
36.4820460658
 10
172.5611652788
 20
37.2381800105
 10
172.4949186688
 20
38.0410945584
 10
172.3428058242
 20
38.8770516188
 10
172.1074294378
 20
39.7317477348
 10
171.792816865
 20
40.5905588189
 10
171.404351214
 20
41.4387903752
 10
170.9486792399
 20
42.2619289267
 10
170.4335976164
 20
43.0458903445
 10
169.867919533
 20
43.7772608315
  0
LWPOLYLINE
  5
306
330
1F
100
AcDbEntity
  8
0
  6
Continuous
 62
     8
370
    15
100
AcDbPolyline
 90
       16
 70
   128
 43
0.0
 10
170.1797625608
 20
44.0583745666
 10
170.7574951066
 20
43.3126510713
 10
171.2848372937
 20
42.514089004
 10
171.7531301778
 20
41.6758007316
 10
172.1546844029
 20
40.8115509243
 10
172.4829064595
 20
39.9355305403
 10
172.7324069506
 20
39.0621238098
 10
172.8990890851
 20
38.2056720474
 10
172.9802159469
 20
37.3802381672
 10
172.9744554352
 20
36.5993757708
 10
172.8819021374
 20
35.875906597
 10
172.7040757761
 20
35.2217099899
 10
172.4438962552
 20
34.6475278394
 10
172.1056357153
 20
34.1627882008
 10
171.6948483852
 20
33.7754504854
 10
171.4358450261
 20
33.6036695928
  0
LWPOLYLINE
  5
307
330
1F
100
AcDbEntity
  8
0
  6
Continuous
 62
     8
370
    15
100
AcDbPolyline
 90
       11
 70
   128
 43
0.0
 10
163.941454125
 20
46.5857420398
 10
164.4195658004
 20
46.7988900374
 10
164.9798321209
 20
46.9186463122
 10
165.5845771491
 20
46.9263536727
 10
166.2238709884
 20
46.8218855643
 10
166.8872164516
 20
46.6069573505
 10
167.5637214245
 20
46.2850981464
 10
168.2422777142
 20
45.8615928715
 10
168.9117434451
 20
45.3433954705
 10
169.5611260086
 20
44.7390147305
 10
170.1797625608
 20
44.0583745666
  0
LWPOLYLINE
  5
308
330
1F
100
AcDbEntity
  8
0
  6
Continuous
 62
     8
370
    15
100
AcDbPolyline
 90
       17
 70
   128
 43
0.0
 10
169.5704484027
 20
43.303947485
 10
170.0972960279
 20
42.6190972243
 10
170.5731331809
 20
41.882728988
 10
170.9886982328
 20
41.1091753462
 10
171.3359026827
 20
40.3134926406
 10
171.6079885907
 20
39.5111679301
 10
171.7996601142
 20
38.7178175525
 10
171.9071865851
 20
37.9488831705
 10
171.9284751228
 20
37.2193312172
 10
171.8631113702
 20
36.5433615914
 10
171.7123675584
 20
35.9341312731
 10
171.4791777443
 20
35.4034982375
 10
171.1680807022
 20
34.9617906528
 10
170.7851315823
 20
34.617605855
 10
170.3377840536
 20
34.3776430095
 10
169.8347452269
 20
34.2465727202
 10
169.4158776783
 20
34.2215312725
  0
LWPOLYLINE
  5
309
330
1F
100
AcDbEntity
  8
0
  6
Continuous
 62
     8
370
    15
100
AcDbPolyline
 90
       13
 70
   128
 43
0.0
 10
163.4663612191
 20
44.5275127348
 10
163.6200116045
 20
44.7735404693
 10
163.9678820804
 20
45.1674461951
 10
164.3840441546
 20
45.4602332313
 10
164.8603977057
 20
45.6462028112
 10
165.3876710535
 20
45.7217352486
 10
165.9556014222
 20
45.6853603905
 10
166.5531346931
 20
45.5377862321
 10
167.1686405609
 20
45.2818851364
 10
167.7901389038
 20
44.9226379274
 10
168.4055329637
 20
44.4670369432
 10
169.0028447951
 20
43.9239499389
 10
169.5704484027
 20
43.303947485
  0
LINE
  5
30A
330
1F
100
AcDbEntity
  8
0
  6
Continuous
 62
     8
370
    15
100
AcDbLine
 10
164.4860166229
 20
45.1568482179
 30
0.0
 11
164.3273693186
 21
45.0245621306
 31
0.0
  0
LINE
  5
30B
330
1F
100
AcDbEntity
  8
0
  6
Continuous
 62
     8
370
    15
100
AcDbLine
 10
170.2768857778
 20
34.7185806683
 30
0.0
 11
170.6884057734
 21
34.898412642
 31
0.0
  0
LWPOLYLINE
  5
30C
330
1F
100
AcDbEntity
  8
0
  6
Continuous
 62
     8
370
    15
100
AcDbPolyline
 90
       19
 70
   128
 43
0.0
 10
150.4733544978
 20
26.9088433962
 10
150.2747647068
 20
27.6737630937
 10
149.9944635366
 20
28.4444117254
 10
149.6387124522
 20
29.2035742741
 10
149.2154583449
 20
29.9342923031
 10
148.7341560121
 20
30.620242779
 10
148.2055569526
 20
31.2461027018
 10
147.6414691958
 20
31.7978913949
 10
147.0544935302
 20
32.2632828108
 10
146.4577420221
 20
32.6318808742
 10
145.8645451142
 20
32.8954517136
 10
145.2881538451
 20
33.0481075918
 10
144.7414438434
 20
33.0864384289
 10
144.236627707
 20
33.0095879772
 10
143.7849821942
 20
32.8192729489
 10
143.3965963196
 20
32.5197446672
 10
143.0801459817
 20
32.117694099
 10
142.8427001582
 20
31.6221023896
 10
142.8014315518
 20
31.5009669687
  0
LWPOLYLINE
  5
30D
330
1F
100
AcDbEntity
  8
0
  6
Continuous
 62
     8
370
    15
100
AcDbPolyline
 90
       12
 70
   128
 43
0.0
 10
147.8010252149
 20
22.8404783449
 10
147.9455811472
 20
22.8123423085
 10
148.492291149
 20
22.7740114714
 10
148.9971072854
 20
22.8508619231
 10
149.4487527981
 20
23.0411769514
 10
149.8371386728
 20
23.3407052331
 10
150.1535890107
 20
23.7427558013
 10
150.3910348342
 20
24.2383475107
 10
150.544171996
 20
24.8164096614
 10
150.609579665
 20
25.4640293003
 10
150.5857967418
 20
26.1667396748
 10
150.4733544978
 20
26.9088433962
  0
ARC
  5
30E
330
1F
100
AcDbEntity
  8
0
  6
Continuous
 62
     8
370
    15
100
AcDbCircle
 10
147.5098144287
 20
25.6944099707
 30
0.0
 40
3.615605805361036
100
AcDbArc
 50
309.379659633
 51
20.7785611039
  0
LWPOLYLINE
  5
30F
330
1F
100
AcDbEntity
  8
0
  6
Continuous
 62
     8
370
    15
100
AcDbPolyline
 90
       16
 70
   128
 43
0.0
 10
143.9974099445
 20
33.2807293208
 10
144.1423533039
 20
33.3425162119
 10
144.6304828065
 20
33.4641920546
 10
145.1633677696
 20
33.4757052429
 10
145.7301601921
 20
33.3768214014
 10
146.3193218147
 20
33.1695535202
 10
146.9188590059
 20
32.8581209755
 10
147.5165669172
 20
32.4488636358
 10
148.1002779393
 20
31.9501128003
 10
148.6581093991
 20
31.3720215979
 10
149.1787054567
 20
30.7263582982
 10
149.6514682776
 20
30.0262667442
 10
150.0667737742
 20
29.285998781
 10
150.4161675241
 20
28.5206241295
 10
150.6925368782
 20
27.7457236106
 10
150.8902557535
 20
26.9770719641
  0
LWPOLYLINE
  5
310
330
1F
100
AcDbEntity
  8
0
  6
Continuous
 62
     8
370
    15
100
AcDbPolyline
 90
       16
 70
   128
 43
0.0
 10
128.8689138554
 20
40.1169675093
 10
128.8885520786
 20
40.1304026582
 10
129.1787472608
 20
40.2475996673
 10
129.5179817889
 20
40.251531196
 10
129.8879674416
 20
40.1419852945
 10
130.2687581967
 20
39.9248676108
 10
130.639825526
 20
39.6118830153
 10
130.9811650937
 20
39.2199045886
 10
131.2743751954
 20
38.7700639893
 10
131.5036487985
 20
38.2866122403
 10
131.6566257039
 20
37.7956123507
 10
131.7250588869
 20
37.3235342515
 10
131.7052590969
 20
36.8958277954
 10
131.5982937458
 20
36.535550748
 10
131.4099293633
 20
36.2621257383
 10
131.1848519131
 20
36.1052104439
  0
ARC
  5
311
330
1F
100
AcDbEntity
  8
0
  6
Continuous
 62
     8
370
    15
100
AcDbCircle
 10
133.8876737708
 20
42.2699831914
 30
0.0
 40
1.139572351030423
100
AcDbArc
 50
69.9876168147
 51
122.8786585832
  0
LWPOLYLINE
  5
312
330
1F
100
AcDbEntity
  8
0
  6
Continuous
 62
     8
370
    15
100
AcDbPolyline
 90
       14
 70
   128
 43
0.0
 10
136.0785139956
 20
38.3603485173
 10
136.2654616244
 20
38.4745805982
 10
136.4999321815
 20
38.7359346262
 10
136.6578523482
 20
39.089104909
 10
136.7323202554
 20
39.5186562104
 10
136.7200812982
 20
40.0058150775
 10
136.6216703779
 20
40.52929033
 10
136.4413885238
 20
41.0662035875
 10
136.1871149181
 20
41.5930891643
 10
135.8699625375
 20
42.0869196324
 10
135.5037924628
 20
42.5261122306
 10
135.1046080835
 20
42.8914721349
 10
134.6898556724
 20
43.1670313644
 10
134.2776619
 20
43.3407466585
  0
ARC
  5
313
330
1F
100
AcDbEntity
  8
0
  6
Continuous
 62
     8
370
    15
100
AcDbCircle
 10
135.4004166177
 20
41.2132759993
 30
0.0
 40
2.869102112958827
100
AcDbArc
 50
345.3565151974
 51
74.6173160755
  0
LWPOLYLINE
  5
314
330
1F
100
AcDbEntity
  8
0
  6
Continuous
 62
     8
370
    15
100
AcDbPolyline
 90
       13
 70
   128
 43
0.0
 10
137.8767941682
 20
44.3747501477
 10
138.095432035
 20
44.4423761213
 10
138.3756043092
 20
44.410485644
 10
138.6761075914
 20
44.2704488402
 10
138.9725968928
 20
44.0336106589
 10
139.2410524134
 20
43.719158321
 10
139.4597254837
 20
43.3525668848
 10
139.6109005118
 20
42.9635354083
 10
139.6823301962
 20
42.583580908
 10
139.6682277285
 20
42.2434850378
 10
139.569735607
 20
41.9708003426
 10
139.3948330774
 20
41.7876181147
 10
139.3769270644
 20
41.7767509786
  0
LWPOLYLINE
  5
315
330
1F
100
AcDbEntity
  8
0
  6
Continuous
 62
     8
370
    15
100
AcDbPolyline
 90
       13
 70
   128
 43
0.0
 10
141.4121557252
 20
46.415670978
 10
141.630965941
 20
46.4833964008
 10
141.9111382152
 20
46.4515059236
 10
142.2116414973
 20
46.3114691198
 10
142.5081307987
 20
46.0746309385
 10
142.7765863194
 20
45.7601786006
 10
142.9952593896
 20
45.3935871644
 10
143.1464344178
 20
45.0045556879
 10
143.2178641021
 20
44.6246011875
 10
143.2037616345
 20
44.2845053174
 10
143.1052695129
 20
44.0118206222
 10
142.9303669833
 20
43.8286383942
 10
142.9120338242
 20
43.8175243909
  0
ARC
  5
316
330
1F
100
AcDbEntity
  8
0
  6
Continuous
 62
     8
370
    15
100
AcDbCircle
 10
143.4704671216
 20
47.4875498931
 30
0.0
 40
0.877128413172019
100
AcDbArc
 50
69.1350369299
 51
160.1673557977
  0
LWPOLYLINE
  5
317
330
1F
100
AcDbEntity
  8
0
  6
Continuous
 62
     8
370
    15
100
AcDbPolyline
 90
       15
 70
   128
 43
0.0
 10
144.707958438
 20
44.2017033262
 10
144.7274121052
 20
44.1986430899
 10
145.0617211067
 20
44.2025175346
 10
145.3477027907
 20
44.318012898
 10
145.5699398105
 20
44.5389027951
 10
145.7164513109
 20
44.8532789944
 10
145.7793388191
 20
45.2441933937
 10
145.7552120531
 20
45.6905716964
 10
145.6453716931
 20
46.1683495328
 10
145.4557392614
 20
46.651769776
 10
145.1965378915
 20
47.1147711155
 10
144.8817411962
 20
47.5323930294
 10
144.528319947
 20
47.8821214121
 10
144.1553271749
 20
48.145102316
 10
143.7828710167
 20
48.3071583725
  0
LWPOLYLINE
  5
318
330
1F
100
AcDbEntity
  8
0
  6
Continuous
 62
     8
370
    15
100
AcDbPolyline
 90
       18
 70
   128
 43
0.0
 10
144.4855561728
 20
49.9219105232
 10
144.5472633829
 20
49.9547991719
 10
144.8904506973
 20
50.0543617086
 10
145.2785046431
 20
50.0421551436
 10
145.6955382463
 20
49.9186792151
 10
146.1244781021
 20
49.6889890421
 10
146.5477633624
 20
49.3624881672
 10
146.948064679
 20
48.9525435747
 10
147.3089936688
 20
48.4759384443
 10
147.6157738567
 20
47.9521850461
 10
147.8558456256
 20
47.4027259057
 10
148.0193804093
 20
46.8500559449
 10
148.0996830743
 20
46.3168015369
 10
148.0934660202
 20
45.8247941797
 10
148.0009837739
 20
45.3941767123
 10
147.8260225695
 20
45.0425786645
 10
147.5757453391
 20
44.7843945017
 10
147.4869719106
 20
44.7265764554
  0
ENDSEC
  0
SECTION
  2
OBJECTS
  0
DICTIONARY
  5
C
330
0
100
AcDbDictionary
281
     1
  3
ACAD_GROUP
350
D
  3
ACAD_LAYOUT
350
1A
  3
ACAD_MLINESTYLE
350
17
  3
ACAD_PLOTSETTINGS
350
19
  3
ACAD_PLOTSTYLENAME
350
E
  3
ACAD_SCALELIST
350
47
  0
DICTIONARY
  5
D
102
{ACAD_REACTORS
330
C
102
}
330
C
100
AcDbDictionary
281
     1
  0
DICTIONARY
  5
1A
102
{ACAD_REACTORS
330
C
102
}
330
C
100
AcDbDictionary
281
     1
  3
Layout1
350
1E
  3
Layout2
350
26
  3
Model
350
22
  0
DICTIONARY
  5
17
102
{ACAD_REACTORS
330
C
102
}
330
C
100
AcDbDictionary
281
     1
  3
Standard
350
18
  0
DICTIONARY
  5
19
102
{ACAD_REACTORS
330
C
102
}
330
C
100
AcDbDictionary
281
     1
  0
ACDBDICTIONARYWDFLT
  5
E
102
{ACAD_REACTORS
330
C
102
}
330
C
100
AcDbDictionary
281
     1
  3
Normal
350
F
100
AcDbDictionaryWithDefault
340
F
  0
DICTIONARY
  5
47
102
{ACAD_REACTORS
330
C
102
}
330
C
100
AcDbDictionary
281
     1
  3
A0
350
48
  3
A1
350
49
  3
A2
350
4A
  3
A3
350
4B
  3
A4
350
4C
  3
A5
350
4D
  3
A6
350
4E
  3
A7
350
4F
  3
A8
350
50
  3
A9
350
51
  3
B0
350
52
  3
B1
350
53
  3
B2
350
54
  3
B3
350
55
  3
B4
350
56
  3
B5
350
57
  3
B6
350
58
  3
B7
350
59
  3
B8
350
5A
  3
B9
350
5B
  3
C0
350
5C
  3
C1
350
5D
  3
C2
350
5E
  3
C3
350
5F
  3
C4
350
60
  3
C5
350
61
  3
C6
350
62
  3
C7
350
63
  3
C8
350
64
  3
C9
350
65
  3
D0
350
66
  3
D1
350
67
  3
D2
350
68
  0
LAYOUT
  5
1E
102
{ACAD_REACTORS
330
1A
102
}
330
1A
100
AcDbPlotSettings
  1

  2
none_device
  4

  6

 40
0.0
 41
0.0
 42
0.0
 43
0.0
 44
0.0
 45
0.0
 46
0.0
 47
0.0
 48
0.0
 49
0.0
140
0.0
141
0.0
142
1.0
143
1.0
 70
   688
 72
     1
 73
     0
 74
     5
  7

 75
    16
147
1.0
148
0.0
149
0.0
100
AcDbLayout
  1
Layout1
 70
     1
 71
     1
 10
0.0
 20
0.0
 11
420.0
 21
297.0
 12
0.0
 22
0.0
 32
0.0
 14
1.0000000000E+20
 24
1.0000000000E+20
 34
1.0000000000E+20
 15
-1.0000000000E+20
 25
-1.0000000000E+20
 35
-1.0000000000E+20
146
0.0
 13
0.0
 23
0.0
 33
0.0
 16
1.0
 26
0.0
 36
0.0
 17
0.0
 27
1.0
 37
0.0
 76
     0
330
1B
  0
LAYOUT
  5
26
102
{ACAD_REACTORS
330
1A
102
}
330
1A
100
AcDbPlotSettings
  1

  2
none_device
  4

  6

 40
0.0
 41
0.0
 42
0.0
 43
0.0
 44
0.0
 45
0.0
 46
0.0
 47
0.0
 48
0.0
 49
0.0
140
0.0
141
0.0
142
1.0
143
1.0
 70
   688
 72
     1
 73
     0
 74
     5
  7

 75
    16
147
1.0
148
0.0
149
0.0
100
AcDbLayout
  1
Layout2
 70
     1
 71
     2
 10
0.0
 20
0.0
 11
0.0
 21
0.0
 12
0.0
 22
0.0
 32
0.0
 14
0.0
 24
0.0
 34
0.0
 15
0.0
 25
0.0
 35
0.0
146
0.0
 13
0.0
 23
0.0
 33
0.0
 16
1.0
 26
0.0
 36
0.0
 17
0.0
 27
1.0
 37
0.0
 76
     0
330
23
  0
LAYOUT
  5
22
102
{ACAD_REACTORS
330
1A
102
}
330
1A
100
AcDbPlotSettings
  1

  2
none_device
  4
Letter_(8.50_x_11.00_Inches)
  6

 40
6.35
 41
6.35
 42
6.35000508
 43
6.35000508
 44
215.9
 45
279.4
 46
0.0
 47
0.0
 48
0.0
 49
0.0
140
0.0
141
0.0
142
1.0
143
1.0
 70
  1712
 72
     1
 73
     0
 74
     0
  7

 75
     0
147
1.0
148
0.0
149
0.0
100
AcDbLayout
  1
Model
 70
     1
 71
     0
 10
0.0
 20
0.0
 11
431.8
 21
279.4
 12
0.0
 22
0.0
 32
0.0
 14
0.0
 24
0.0
 34
0.0
 15
431.8
 25
279.4
 35
0.0
146
0.0
 13
0.0
 23
0.0
 33
0.0
 16
1.0
 26
0.0
 36
0.0
 17
0.0
 27
1.0
 37
0.0
 76
     0
330
1F
331
29
  0
MLINESTYLE
  5
18
102
{ACAD_REACTORS
330
17
102
}
330
17
100
AcDbMlineStyle
  2
Standard
 70
     0
  3

 62
   256
 51
90.0
 52
90.0
 71
     2
 49
0.5
 62
   256
  6
BYLAYER
 49
-0.5
 62
   256
  6
BYLAYER
  0
ACDBPLACEHOLDER
  5
F
102
{ACAD_REACTORS
330
E
102
}
330
E
  0
SCALE
  5
48
102
{ACAD_REACTORS
330
47
102
}
330
47
100
AcDbScale
 70
     0
300
1:1
140
1.0
141
1.0
290
     1
  0
SCALE
  5
49
102
{ACAD_REACTORS
330
47
102
}
330
47
100
AcDbScale
 70
     0
300
1:2
140
1.0
141
2.0
290
     0
  0
SCALE
  5
4A
102
{ACAD_REACTORS
330
47
102
}
330
47
100
AcDbScale
 70
     0
300
1:4
140
1.0
141
4.0
290
     0
  0
SCALE
  5
4B
102
{ACAD_REACTORS
330
47
102
}
330
47
100
AcDbScale
 70
     0
300
1:5
140
1.0
141
5.0
290
     0
  0
SCALE
  5
4C
102
{ACAD_REACTORS
330
47
102
}
330
47
100
AcDbScale
 70
     0
300
1:8
140
1.0
141
8.0
290
     0
  0
SCALE
  5
4D
102
{ACAD_REACTORS
330
47
102
}
330
47
100
AcDbScale
 70
     0
300
1:10
140
1.0
141
10.0
290
     0
  0
SCALE
  5
4E
102
{ACAD_REACTORS
330
47
102
}
330
47
100
AcDbScale
 70
     0
300
1:16
140
1.0
141
16.0
290
     0
  0
SCALE
  5
4F
102
{ACAD_REACTORS
330
47
102
}
330
47
100
AcDbScale
 70
     0
300
1:20
140
1.0
141
20.0
290
     0
  0
SCALE
  5
50
102
{ACAD_REACTORS
330
47
102
}
330
47
100
AcDbScale
 70
     0
300
1:30
140
1.0
141
30.0
290
     0
  0
SCALE
  5
51
102
{ACAD_REACTORS
330
47
102
}
330
47
100
AcDbScale
 70
     0
300
1:40
140
1.0
141
40.0
290
     0
  0
SCALE
  5
52
102
{ACAD_REACTORS
330
47
102
}
330
47
100
AcDbScale
 70
     0
300
1:50
140
1.0
141
50.0
290
     0
  0
SCALE
  5
53
102
{ACAD_REACTORS
330
47
102
}
330
47
100
AcDbScale
 70
     0
300
1:100
140
1.0
141
100.0
290
     0
  0
SCALE
  5
54
102
{ACAD_REACTORS
330
47
102
}
330
47
100
AcDbScale
 70
     0
300
2:1
140
2.0
141
1.0
290
     0
  0
SCALE
  5
55
102
{ACAD_REACTORS
330
47
102
}
330
47
100
AcDbScale
 70
     0
300
4:1
140
4.0
141
1.0
290
     0
  0
SCALE
  5
56
102
{ACAD_REACTORS
330
47
102
}
330
47
100
AcDbScale
 70
     0
300
8:1
140
8.0
141
1.0
290
     0
  0
SCALE
  5
57
102
{ACAD_REACTORS
330
47
102
}
330
47
100
AcDbScale
 70
     0
300
10:1
140
10.0
141
1.0
290
     0
  0
SCALE
  5
58
102
{ACAD_REACTORS
330
47
102
}
330
47
100
AcDbScale
 70
     0
300
100:1
140
100.0
141
1.0
290
     0
  0
SCALE
  5
59
102
{ACAD_REACTORS
330
47
102
}
330
47
100
AcDbScale
 70
     0
300
1/128" = 1'-0"
140
0.0078125
141
12.0
290
     0
  0
SCALE
  5
5A
102
{ACAD_REACTORS
330
47
102
}
330
47
100
AcDbScale
 70
     0
300
1/64" = 1'-0"
140
0.015625
141
12.0
290
     0
  0
SCALE
  5
5B
102
{ACAD_REACTORS
330
47
102
}
330
47
100
AcDbScale
 70
     0
300
1/32" = 1'-0"
140
0.03125
141
12.0
290
     0
  0
SCALE
  5
5C
102
{ACAD_REACTORS
330
47
102
}
330
47
100
AcDbScale
 70
     0
300
1/16" = 1'-0"
140
0.0625
141
12.0
290
     0
  0
SCALE
  5
5D
102
{ACAD_REACTORS
330
47
102
}
330
47
100
AcDbScale
 70
     0
300
3/32" = 1'-0"
140
0.09375
141
12.0
290
     0
  0
SCALE
  5
5E
102
{ACAD_REACTORS
330
47
102
}
330
47
100
AcDbScale
 70
     0
300
1/8" = 1'-0"
140
0.125
141
12.0
290
     0
  0
SCALE
  5
5F
102
{ACAD_REACTORS
330
47
102
}
330
47
100
AcDbScale
 70
     0
300
3/16" = 1'-0"
140
0.1875
141
12.0
290
     0
  0
SCALE
  5
60
102
{ACAD_REACTORS
330
47
102
}
330
47
100
AcDbScale
 70
     0
300
1/4" = 1'-0"
140
0.25
141
12.0
290
     0
  0
SCALE
  5
61
102
{ACAD_REACTORS
330
47
102
}
330
47
100
AcDbScale
 70
     0
300
3/8" = 1'-0"
140
0.375
141
12.0
290
     0
  0
SCALE
  5
62
102
{ACAD_REACTORS
330
47
102
}
330
47
100
AcDbScale
 70
     0
300
1/2" = 1'-0"
140
0.5
141
12.0
290
     0
  0
SCALE
  5
63
102
{ACAD_REACTORS
330
47
102
}
330
47
100
AcDbScale
 70
     0
300
3/4" = 1'-0"
140
0.75
141
12.0
290
     0
  0
SCALE
  5
64
102
{ACAD_REACTORS
330
47
102
}
330
47
100
AcDbScale
 70
     0
300
1" = 1'-0"
140
1.0
141
12.0
290
     0
  0
SCALE
  5
65
102
{ACAD_REACTORS
330
47
102
}
330
47
100
AcDbScale
 70
     0
300
1-1/2" = 1'-0"
140
1.5
141
12.0
290
     0
  0
SCALE
  5
66
102
{ACAD_REACTORS
330
47
102
}
330
47
100
AcDbScale
 70
     0
300
3" = 1'-0"
140
3.0
141
12.0
290
     0
  0
SCALE
  5
67
102
{ACAD_REACTORS
330
47
102
}
330
47
100
AcDbScale
 70
     0
300
6" = 1'-0"
140
6.0
141
12.0
290
     0
  0
SCALE
  5
68
102
{ACAD_REACTORS
330
47
102
}
330
47
100
AcDbScale
 70
     0
300
1'-0" = 1'-0"
140
12.0
141
12.0
290
     0
  0
ENDSEC
  0
EOF
