  0
SECTION
  2
HEADER
  9
$ACADVER
  1
AC1015
  9
$ACADMAINTVER
 70
     6
  9
$DWGCODEPAGE
  3
ANSI_1252
  9
$INSBASE
 10
0.0
 20
0.0
 30
0.0
  9
$EXTMIN
 10
0.0
 20
0.0
 30
0.0
  9
$EXTMAX
 10
431.8
 20
279.4
 30
0.0
  9
$LIMMIN
 10
0.0
 20
0.0
  9
$LIMMAX
 10
431.8
 20
279.4
  9
$ORTHOMODE
 70
     0
  9
$REGENMODE
 70
     1
  9
$FILLMODE
 70
     1
  9
$QTEXTMODE
 70
     0
  9
$MIRRTEXT
 70
     1
  9
$LTSCALE
 40
1.0
  9
$ATTMODE
 70
     1
  9
$TEXTSIZE
 40
3.5
  9
$TRACEWID
 40
1.0
  9
$TEXTSTYLE
  7
Standard
  9
$CLAYER
  8
0
  9
$CELTYPE
  6
ByLayer
  9
$CECOLOR
 62
   256
  9
$CELTSCALE
 40
1.0
  9
$DISPSILH
 70
     0
  9
$DIMSCALE
 40
1.0
  9
$DIMASZ
 40
6.0
  9
$DIMEXO
 40
1.0
  9
$DIMDLI
 40
3.75
  9
$DIMRND
 40
0.0
  9
$DIMDLE
 40
0.0
  9
$DIMEXE
 40
1.0
  9
$DIMTP
 40
0.0
  9
$DIMTM
 40
0.0
  9
$DIMTXT
 40
3.5
  9
$DIMCEN
 40
2.5
  9
$DIMTSZ
 40
0.0
  9
$DIMTOL
 70
     0
  9
$DIMLIM
 70
     0
  9
$DIMTIH
 70
     1
  9
$DIMTOH
 70
     1
  9
$DIMSE1
 70
     0
  9
$DIMSE2
 70
     0
  9
$DIMTAD
 70
     1
  9
$DIMZIN
 70
     0
  9
$DIMBLK
  1

  9
$DIMASO
 70
     1
  9
$DIMSHO
 70
     1
  9
$DIMPOST
  1

  9
$DIMAPOST
  1

  9
$DIMALT
 70
     0
  9
$DIMALTD
 70
     3
  9
$DIMALTF
 40
0.0393700787
  9
$DIMLFAC
 40
1.0
  9
$DIMTOFL
 70
     1
  9
$DIMTVP
 40
0.0
  9
$DIMTIX
 70
     0
  9
$DIMSOXD
 70
     0
  9
$DIMSAH
 70
     0
  9
$DIMBLK1
  1

  9
$DIMBLK2
  1

  9
$DIMSTYLE
  2
ISO-25
  9
$DIMCLRD
 70
     0
  9
$DIMCLRE
 70
     0
  9
$DIMCLRT
 70
     0
  9
$DIMTFAC
 40
1.0
  9
$DIMGAP
 40
1.524
  9
$DIMJUST
 70
     0
  9
$DIMSD1
 70
     0
  9
$DIMSD2
 70
     0
  9
$DIMTOLJ
 70
     0
  9
$DIMTZIN
 70
     0
  9
$DIMALTZ
 70
     0
  9
$DIMALTTZ
 70
     0
  9
$DIMUPT
 70
     0
  9
$DIMDEC
 70
     3
  9
$DIMTDEC
 70
     3
  9
$DIMALTU
 70
     2
  9
$DIMALTTD
 70
     3
  9
$DIMTXSTY
  7
Standard
  9
$DIMAUNIT
 70
     0
  9
$DIMADEC
 70
     2
  9
$DIMALTRND
 40
0.0
  9
$DIMAZIN
 70
     0
  9
$DIMDSEP
 70
    44
  9
$DIMATFIT
 70
     3
  9
$DIMFRAC
 70
     0
  9
$DIMLDRBLK
  1

  9
$DIMLUNIT
 70
     2
  9
$DIMLWD
 70
    -2
  9
$DIMLWE
 70
    -2
  9
$DIMTMOVE
 70
     0
  9
$LUNITS
 70
     2
  9
$LUPREC
 70
     2
  9
$SKETCHINC
 40
1.0
  9
$FILLETRAD
 40
10.0
  9
$AUNITS
 70
     0
  9
$AUPREC
 70
     2
  9
$MENU
  1
.
  9
$ELEVATION
 40
0.0
  9
$PELEVATION
 40
0.0
  9
$THICKNESS
 40
0.0
  9
$LIMCHECK
 70
     0
  9
$CHAMFERA
 40
10.0
  9
$CHAMFERB
 40
10.0
  9
$CHAMFERC
 40
20.0
  9
$CHAMFERD
 40
0.0
  9
$SKPOLY
 70
     0
  9
$TDCREATE
 40
2455672.50415581
  9
$TDUCREATE
 40
2455672.420822477
  9
$TDUPDATE
 40
2455672.504155822
  9
$TDUUPDATE
 40
2455672.420822489
  9
$TDINDWG
 40
0.0000000116
  9
$TDUSRTIMER
 40
0.0000000116
  9
$USRTIMER
 70
     1
  9
$ANGBASE
 50
0.0
  9
$ANGDIR
 70
     0
  9
$PDMODE
 70
     0
  9
$PDSIZE
 40
-1.0
  9
$PLINEWID
 40
0.0
  9
$SPLFRAME
 70
     0
  9
$SPLINETYPE
 70
     6
  9
$SPLINESEGS
 70
     8
  9
$HANDSEED
  5
F8
  9
$SURFTAB1
 70
     6
  9
$SURFTAB2
 70
     6
  9
$SURFTYPE
 70
     6
  9
$SURFU
 70
     6
  9
$SURFV
 70
     6
  9
$UCSBASE
  2

  9
$UCSNAME
  2

  9
$UCSORG
 10
0.0
 20
0.0
 30
0.0
  9
$UCSXDIR
 10
1.0
 20
0.0
 30
0.0
  9
$UCSYDIR
 10
0.0
 20
1.0
 30
0.0
  9
$UCSORTHOREF
  2

  9
$UCSORTHOVIEW
 70
     0
  9
$UCSORGTOP
 10
0.0
 20
0.0
 30
0.0
  9
$UCSORGBOTTOM
 10
0.0
 20
0.0
 30
0.0
  9
$UCSORGLEFT
 10
0.0
 20
0.0
 30
0.0
  9
$UCSORGRIGHT
 10
0.0
 20
0.0
 30
0.0
  9
$UCSORGFRONT
 10
0.0
 20
0.0
 30
0.0
  9
$UCSORGBACK
 10
0.0
 20
0.0
 30
0.0
  9
$PUCSBASE
  2

  9
$PUCSNAME
  2

  9
$PUCSORG
 10
0.0
 20
0.0
 30
0.0
  9
$PUCSXDIR
 10
1.0
 20
0.0
 30
0.0
  9
$PUCSYDIR
 10
0.0
 20
1.0
 30
0.0
  9
$PUCSORTHOREF
  2

  9
$PUCSORTHOVIEW
 70
     0
  9
$PUCSORGTOP
 10
0.0
 20
0.0
 30
0.0
  9
$PUCSORGBOTTOM
 10
0.0
 20
0.0
 30
0.0
  9
$PUCSORGLEFT
 10
0.0
 20
0.0
 30
0.0
  9
$PUCSORGRIGHT
 10
0.0
 20
0.0
 30
0.0
  9
$PUCSORGFRONT
 10
0.0
 20
0.0
 30
0.0
  9
$PUCSORGBACK
 10
0.0
 20
0.0
 30
0.0
  9
$USERI1
 70
     0
  9
$USERI2
 70
     0
  9
$USERI3
 70
     0
  9
$USERI4
 70
     0
  9
$USERI5
 70
     0
  9
$USERR1
 40
0.0
  9
$USERR2
 40
0.0
  9
$USERR3
 40
0.0
  9
$USERR4
 40
0.0
  9
$USERR5
 40
0.0
  9
$WORLDVIEW
 70
     1
  9
$SHADEDGE
 70
     3
  9
$SHADEDIF
 70
    70
  9
$TILEMODE
 70
     1
  9
$MAXACTVP
 70
    64
  9
$PINSBASE
 10
0.0
 20
0.0
 30
0.0
  9
$PLIMCHECK
 70
     0
  9
$PEXTMIN
 10
1.0000000000E+20
 20
1.0000000000E+20
 30
1.0000000000E+20
  9
$PEXTMAX
 10
-1.0000000000E+20
 20
-1.0000000000E+20
 30
-1.0000000000E+20
  9
$PLIMMIN
 10
0.0
 20
0.0
  9
$PLIMMAX
 10
420.0
 20
297.0
  9
$UNITMODE
 70
     0
  9
$VISRETAIN
 70
     1
  9
$PLINEGEN
 70
     0
  9
$PSLTSCALE
 70
     1
  9
$TREEDEPTH
 70
  3020
  9
$CMLSTYLE
  2
Standard
  9
$CMLJUST
 70
     0
  9
$CMLSCALE
 40
20.0
  9
$PROXYGRAPHICS
 70
     1
  9
$MEASUREMENT
 70
     1
  9
$CELWEIGHT
370
    -1
  9
$ENDCAPS
280
     0
  9
$JOINSTYLE
280
     0
  9
$LWDISPLAY
290
     1
  9
$INSUNITS
 70
     4
  9
$HYPERLINKBASE
  1

  9
$STYLESHEET
  1

  9
$XEDIT
290
     1
  9
$CEPSNTYPE
380
     0
  9
$PSTYLEMODE
290
     1
  9
$FINGERPRINTGUID
  2
{D4FABEC9-3319-43F5-826A-71F079842FA8}
  9
$VERSIONGUID
  2
{FAEB1C32-E019-11D5-929B-00C0DF256EC4}
  9
$EXTNAMES
290
     1
  9
$PSVPSCALE
 40
0.0
  9
$OLESTARTUP
290
     0
  0
ENDSEC
  0
SECTION
  2
CLASSES
  0
CLASS
  1
ACDBDICTIONARYWDFLT
  2
AcDbDictionaryWithDefault
  3
ObjectDBX Classes
 90
        0
280
     0
281
     0
  0
CLASS
  1
VISUALSTYLE
  2
AcDbVisualStyle
  3
ObjectDBX Classes
 90
     4095
280
     0
281
     0
  0
CLASS
  1
DICTIONARYVAR
  2
AcDbDictionaryVar
  3
ObjectDBX Classes
 90
        0
280
     0
281
     0
  0
CLASS
  1
ACDBPLACEHOLDER
  2
AcDbPlaceHolder
  3
ObjectDBX Classes
 90
        0
280
     0
281
     0
  0
CLASS
  1
LAYOUT
  2
AcDbLayout
  3
ObjectDBX Classes
 90
        0
280
     0
281
     0
  0
ENDSEC
  0
SECTION
  2
TABLES
  0
TABLE
  2
VPORT
  5
8
330
0
100
AcDbSymbolTable
 70
     1
  0
VPORT
  5
29
330
8
100
AcDbSymbolTableRecord
100
AcDbViewportTableRecord
  2
*Active
 70
     0
 10
0.0
 20
0.0
 11
1.0
 21
1.0
 12
215.9
 22
139.7
 13
0.0
 23
0.0
 14
10.0
 24
10.0
 15
10.0
 25
10.0
 16
0.0
 26
0.0
 36
1.0
 17
0.0
 27
0.0
 37
0.0
 40
279.4
 41
1.5454545455
 42
50.0
 43
0.0
 44
0.0
 50
0.0
 51
0.0
 71
     0
 72
  2000
 73
     1
 74
     3
 75
     0
 76
     0
 77
     0
 78
     0
281
     0
 65
     1
110
0.0
120
0.0
130
0.0
111
1.0
121
0.0
131
0.0
112
0.0
122
1.0
132
0.0
 79
     0
146
0.0
  0
ENDTAB
  0
TABLE
  2
LTYPE
  5
5
330
0
100
AcDbSymbolTable
 70
     6
  0
LTYPE
  5
14
330
5
100
AcDbSymbolTableRecord
100
AcDbLinetypeTableRecord
  2
ByBlock
 70
     0
  3

 72
    65
 73
     0
 40
0.0
  0
LTYPE
  5
15
330
5
100
AcDbSymbolTableRecord
100
AcDbLinetypeTableRecord
  2
ByLayer
 70
     0
  3

 72
    65
 73
     0
 40
0.0
  0
LTYPE
  5
16
330
5
100
AcDbSymbolTableRecord
100
AcDbLinetypeTableRecord
  2
Continuous
 70
     0
  3
Solid line
 72
    65
 73
     0
 40
0.0
  0
LTYPE
  5
3B
330
5
100
AcDbSymbolTableRecord
100
AcDbLinetypeTableRecord
  2
HIDDEN
 70
     0
  3
Hidden __ __ __ __ __ __ __ __ __ __ __ __ __ __
 72
    65
 73
     2
 40
1.905
 49
1.27
 74
     0
 49
-0.635
 74
     0
  0
LTYPE
  5
3C
330
5
100
AcDbSymbolTableRecord
100
AcDbLinetypeTableRecord
  2
PHANTOM
 70
     0
  3
Phantom ______  __  __  ______  __  __  ______
 72
    65
 73
     6
 40
12.7
 49
6.35
 74
     0
 49
-1.27
 74
     0
 49
1.27
 74
     0
 49
-1.27
 74
     0
 49
1.27
 74
     0
 49
-1.27
 74
     0
  0
LTYPE
  5
3D
330
5
100
AcDbSymbolTableRecord
100
AcDbLinetypeTableRecord
  2
CENTER
 70
     0
  3
Center ____ _ ____ _ ____ _ ____ _ ____ _ ____
 72
    65
 73
     4
 40
10.16
 49
6.35
 74
     0
 49
-1.27
 74
     0
 49
1.27
 74
     0
 49
-1.27
 74
     0
  0
LTYPE
  5
3E
330
5
100
AcDbSymbolTableRecord
100
AcDbLinetypeTableRecord
  2
CENTERX2
 70
     0
  3
Center (2x) ________  __  ________  __  _____
 72
    65
 73
     4
 40
20.32
 49
12.7
 74
     0
 49
-2.54
 74
     0
 49
2.54
 74
     0
 49
-2.54
 74
     0
  0
LTYPE
  5
3F
330
5
100
AcDbSymbolTableRecord
100
AcDbLinetypeTableRecord
  2
DOT2
 70
     0
  3
Dot (.5x) ........................................
 72
    65
 73
     2
 40
0.635
 49
0.0
 74
     0
 49
-0.635
 74
     0
  0
ENDTAB
  0
TABLE
  2
LAYER
  5
2
330
0
100
AcDbSymbolTable
 70
     1
  0
LAYER
  5
10
330
2
100
AcDbSymbolTableRecord
100
AcDbLayerTableRecord
  2
0
 70
     0
 62
     7
  6
Continuous
370
    -3
390
F
  0
ENDTAB
  0
TABLE
  2
STYLE
  5
3
330
0
100
AcDbSymbolTable
 70
     1
  0
STYLE
  5
11
330
3
100
AcDbSymbolTableRecord
100
AcDbTextStyleTableRecord
  2
Standard
 70
     0
 40
0.0
 41
1.0
 50
0.0
 71
     0
 42
2.5
  3
txt
  4

  0
ENDTAB
  0
TABLE
  2
VIEW
  5
6
330
0
100
AcDbSymbolTable
 70
     0
  0
ENDTAB
  0
TABLE
  2
UCS
  5
7
330
0
100
AcDbSymbolTable
 70
     0
  0
ENDTAB
  0
TABLE
  2
APPID
  5
9
330
0
100
AcDbSymbolTable
 70
     1
  0
APPID
  5
12
330
9
100
AcDbSymbolTableRecord
100
AcDbRegAppTableRecord
  2
ACAD
 70
     0
  0
ENDTAB
  0
TABLE
  2
DIMSTYLE
  5
A
330
0
100
AcDbSymbolTable
 70
     1
100
AcDbDimStyleTable
  0
DIMSTYLE
105
27
330
A
100
AcDbSymbolTableRecord
100
AcDbDimStyleTableRecord
  2
ISO-25
 70
     0
 41
2.5
 42
0.625
 43
3.75
 44
1.25
 73
     0
 74
     0
 77
     1
 78
     8
140
2.5
141
2.5
143
0.0393700787
147
0.625
171
     3
172
     1
271
     2
272
     2
274
     3
278
    44
283
     0
284
     8
340
11
  0
ENDTAB
  0
TABLE
  2
BLOCK_RECORD
  5
1
330
0
100
AcDbSymbolTable
 70
     1
  0
BLOCK_RECORD
  5
1F
330
1
100
AcDbSymbolTableRecord
100
AcDbBlockTableRecord
  2
*Model_Space
340
22
  0
BLOCK_RECORD
  5
1B
330
1
100
AcDbSymbolTableRecord
100
AcDbBlockTableRecord
  2
*Paper_Space
340
1E
  0
BLOCK_RECORD
  5
23
330
1
100
AcDbSymbolTableRecord
100
AcDbBlockTableRecord
  2
*Paper_Space0
340
26
  0
ENDTAB
  0
ENDSEC
  0
SECTION
  2
BLOCKS
  0
BLOCK
  5
20
330
1F
100
AcDbEntity
  8
0
100
AcDbBlockBegin
  2
*Model_Space
 70
     0
 10
0.0
 20
0.0
 30
0.0
  3
*Model_Space
  1

  0
ENDBLK
  5
21
330
1F
100
AcDbEntity
  8
0
100
AcDbBlockEnd
  0
BLOCK
  5
1C
330
1B
100
AcDbEntity
 67
     1
  8
0
100
AcDbBlockBegin
  2
*Paper_Space
 70
     0
 10
0.0
 20
0.0
 30
0.0
  3
*Paper_Space
  1

  0
ENDBLK
  5
1D
330
1B
100
AcDbEntity
 67
     1
  8
0
100
AcDbBlockEnd
  0
BLOCK
  5
24
330
23
100
AcDbEntity
  8
0
100
AcDbBlockBegin
  2
*Paper_Space0
 70
     0
 10
0.0
 20
0.0
 30
0.0
  3
*Paper_Space0
  1

  0
ENDBLK
  5
25
330
23
100
AcDbEntity
  8
0
100
AcDbBlockEnd
  0
ENDSEC
  0
SECTION
  2
ENTITIES
  0
LINE
  5
40
330
1F
100
AcDbEntity
  8
0
  6
Continuous
 62
     7
370
    15
100
AcDbLine
 10
69.1949335938
 20
233.443109375
 30
0.0
 11
78.4851541833
 21
233.443109375
 31
0.0
  0
LINE
  5
41
330
1F
100
AcDbEntity
  8
0
  6
Continuous
 62
     7
370
    15
100
AcDbLine
 10
116.9047130043
 20
233.443109375
 30
0.0
 11
200.4851541833
 21
233.443109375
 31
0.0
  0
LINE
  5
42
330
1F
100
AcDbEntity
  8
0
  6
Continuous
 62
     7
370
    15
100
AcDbLine
 10
238.9047130042
 20
233.443109375
 30
0.0
 11
248.1949335937
 21
233.443109375
 31
0.0
  0
LINE
  5
43
330
1F
100
AcDbEntity
  8
0
  6
Continuous
 62
     7
370
    15
100
AcDbLine
 10
248.1949335937
 20
240.443109375
 30
0.0
 11
235.0577336315
 21
240.443109375
 31
0.0
  0
LINE
  5
44
330
1F
100
AcDbEntity
  8
0
  6
Continuous
 62
     7
370
    15
100
AcDbLine
 10
204.332133556
 20
240.443109375
 30
0.0
 11
113.0577336315
 21
240.443109375
 31
0.0
  0
LINE
  5
45
330
1F
100
AcDbEntity
  8
0
  6
Continuous
 62
     7
370
    15
100
AcDbLine
 10
82.332133556
 20
240.443109375
 30
0.0
 11
69.1949335938
 21
240.443109375
 31
0.0
  0
LINE
  5
46
330
1F
100
AcDbEntity
  8
0
  6
Continuous
 62
     7
370
    15
100
AcDbLine
 10
248.1949335937
 20
233.443109375
 30
0.0
 11
248.6949335937
 21
233.943109375
 31
0.0
  0
LINE
  5
47
330
1F
100
AcDbEntity
  8
0
  6
Continuous
 62
     7
370
    15
100
AcDbLine
 10
248.6949335937
 20
239.943109375
 30
0.0
 11
248.1949335937
 21
240.443109375
 31
0.0
  0
LINE
  5
48
330
1F
100
AcDbEntity
  8
0
  6
Continuous
 62
     7
370
    15
100
AcDbLine
 10
69.1949335938
 20
240.443109375
 30
0.0
 11
68.6949335937
 21
239.943109375
 31
0.0
  0
LINE
  5
49
330
1F
100
AcDbEntity
  8
0
  6
Continuous
 62
     7
370
    15
100
AcDbLine
 10
68.6949335937
 20
233.943109375
 30
0.0
 11
69.1949335938
 21
233.443109375
 31
0.0
  0
LINE
  5
4A
330
1F
100
AcDbEntity
  8
0
  6
Continuous
 62
     7
370
    15
100
AcDbLine
 10
248.1949335937
 20
214.443109375
 30
0.0
 11
248.6949335937
 21
214.943109375
 31
0.0
  0
LINE
  5
4B
330
1F
100
AcDbEntity
  8
0
  6
Continuous
 62
     7
370
    15
100
AcDbLine
 10
248.6949335937
 20
220.943109375
 30
0.0
 11
248.1949335937
 21
221.443109375
 31
0.0
  0
LINE
  5
4C
330
1F
100
AcDbEntity
  8
0
  6
Continuous
 62
     7
370
    15
100
AcDbLine
 10
69.1949335938
 20
214.443109375
 30
0.0
 11
82.332133556
 21
214.443109375
 31
0.0
  0
LINE
  5
4D
330
1F
100
AcDbEntity
  8
0
  6
Continuous
 62
     7
370
    15
100
AcDbLine
 10
113.0577336315
 20
214.443109375
 30
0.0
 11
204.332133556
 21
214.443109375
 31
0.0
  0
LINE
  5
4E
330
1F
100
AcDbEntity
  8
0
  6
Continuous
 62
     7
370
    15
100
AcDbLine
 10
235.0577336315
 20
214.443109375
 30
0.0
 11
248.1949335937
 21
214.443109375
 31
0.0
  0
LINE
  5
4F
330
1F
100
AcDbEntity
  8
0
  6
Continuous
 62
     7
370
    15
100
AcDbLine
 10
248.1949335937
 20
221.443109375
 30
0.0
 11
238.9047130042
 21
221.443109375
 31
0.0
  0
LINE
  5
50
330
1F
100
AcDbEntity
  8
0
  6
Continuous
 62
     7
370
    15
100
AcDbLine
 10
200.4851541833
 20
221.443109375
 30
0.0
 11
116.9047130043
 21
221.443109375
 31
0.0
  0
LINE
  5
51
330
1F
100
AcDbEntity
  8
0
  6
Continuous
 62
     7
370
    15
100
AcDbLine
 10
78.4851541833
 20
221.443109375
 30
0.0
 11
69.1949335938
 21
221.443109375
 31
0.0
  0
LINE
  5
52
330
1F
100
AcDbEntity
  8
0
  6
Continuous
 62
     7
370
    15
100
AcDbLine
 10
69.1949335938
 20
221.443109375
 30
0.0
 11
68.6949335937
 21
220.943109375
 31
0.0
  0
LINE
  5
53
330
1F
100
AcDbEntity
  8
0
  6
Continuous
 62
     7
370
    15
100
AcDbLine
 10
68.6949335937
 20
214.943109375
 30
0.0
 11
69.1949335938
 21
214.443109375
 31
0.0
  0
CIRCLE
  5
54
330
1F
100
AcDbEntity
  8
0
  6
Continuous
 62
     7
370
    15
100
AcDbCircle
 10
97.6949335937
 20
227.443109375
 30
0.0
 40
19.125
  0
CIRCLE
  5
55
330
1F
100
AcDbEntity
  8
0
  6
Continuous
 62
     7
370
    15
100
AcDbCircle
 10
97.6949335937
 20
227.443109375
 30
0.0
 40
20.125
  0
CIRCLE
  5
56
330
1F
100
AcDbEntity
  8
0
  6
Continuous
 62
     7
370
    15
100
AcDbCircle
 10
219.6949335937
 20
227.443109375
 30
0.0
 40
20.125
  0
CIRCLE
  5
57
330
1F
100
AcDbEntity
  8
0
  6
Continuous
 62
     7
370
    15
100
AcDbCircle
 10
219.6949335937
 20
227.443109375
 30
0.0
 40
19.125
  0
CIRCLE
  5
58
330
1F
100
AcDbEntity
  8
0
  6
Continuous
 62
     7
370
    15
100
AcDbCircle
 10
97.6949335937
 20
227.443109375
 30
0.0
 40
19.0
  0
CIRCLE
  5
59
330
1F
100
AcDbEntity
  8
0
  6
Continuous
 62
     7
370
    15
100
AcDbCircle
 10
105.6949335937
 20
227.443109375
 30
0.0
 40
1.249999999999986
  0
CIRCLE
  5
5A
330
1F
100
AcDbEntity
  8
0
  6
Continuous
 62
     7
370
    15
100
AcDbCircle
 10
97.6949335937
 20
235.443109375
 30
0.0
 40
1.249999999999986
  0
CIRCLE
  5
5B
330
1F
100
AcDbEntity
  8
0
  6
Continuous
 62
     7
370
    15
100
AcDbCircle
 10
89.6949335937
 20
227.443109375
 30
0.0
 40
1.249999999999986
  0
CIRCLE
  5
5C
330
1F
100
AcDbEntity
  8
0
  6
Continuous
 62
     7
370
    15
100
AcDbCircle
 10
97.6949335937
 20
219.443109375
 30
0.0
 40
1.249999999999986
  0
CIRCLE
  5
5D
330
1F
100
AcDbEntity
  8
0
  6
Continuous
 62
     7
370
    15
100
AcDbCircle
 10
219.6949335937
 20
219.443109375
 30
0.0
 40
1.249999999999972
  0
CIRCLE
  5
5E
330
1F
100
AcDbEntity
  8
0
  6
Continuous
 62
     7
370
    15
100
AcDbCircle
 10
211.6949335937
 20
227.443109375
 30
0.0
 40
1.249999999999972
  0
CIRCLE
  5
5F
330
1F
100
AcDbEntity
  8
0
  6
Continuous
 62
     7
370
    15
100
AcDbCircle
 10
219.6949335937
 20
235.443109375
 30
0.0
 40
1.249999999999972
  0
CIRCLE
  5
60
330
1F
100
AcDbEntity
  8
0
  6
Continuous
 62
     7
370
    15
100
AcDbCircle
 10
219.6949335937
 20
227.443109375
 30
0.0
 40
19.00000000000003
  0
CIRCLE
  5
61
330
1F
100
AcDbEntity
  8
0
  6
Continuous
 62
     7
370
    15
100
AcDbCircle
 10
227.6949335937
 20
227.443109375
 30
0.0
 40
1.25
  0
LINE
  5
62
330
1F
100
AcDbEntity
  8
0
  6
Continuous
 62
     7
370
    15
100
AcDbLine
 10
69.1949335938
 20
240.443109375
 30
0.0
 11
69.1949335938
 21
233.443109375
 31
0.0
  0
LINE
  5
63
330
1F
100
AcDbEntity
  8
0
  6
Continuous
 62
     7
370
    15
100
AcDbLine
 10
248.1949335937
 20
233.443109375
 30
0.0
 11
248.1949335937
 21
240.443109375
 31
0.0
  0
LINE
  5
64
330
1F
100
AcDbEntity
  8
0
  6
Continuous
 62
     7
370
    15
100
AcDbLine
 10
248.6949335937
 20
239.943109375
 30
0.0
 11
248.6949335937
 21
233.943109375
 31
0.0
  0
LINE
  5
65
330
1F
100
AcDbEntity
  8
0
  6
Continuous
 62
     7
370
    15
100
AcDbLine
 10
68.6949335937
 20
233.943109375
 30
0.0
 11
68.6949335937
 21
239.943109375
 31
0.0
  0
LINE
  5
66
330
1F
100
AcDbEntity
  8
0
  6
Continuous
 62
     7
370
    15
100
AcDbLine
 10
248.6949335937
 20
220.943109375
 30
0.0
 11
248.6949335937
 21
214.943109375
 31
0.0
  0
LINE
  5
67
330
1F
100
AcDbEntity
  8
0
  6
Continuous
 62
     7
370
    15
100
AcDbLine
 10
248.1949335937
 20
214.443109375
 30
0.0
 11
248.1949335937
 21
221.443109375
 31
0.0
  0
LINE
  5
68
330
1F
100
AcDbEntity
  8
0
  6
Continuous
 62
     7
370
    15
100
AcDbLine
 10
69.1949335938
 20
221.443109375
 30
0.0
 11
69.1949335938
 21
214.443109375
 31
0.0
  0
LINE
  5
69
330
1F
100
AcDbEntity
  8
0
  6
Continuous
 62
     7
370
    15
100
AcDbLine
 10
68.6949335937
 20
214.943109375
 30
0.0
 11
68.6949335937
 21
220.943109375
 31
0.0
  0
LINE
  5
6A
330
1F
100
AcDbEntity
  8
0
  6
Continuous
 62
     7
370
    15
100
AcDbLine
 10
117.8199335937
 20
72.2346206638
 30
0.0
 11
112.9199335937
 21
77.1346206638
 31
0.0
  0
LINE
  5
6B
330
1F
100
AcDbEntity
  8
0
  6
Continuous
 62
     7
370
    15
100
AcDbLine
 10
82.4699335937
 20
77.1346206638
 30
0.0
 11
77.5699335937
 21
72.2346206638
 31
0.0
  0
LINE
  5
6C
330
1F
100
AcDbEntity
  8
0
  6
Continuous
 62
     7
370
    15
100
AcDbLine
 10
82.4699335937
 20
79.7346206638
 30
0.0
 11
82.4699335937
 21
77.1346206638
 31
0.0
  0
LINE
  5
6D
330
1F
100
AcDbEntity
  8
0
  6
Continuous
 62
     7
370
    15
100
AcDbLine
 10
112.9199335937
 20
77.1346206638
 30
0.0
 11
112.9199335937
 21
79.7346206638
 31
0.0
  0
LINE
  5
6E
330
1F
100
AcDbEntity
  8
0
  6
Continuous
 62
     7
370
    15
100
AcDbLine
 10
239.8199335937
 20
72.2346206638
 30
0.0
 11
234.9199335937
 21
77.1346206638
 31
0.0
  0
LINE
  5
6F
330
1F
100
AcDbEntity
  8
0
  6
Continuous
 62
     7
370
    15
100
AcDbLine
 10
204.4699335937
 20
77.1346206638
 30
0.0
 11
199.5699335937
 21
72.2346206638
 31
0.0
  0
LINE
  5
70
330
1F
100
AcDbEntity
  8
0
  6
Continuous
 62
     7
370
    15
100
AcDbLine
 10
204.4699335937
 20
79.7346206638
 30
0.0
 11
204.4699335937
 21
77.1346206638
 31
0.0
  0
LINE
  5
71
330
1F
100
AcDbEntity
  8
0
  6
Continuous
 62
     7
370
    15
100
AcDbLine
 10
234.9199335937
 20
77.1346206638
 30
0.0
 11
234.9199335937
 21
79.7346206638
 31
0.0
  0
LINE
  5
72
330
1F
100
AcDbEntity
  8
0
  6
Continuous
 62
     7
370
    15
100
AcDbLine
 10
102.6949335937
 20
79.7346206638
 30
0.0
 11
102.6949335937
 21
84.2346206638
 31
0.0
  0
LINE
  5
73
330
1F
100
AcDbEntity
  8
0
  6
Continuous
 62
     7
370
    15
100
AcDbLine
 10
92.6949335937
 20
84.2346206638
 30
0.0
 11
92.6949335937
 21
79.7346206638
 31
0.0
  0
LINE
  5
74
330
1F
100
AcDbEntity
  8
0
  6
Continuous
 62
     7
370
    15
100
AcDbLine
 10
224.6949335937
 20
79.7346206638
 30
0.0
 11
224.6949335937
 21
84.2346206638
 31
0.0
  0
LINE
  5
75
330
1F
100
AcDbEntity
  8
0
  6
Continuous
 62
     7
370
    15
100
AcDbLine
 10
214.6949335937
 20
84.2346206638
 30
0.0
 11
214.6949335937
 21
79.7346206638
 31
0.0
  0
LINE
  5
76
330
1F
100
AcDbEntity
  8
0
  6
Continuous
 62
     7
370
    15
100
AcDbLine
 10
69.1949335938
 20
103.4222699612
 30
0.0
 11
81.9411090173
 21
103.4222699612
 31
0.0
  0
LINE
  5
77
330
1F
100
AcDbEntity
  8
0
  6
Continuous
 62
     7
370
    15
100
AcDbLine
 10
113.4487466101
 20
103.4222699612
 30
0.0
 11
203.9411090173
 21
103.4222699612
 31
0.0
  0
LINE
  5
78
330
1F
100
AcDbEntity
  8
0
  6
Continuous
 62
     7
370
    15
100
AcDbLine
 10
235.4487466101
 20
103.4222699612
 30
0.0
 11
248.1949335937
 21
103.4222699612
 31
0.0
  0
LINE
  5
79
330
1F
100
AcDbEntity
  8
0
  6
Continuous
 62
     7
370
    15
100
AcDbLine
 10
248.1949335937
 20
110.4222699612
 30
0.0
 11
236.1494162657
 21
110.4222699612
 31
0.0
  0
LINE
  5
7A
330
1F
100
AcDbEntity
  8
0
  6
Continuous
 62
     7
370
    15
100
AcDbLine
 10
203.2404509218
 20
110.4222699612
 30
0.0
 11
114.1494162657
 21
110.4222699612
 31
0.0
  0
LINE
  5
7B
330
1F
100
AcDbEntity
  8
0
  6
Continuous
 62
     7
370
    15
100
AcDbLine
 10
81.2404509218
 20
110.4222699612
 30
0.0
 11
69.1949335938
 21
110.4222699612
 31
0.0
  0
LINE
  5
7C
330
1F
100
AcDbEntity
  8
0
  6
Continuous
 62
     7
370
    15
100
AcDbLine
 10
69.1949335938
 20
110.4222699612
 30
0.0
 11
68.6949335937
 21
109.9222699612
 31
0.0
  0
LINE
  5
7D
330
1F
100
AcDbEntity
  8
0
  6
Continuous
 62
     7
370
    15
100
AcDbLine
 10
68.6949335937
 20
103.9222699612
 30
0.0
 11
69.1949335938
 21
103.4222699612
 31
0.0
  0
LINE
  5
7E
330
1F
100
AcDbEntity
  8
0
  6
Continuous
 62
     7
370
    15
100
AcDbLine
 10
248.1949335937
 20
103.4222699612
 30
0.0
 11
248.6949335937
 21
103.9222699612
 31
0.0
  0
LINE
  5
7F
330
1F
100
AcDbEntity
  8
0
  6
Continuous
 62
     7
370
    15
100
AcDbLine
 10
248.6949335937
 20
109.9222699612
 30
0.0
 11
248.1949335937
 21
110.4222699612
 31
0.0
  0
LINE
  5
80
330
1F
100
AcDbEntity
  8
0
  6
Continuous
 62
     7
370
    15
100
AcDbLine
 10
116.6949335937
 20
118.9222699612
 30
0.0
 11
116.1949335937
 21
119.4222699612
 31
0.0
  0
LINE
  5
81
330
1F
100
AcDbEntity
  8
0
  6
Continuous
 62
     7
370
    15
100
AcDbLine
 10
79.1949335937
 20
119.4222699612
 30
0.0
 11
78.6949335937
 21
118.9222699612
 31
0.0
  0
LINE
  5
82
330
1F
100
AcDbEntity
  8
0
  6
Continuous
 62
     7
370
    15
100
AcDbLine
 10
116.6949335937
 20
110.4222699612
 30
0.0
 11
116.6949335937
 21
118.9222699612
 31
0.0
  0
LINE
  5
83
330
1F
100
AcDbEntity
  8
0
  6
Continuous
 62
     7
370
    15
100
AcDbLine
 10
78.6949335937
 20
118.9222699612
 30
0.0
 11
78.6949335937
 21
110.4222699612
 31
0.0
  0
LINE
  5
84
330
1F
100
AcDbEntity
  8
0
  6
Continuous
 62
     7
370
    15
100
AcDbLine
 10
238.6949335937
 20
118.9222699612
 30
0.0
 11
238.1949335937
 21
119.4222699612
 31
0.0
  0
LINE
  5
85
330
1F
100
AcDbEntity
  8
0
  6
Continuous
 62
     7
370
    15
100
AcDbLine
 10
201.1949335937
 20
119.4222699612
 30
0.0
 11
200.6949335937
 21
118.9222699612
 31
0.0
  0
LINE
  5
86
330
1F
100
AcDbEntity
  8
0
  6
Continuous
 62
     7
370
    15
100
AcDbLine
 10
238.6949335937
 20
110.4222699612
 30
0.0
 11
238.6949335937
 21
118.9222699612
 31
0.0
  0
LINE
  5
87
330
1F
100
AcDbEntity
  8
0
  6
Continuous
 62
     7
370
    15
100
AcDbLine
 10
200.6949335937
 20
118.9222699612
 30
0.0
 11
200.6949335937
 21
110.4222699612
 31
0.0
  0
LINE
  5
88
330
1F
100
AcDbEntity
  8
0
  6
Continuous
 62
     7
370
    15
100
AcDbLine
 10
238.6949335937
 20
86.4346206638
 30
0.0
 11
238.6949335937
 21
103.4222699612
 31
0.0
  0
LINE
  5
89
330
1F
100
AcDbEntity
  8
0
  6
Continuous
 62
     7
370
    15
100
AcDbLine
 10
200.6949335937
 20
103.4222699612
 30
0.0
 11
200.6949335937
 21
86.4346206638
 31
0.0
  0
LINE
  5
8A
330
1F
100
AcDbEntity
  8
0
  6
Continuous
 62
     7
370
    15
100
AcDbLine
 10
200.6949335937
 20
86.4346206638
 30
0.0
 11
200.8949335937
 21
86.2346206638
 31
0.0
  0
LINE
  5
8B
330
1F
100
AcDbEntity
  8
0
  6
Continuous
 62
     7
370
    15
100
AcDbLine
 10
238.4949335937
 20
86.2346206638
 30
0.0
 11
238.6949335937
 21
86.4346206638
 31
0.0
  0
LINE
  5
8C
330
1F
100
AcDbEntity
  8
0
  6
Continuous
 62
     7
370
    15
100
AcDbLine
 10
116.6949335937
 20
86.4346206638
 30
0.0
 11
116.6949335937
 21
103.4222699612
 31
0.0
  0
LINE
  5
8D
330
1F
100
AcDbEntity
  8
0
  6
Continuous
 62
     7
370
    15
100
AcDbLine
 10
78.6949335937
 20
103.4222699612
 30
0.0
 11
78.6949335937
 21
86.4346206638
 31
0.0
  0
LINE
  5
8E
330
1F
100
AcDbEntity
  8
0
  6
Continuous
 62
     7
370
    15
100
AcDbLine
 10
78.6949335937
 20
86.4346206638
 30
0.0
 11
78.8949335937
 21
86.2346206638
 31
0.0
  0
LINE
  5
8F
330
1F
100
AcDbEntity
  8
0
  6
Continuous
 62
     7
370
    15
100
AcDbLine
 10
116.4949335937
 20
86.2346206638
 30
0.0
 11
116.6949335937
 21
86.4346206638
 31
0.0
  0
LINE
  5
90
330
1F
100
AcDbEntity
  8
0
  6
Continuous
 62
     7
370
    15
100
AcDbLine
 10
79.6949335937
 20
86.2346206638
 30
0.0
 11
79.6949335937
 21
84.2346206638
 31
0.0
  0
LINE
  5
91
330
1F
100
AcDbEntity
  8
0
  6
Continuous
 62
     7
370
    15
100
AcDbLine
 10
115.6949335937
 20
84.2346206638
 30
0.0
 11
115.6949335937
 21
86.2346206638
 31
0.0
  0
LINE
  5
92
330
1F
100
AcDbEntity
  8
0
  6
Continuous
 62
     7
370
    15
100
AcDbLine
 10
201.6949335937
 20
86.2346206638
 30
0.0
 11
201.6949335937
 21
84.2346206638
 31
0.0
  0
LINE
  5
93
330
1F
100
AcDbEntity
  8
0
  6
Continuous
 62
     7
370
    15
100
AcDbLine
 10
237.6949335937
 20
84.2346206638
 30
0.0
 11
237.6949335937
 21
86.2346206638
 31
0.0
  0
LINE
  5
94
330
1F
100
AcDbEntity
  8
0
  6
Continuous
 62
     7
370
    15
100
AcDbLine
 10
97.6949335937
 20
77.1346206638
 30
0.0
 11
112.9199335937
 21
77.1346206638
 31
0.0
  0
LINE
  5
95
330
1F
100
AcDbEntity
  8
0
  6
Continuous
 62
     7
370
    15
100
AcDbLine
 10
82.4699335937
 20
77.1346206638
 30
0.0
 11
97.6949335937
 21
77.1346206638
 31
0.0
  0
LINE
  5
96
330
1F
100
AcDbEntity
  8
0
  6
Continuous
 62
     7
370
    15
100
AcDbLine
 10
97.6949335937
 20
72.2346206638
 30
0.0
 11
117.8199335937
 21
72.2346206638
 31
0.0
  0
LINE
  5
97
330
1F
100
AcDbEntity
  8
0
  6
Continuous
 62
     7
370
    15
100
AcDbLine
 10
77.5699335937
 20
72.2346206638
 30
0.0
 11
97.6949335937
 21
72.2346206638
 31
0.0
  0
LINE
  5
98
330
1F
100
AcDbEntity
  8
0
  6
Continuous
 62
     7
370
    15
100
AcDbLine
 10
97.6949335937
 20
79.7346206638
 30
0.0
 11
112.9199335937
 21
79.7346206638
 31
0.0
  0
LINE
  5
99
330
1F
100
AcDbEntity
  8
0
  6
Continuous
 62
     7
370
    15
100
AcDbLine
 10
82.4699335937
 20
79.7346206638
 30
0.0
 11
97.6949335937
 21
79.7346206638
 31
0.0
  0
LINE
  5
9A
330
1F
100
AcDbEntity
  8
0
  6
Continuous
 62
     7
370
    15
100
AcDbLine
 10
219.6949335937
 20
77.1346206638
 30
0.0
 11
234.9199335937
 21
77.1346206638
 31
0.0
  0
LINE
  5
9B
330
1F
100
AcDbEntity
  8
0
  6
Continuous
 62
     7
370
    15
100
AcDbLine
 10
204.4699335937
 20
77.1346206638
 30
0.0
 11
219.6949335937
 21
77.1346206638
 31
0.0
  0
LINE
  5
9C
330
1F
100
AcDbEntity
  8
0
  6
Continuous
 62
     7
370
    15
100
AcDbLine
 10
219.6949335937
 20
72.2346206638
 30
0.0
 11
239.8199335937
 21
72.2346206638
 31
0.0
  0
LINE
  5
9D
330
1F
100
AcDbEntity
  8
0
  6
Continuous
 62
     7
370
    15
100
AcDbLine
 10
199.5699335937
 20
72.2346206638
 30
0.0
 11
219.6949335937
 21
72.2346206638
 31
0.0
  0
LINE
  5
9E
330
1F
100
AcDbEntity
  8
0
  6
Continuous
 62
     7
370
    15
100
AcDbLine
 10
219.6949335937
 20
79.7346206638
 30
0.0
 11
234.9199335937
 21
79.7346206638
 31
0.0
  0
LINE
  5
9F
330
1F
100
AcDbEntity
  8
0
  6
Continuous
 62
     7
370
    15
100
AcDbLine
 10
204.4699335937
 20
79.7346206638
 30
0.0
 11
219.6949335937
 21
79.7346206638
 31
0.0
  0
LINE
  5
A0
330
1F
100
AcDbEntity
  8
0
  6
Continuous
 62
     7
370
    15
100
AcDbLine
 10
69.1949335938
 20
110.4222699612
 30
0.0
 11
69.1949335938
 21
103.4222699612
 31
0.0
  0
LINE
  5
A1
330
1F
100
AcDbEntity
  8
0
  6
Continuous
 62
     7
370
    15
100
AcDbLine
 10
248.1949335937
 20
103.4222699612
 30
0.0
 11
248.1949335937
 21
110.4222699612
 31
0.0
  0
LINE
  5
A2
330
1F
100
AcDbEntity
  8
0
  6
Continuous
 62
     7
370
    15
100
AcDbLine
 10
68.6949335937
 20
103.9222699612
 30
0.0
 11
68.6949335937
 21
109.9222699612
 31
0.0
  0
LINE
  5
A3
330
1F
100
AcDbEntity
  8
0
  6
Continuous
 62
     7
370
    15
100
AcDbLine
 10
248.6949335937
 20
109.9222699612
 30
0.0
 11
248.6949335937
 21
103.9222699612
 31
0.0
  0
LINE
  5
A4
330
1F
100
AcDbEntity
  8
0
  6
Continuous
 62
     7
370
    15
100
AcDbLine
 10
79.1949335937
 20
119.4222699612
 30
0.0
 11
116.1949335937
 21
119.4222699612
 31
0.0
  0
LINE
  5
A5
330
1F
100
AcDbEntity
  8
0
  6
Continuous
 62
     7
370
    15
100
AcDbLine
 10
116.6949335937
 20
118.9222699612
 30
0.0
 11
78.6949335937
 21
118.9222699612
 31
0.0
  0
SPLINE
  5
A6
330
1F
100
AcDbEntity
  8
0
  6
Continuous
 62
     7
370
    15
100
AcDbSpline
210
0.0
220
0.0
230
1.0
 70
     8
 71
     3
 72
    21
 73
    17
 74
     0
 42
0.00000001
 43
0.00000001
 40
0.0
 40
0.0
 40
0.0
 40
0.0
 40
0.0700484932015733
 40
0.1295726397445249
 40
0.1898597140966607
 40
0.2828643304043699
 40
0.3778374854251422
 40
0.4451501629966966
 40
0.512964568232103
 40
0.5822417037519544
 40
0.6519812745443796
 40
0.7200886335728248
 40
0.788614988365422
 40
0.858478359908368
 40
0.9288166289606531
 40
1.0
 40
1.0
 40
1.0
 40
1.0
 10
111.5849324890819
 20
107.4222699612183
 30
0.0
 10
111.6061827064464
 20
107.5507862061512
 30
0.0
 10
111.6454904293284
 20
107.7885099364546
 30
0.0
 10
111.7418426263158
 20
108.1181906079542
 30
0.0
 10
111.8731843639794
 20
108.4687220175407
 30
0.0
 10
112.0595424220213
 20
108.8448216174803
 30
0.0
 10
112.2798622953534
 20
109.1870673080947
 30
0.0
 10
112.4936337668614
 20
109.4602568444606
 30
0.0
 10
112.6917410625132
 20
109.6769331055227
 30
0.0
 10
112.897896347974
 20
109.8693148015499
 30
0.0
 10
113.1077350414874
 20
110.0344497104038
 30
0.0
 10
113.3180642661196
 20
110.171279048358
 30
0.0
 10
113.5280086645335
 20
110.2802954486872
 30
0.0
 10
113.7378146303614
 20
110.3602604529154
 30
0.0
 10
113.9468047402598
 20
110.4122983426061
 30
0.0
 10
114.0816071583001
 20
110.4189189244183
 30
0.0
 10
114.1494108562657
 20
110.4222489828555
 30
0.0
  0
LINE
  5
A7
330
1F
100
AcDbEntity
  8
0
  6
Continuous
 62
     7
370
    15
100
AcDbLine
 10
83.8049346984
 20
107.4222699612
 30
0.0
 11
111.5849324891
 21
107.4222699612
 31
0.0
  0
SPLINE
  5
A8
330
1F
100
AcDbEntity
  8
0
  6
Continuous
 62
     7
370
    15
100
AcDbSpline
210
0.0
220
0.0
230
1.0
 70
     8
 71
     3
 72
    22
 73
    18
 74
     0
 42
0.00000001
 43
0.00000001
 40
0.0
 40
0.0
 40
0.0
 40
0.0
 40
0.0084107695892053
 40
0.0689245106689757
 40
0.1297682737915566
 40
0.1962822938889635
 40
0.2631982346393111
 40
0.3313520191830542
 40
0.399925999652298
 40
0.4717150348349885
 40
0.5440330649143174
 40
0.6181805201059442
 40
0.6930532417117462
 40
0.7878764394310657
 40
0.885042660010574
 40
0.9421378461843015
 40
1.0
 40
1.0
 40
1.0
 40
1.0
 10
81.24089347572108
 20
110.4207876274832
 30
0.0
 10
81.24871490508563
 20
110.4212630974903
 30
0.0
 10
81.31280989496332
 20
110.4251594754888
 30
0.0
 10
81.43860426321602
 20
110.408670182474
 30
0.0
 10
81.62304559720278
 20
110.3689721941149
 30
0.0
 10
81.81792967892659
 20
110.2989557175528
 30
0.0
 10
82.02242847886217
 20
110.1993194024365
 30
0.0
 10
82.23000903757983
 20
110.0709196980959
 30
0.0
 10
82.44173532772868
 20
109.9116519695526
 30
0.0
 10
82.65477898436485
 20
109.7205343176451
 30
0.0
 10
82.86769480977249
 20
109.4945807848488
 30
0.0
 10
83.07457215200377
 20
109.2348384869987
 30
0.0
 10
83.28781071638679
 20
108.9145339269734
 30
0.0
 10
83.4966380658514
 20
108.5217582252115
 30
0.0
 10
83.65322490180482
 20
108.1120082469866
 30
0.0
 10
83.75406090839836
 20
107.7396858168352
 30
0.0
 10
83.78790150963238
 20
107.5285448070523
 30
0.0
 10
83.80493469841352
 20
107.4222699612184
 30
0.0
  0
LINE
  5
A9
330
1F
100
AcDbEntity
  8
0
  6
Continuous
 62
     7
370
    15
100
AcDbLine
 10
201.1949335937
 20
119.4222699612
 30
0.0
 11
238.1949335937
 21
119.4222699612
 31
0.0
  0
LINE
  5
AA
330
1F
100
AcDbEntity
  8
0
  6
Continuous
 62
     7
370
    15
100
AcDbLine
 10
238.6949335937
 20
118.9222699612
 30
0.0
 11
200.6949335937
 21
118.9222699612
 31
0.0
  0
SPLINE
  5
AB
330
1F
100
AcDbEntity
  8
0
  6
Continuous
 62
     7
370
    15
100
AcDbSpline
210
0.0
220
0.0
230
1.0
 70
     8
 71
     3
 72
    21
 73
    17
 74
     0
 42
0.00000001
 43
0.00000001
 40
0.0
 40
0.0
 40
0.0
 40
0.0
 40
0.0700484932015737
 40
0.1295726397445254
 40
0.1898597140966611
 40
0.2828643304043704
 40
0.3778374854251427
 40
0.4451501629966971
 40
0.5129645682321036
 40
0.5822417037519549
 40
0.6519812745443802
 40
0.7200886335728254
 40
0.7886149883654225
 40
0.8584783599083685
 40
0.9288166289606538
 40
1.0
 40
1.0
 40
1.0
 40
1.0
 10
233.5849324890819
 20
107.4222699612183
 30
0.0
 10
233.6061827064464
 20
107.5507862061512
 30
0.0
 10
233.6454904293284
 20
107.7885099364546
 30
0.0
 10
233.7418426263158
 20
108.1181906079542
 30
0.0
 10
233.8731843639794
 20
108.4687220175407
 30
0.0
 10
234.0595424220213
 20
108.8448216174803
 30
0.0
 10
234.2798622953535
 20
109.1870673080947
 30
0.0
 10
234.4936337668614
 20
109.4602568444606
 30
0.0
 10
234.6917410625132
 20
109.6769331055227
 30
0.0
 10
234.897896347974
 20
109.8693148015499
 30
0.0
 10
235.1077350414875
 20
110.0344497104038
 30
0.0
 10
235.3180642661196
 20
110.171279048358
 30
0.0
 10
235.5280086645335
 20
110.2802954486872
 30
0.0
 10
235.7378146303613
 20
110.3602604529154
 30
0.0
 10
235.9468047402598
 20
110.4122983426061
 30
0.0
 10
236.0816071583001
 20
110.4189189244183
 30
0.0
 10
236.1494108562657
 20
110.4222489828555
 30
0.0
  0
LINE
  5
AC
330
1F
100
AcDbEntity
  8
0
  6
Continuous
 62
     7
370
    15
100
AcDbLine
 10
205.8049346984
 20
107.4222699612
 30
0.0
 11
233.5849324891
 21
107.4222699612
 31
0.0
  0
SPLINE
  5
AD
330
1F
100
AcDbEntity
  8
0
  6
Continuous
 62
     7
370
    15
100
AcDbSpline
210
0.0
220
0.0
230
1.0
 70
     8
 71
     3
 72
    22
 73
    18
 74
     0
 42
0.00000001
 43
0.00000001
 40
0.0
 40
0.0
 40
0.0
 40
0.0
 40
0.0084107695892047
 40
0.0689245106689751
 40
0.1297682737915559
 40
0.196282293888963
 40
0.2631982346393105
 40
0.3313520191830536
 40
0.3999259996522974
 40
0.471715034834988
 40
0.5440330649143168
 40
0.6181805201059436
 40
0.6930532417117458
 40
0.7878764394310651
 40
0.8850426600105735
 40
0.9421378461843011
 40
1.0
 40
1.0
 40
1.0
 40
1.0
 10
203.2408934757211
 20
110.4207876274832
 30
0.0
 10
203.2487149050856
 20
110.4212630974903
 30
0.0
 10
203.3128098949633
 20
110.4251594754888
 30
0.0
 10
203.438604263216
 20
110.408670182474
 30
0.0
 10
203.6230455972027
 20
110.3689721941149
 30
0.0
 10
203.8179296789266
 20
110.2989557175528
 30
0.0
 10
204.0224284788621
 20
110.1993194024365
 30
0.0
 10
204.2300090375798
 20
110.0709196980958
 30
0.0
 10
204.4417353277287
 20
109.9116519695526
 30
0.0
 10
204.6547789843648
 20
109.7205343176451
 30
0.0
 10
204.8676948097725
 20
109.4945807848488
 30
0.0
 10
205.0745721520038
 20
109.2348384869987
 30
0.0
 10
205.2878107163868
 20
108.9145339269734
 30
0.0
 10
205.4966380658514
 20
108.5217582252115
 30
0.0
 10
205.6532249018048
 20
108.1120082469866
 30
0.0
 10
205.7540609083984
 20
107.7396858168352
 30
0.0
 10
205.7879015096324
 20
107.5285448070523
 30
0.0
 10
205.8049346984135
 20
107.4222699612184
 30
0.0
  0
SPLINE
  5
AE
330
1F
100
AcDbEntity
  8
0
  6
Continuous
 62
     7
370
    15
100
AcDbSpline
210
0.0
220
0.0
230
1.0
 70
     8
 71
     3
 72
    24
 73
    20
 74
     0
 42
0.00000001
 43
0.00000001
 40
0.0
 40
0.0
 40
0.0
 40
0.0
 40
0.0392217663753175
 40
0.110029108334891
 40
0.1825316289240201
 40
0.2324172090554691
 40
0.2826854361930541
 40
0.3340269906517855
 40
0.3856891407426438
 40
0.4367713388279268
 40
0.4881211812308921
 40
0.5926333974089046
 40
0.6524171814190076
 40
0.7126135401451767
 40
0.7741661673439023
 40
0.8362168086852309
 40
0.894447931311088
 40
0.9531650112287052
 40
1.0
 40
1.0
 40
1.0
 40
1.0
 10
205.7725209852235
 20
106.0346206637822
 30
0.0
 10
205.7547683184519
 20
105.9504554726715
 30
0.0
 10
205.7049666323992
 20
105.7143462459187
 30
0.0
 10
205.5823364511271
 20
105.3443781497331
 30
0.0
 10
205.4194313321752
 20
104.9849166620819
 30
0.0
 10
205.2530678753261
 20
104.6914921908231
 30
0.0
 10
205.0955968161263
 20
104.453988986348
 30
0.0
 10
204.9270048039737
 20
104.2344858047778
 30
0.0
 10
204.7504598395029
 20
104.0350438876767
 30
0.0
 10
204.5688619586418
 20
103.8568397331254
 30
0.0
 10
204.3206098063055
 20
103.646216987778
 30
0.0
 10
204.0577963859527
 20
103.472419463605
 30
0.0
 10
203.7866973387402
 20
103.3442788876267
 30
0.0
 10
203.5704718210856
 20
103.2726408656642
 30
0.0
 10
203.3565601604893
 20
103.2343490778776
 30
0.0
 10
203.1515972514182
 20
103.2317950611459
 30
0.0
 10
202.9583763155509
 20
103.265972204261
 30
0.0
 10
202.7888771574759
 20
103.3257945966324
 30
0.0
 10
202.6881587929891
 20
103.3926190007471
 30
0.0
 10
202.6434685891078
 20
103.4222699612184
 30
0.0
  0
LINE
  5
AF
330
1F
100
AcDbEntity
  8
0
  6
Continuous
 62
     7
370
    15
100
AcDbLine
 10
233.6173462023
 20
106.0346206638
 30
0.0
 11
205.7725209852
 21
106.0346206638
 31
0.0
  0
SPLINE
  5
B0
330
1F
100
AcDbEntity
  8
0
  6
Continuous
 62
     7
370
    15
100
AcDbSpline
210
0.0
220
0.0
230
1.0
 70
     8
 71
     3
 72
    24
 73
    20
 74
     0
 42
0.00000001
 43
0.00000001
 40
0.0
 40
0.0
 40
0.0
 40
0.0
 40
0.0122197092295965
 40
0.1070217501045045
 40
0.2040351420676361
 40
0.2569851324089663
 40
0.3102460376568029
 40
0.3644414606724907
 40
0.4189430674678872
 40
0.4778558856636239
 40
0.5371541058175913
 40
0.5977020447459451
 40
0.6587057064432204
 40
0.7524881528070767
 40
0.8004288037881565
 40
0.848726147782554
 40
0.9215615574117054
 40
0.9962968543224814
 40
0.9999999999999999
 40
0.9999999999999999
 40
0.9999999999999999
 40
0.9999999999999999
 10
236.743367357138
 20
103.4222699612184
 30
0.0
 10
236.7323099718289
 20
103.4127300036302
 30
0.0
 10
236.6354680007867
 20
103.3291778553896
 30
0.0
 10
236.4223343732814
 20
103.2585292260831
 30
0.0
 10
236.1552106892882
 20
103.2245400516849
 30
0.0
 10
235.9215704987799
 20
103.2516744348921
 30
0.0
 10
235.7330038846931
 20
103.2985612679671
 30
0.0
 10
235.5392193647023
 20
103.3722792832946
 30
0.0
 10
235.3365765014627
 20
103.4749797845707
 30
0.0
 10
235.1270067036266
 20
103.6085277572534
 30
0.0
 10
234.9112679937001
 20
103.7758932234727
 30
0.0
 10
234.6964174290257
 20
103.974637343
 30
0.0
 10
234.4480232285404
 20
104.2463094827316
 30
0.0
 10
234.2271262278474
 20
104.5444454050472
 30
0.0
 10
234.0393938747943
 20
104.8591734942496
 30
0.0
 10
233.8867938283923
 20
105.1604113142379
 30
0.0
 10
233.7359649782888
 20
105.5394680776771
 30
0.0
 10
233.6513491721714
 20
105.8572808585561
 30
0.0
 10
233.6188791401375
 20
106.0266257473575
 30
0.0
 10
233.6173462022717
 20
106.0346206637821
 30
0.0
  0
LINE
  5
B1
330
1F
100
AcDbEntity
  8
0
  6
Continuous
 62
     7
370
    15
100
AcDbLine
 10
200.6949335937
 20
86.4346206638
 30
0.0
 11
238.6949335937
 21
86.4346206638
 31
0.0
  0
LINE
  5
B2
330
1F
100
AcDbEntity
  8
0
  6
Continuous
 62
     7
370
    15
100
AcDbLine
 10
206.0797924152
 20
106.2346206638
 30
0.0
 11
233.3100747723
 21
106.2346206638
 31
0.0
  0
LINE
  5
B3
330
1F
100
AcDbEntity
  8
0
  6
Continuous
 62
     7
370
    15
100
AcDbLine
 10
233.3100747723
 20
106.2346206638
 30
0.0
 11
233.6173462023
 21
106.0346206638
 31
0.0
  0
LINE
  5
B4
330
1F
100
AcDbEntity
  8
0
  6
Continuous
 62
     7
370
    15
100
AcDbLine
 10
205.7725209852
 20
106.0346206638
 30
0.0
 11
206.0797924152
 21
106.2346206638
 31
0.0
  0
LINE
  5
B5
330
1F
100
AcDbEntity
  8
0
  6
Continuous
 62
     7
370
    15
100
AcDbLine
 10
238.4949335937
 20
86.2346206638
 30
0.0
 11
200.8949335937
 21
86.2346206638
 31
0.0
  0
SPLINE
  5
B6
330
1F
100
AcDbEntity
  8
0
  6
Continuous
 62
     7
370
    15
100
AcDbSpline
210
0.0
220
0.0
230
1.0
 70
     8
 71
     3
 72
    24
 73
    20
 74
     0
 42
0.00000001
 43
0.00000001
 40
0.0
 40
0.0
 40
0.0
 40
0.0
 40
0.0392217663753172
 40
0.1100291083348902
 40
0.1825316289240184
 40
0.232417209055467
 40
0.2826854361930516
 40
0.3340269906517827
 40
0.3856891407426406
 40
0.4367713388279233
 40
0.4881211812308882
 40
0.5926333974089
 40
0.6524171814190025
 40
0.7126135401451711
 40
0.7741661673438962
 40
0.8362168086852243
 40
0.8944479313110809
 40
0.9531650112286978
 40
1.0
 40
1.0
 40
1.0
 40
1.0
 10
83.77252098522348
 20
106.0346206637822
 30
0.0
 10
83.75476831845182
 20
105.9504554726715
 30
0.0
 10
83.70496663239926
 20
105.7143462459187
 30
0.0
 10
83.58233645112708
 20
105.3443781497331
 30
0.0
 10
83.41943133217521
 20
104.9849166620819
 30
0.0
 10
83.25306787532611
 20
104.6914921908231
 30
0.0
 10
83.09559681612637
 20
104.453988986348
 30
0.0
 10
82.92700480397372
 20
104.2344858047778
 30
0.0
 10
82.75045983950285
 20
104.0350438876767
 30
0.0
 10
82.56886195864182
 20
103.8568397331254
 30
0.0
 10
82.32060980630554
 20
103.646216987778
 30
0.0
 10
82.05779638595266
 20
103.472419463605
 30
0.0
 10
81.78669733874018
 20
103.3442788876267
 30
0.0
 10
81.57047182108562
 20
103.2726408656642
 30
0.0
 10
81.35656016048928
 20
103.2343490778776
 30
0.0
 10
81.15159725141824
 20
103.2317950611459
 30
0.0
 10
80.95837631555092
 20
103.265972204261
 30
0.0
 10
80.7888771574759
 20
103.3257945966324
 30
0.0
 10
80.68815879298911
 20
103.3926190007471
 30
0.0
 10
80.6434685891078
 20
103.4222699612184
 30
0.0
  0
LINE
  5
B7
330
1F
100
AcDbEntity
  8
0
  6
Continuous
 62
     7
370
    15
100
AcDbLine
 10
111.6173462023
 20
106.0346206638
 30
0.0
 11
83.7725209852
 21
106.0346206638
 31
0.0
  0
SPLINE
  5
B8
330
1F
100
AcDbEntity
  8
0
  6
Continuous
 62
     7
370
    15
100
AcDbSpline
210
0.0
220
0.0
230
1.0
 70
     8
 71
     3
 72
    24
 73
    20
 74
     0
 42
0.00000001
 43
0.00000001
 40
0.0
 40
0.0
 40
0.0
 40
0.0
 40
0.0122197092296021
 40
0.1070217501045096
 40
0.2040351420676407
 40
0.2569851324089706
 40
0.3102460376568068
 40
0.3644414606724943
 40
0.4189430674678906
 40
0.4778558856636269
 40
0.5371541058175939
 40
0.5977020447459475
 40
0.6587057064432223
 40
0.7524881528070781
 40
0.8004288037881577
 40
0.848726147782555
 40
0.921561557411706
 40
0.9962968543224815
 40
1.0
 40
1.0
 40
1.0
 40
1.0
 10
114.743367357138
 20
103.4222699612184
 30
0.0
 10
114.7323099718289
 20
103.4127300036302
 30
0.0
 10
114.6354680007867
 20
103.3291778553896
 30
0.0
 10
114.4223343732814
 20
103.2585292260831
 30
0.0
 10
114.1552106892882
 20
103.2245400516849
 30
0.0
 10
113.9215704987799
 20
103.2516744348921
 30
0.0
 10
113.7330038846931
 20
103.2985612679671
 30
0.0
 10
113.5392193647023
 20
103.3722792832946
 30
0.0
 10
113.3365765014627
 20
103.4749797845707
 30
0.0
 10
113.1270067036267
 20
103.6085277572534
 30
0.0
 10
112.9112679937001
 20
103.7758932234727
 30
0.0
 10
112.6964174290257
 20
103.974637343
 30
0.0
 10
112.4480232285404
 20
104.2463094827316
 30
0.0
 10
112.2271262278474
 20
104.5444454050472
 30
0.0
 10
112.0393938747943
 20
104.8591734942496
 30
0.0
 10
111.8867938283924
 20
105.1604113142379
 30
0.0
 10
111.7359649782888
 20
105.5394680776771
 30
0.0
 10
111.6513491721715
 20
105.857280858556
 30
0.0
 10
111.6188791401375
 20
106.0266257473575
 30
0.0
 10
111.6173462022717
 20
106.0346206637821
 30
0.0
  0
LINE
  5
B9
330
1F
100
AcDbEntity
  8
0
  6
Continuous
 62
     7
370
    15
100
AcDbLine
 10
78.6949335937
 20
86.4346206638
 30
0.0
 11
116.6949335937
 21
86.4346206638
 31
0.0
  0
LINE
  5
BA
330
1F
100
AcDbEntity
  8
0
  6
Continuous
 62
     7
370
    15
100
AcDbLine
 10
84.0797924152
 20
106.2346206638
 30
0.0
 11
111.3100747723
 21
106.2346206638
 31
0.0
  0
LINE
  5
BB
330
1F
100
AcDbEntity
  8
0
  6
Continuous
 62
     7
370
    15
100
AcDbLine
 10
111.3100747723
 20
106.2346206638
 30
0.0
 11
111.6173462023
 21
106.0346206638
 31
0.0
  0
LINE
  5
BC
330
1F
100
AcDbEntity
  8
0
  6
Continuous
 62
     7
370
    15
100
AcDbLine
 10
83.7725209852
 20
106.0346206638
 30
0.0
 11
84.0797924152
 21
106.2346206638
 31
0.0
  0
LINE
  5
BD
330
1F
100
AcDbEntity
  8
0
  6
Continuous
 62
     7
370
    15
100
AcDbLine
 10
116.4949335937
 20
86.2346206638
 30
0.0
 11
78.8949335937
 21
86.2346206638
 31
0.0
  0
LINE
  5
BE
330
1F
100
AcDbEntity
  8
0
  6
Continuous
 62
     7
370
    15
100
AcDbLine
 10
115.6949335937
 20
84.2346206638
 30
0.0
 11
79.6949335937
 21
84.2346206638
 31
0.0
  0
LINE
  5
BF
330
1F
100
AcDbEntity
  8
0
  6
Continuous
 62
     7
370
    15
100
AcDbLine
 10
237.6949335937
 20
84.2346206638
 30
0.0
 11
201.6949335937
 21
84.2346206638
 31
0.0
  0
LINE
  5
C0
330
1F
100
AcDbEntity
  8
0
  6
Continuous
 62
     7
370
    15
100
AcDbLine
 10
368.0976957425
 20
247.568109375
 30
0.0
 11
363.1976957425
 21
242.668109375
 31
0.0
  0
LINE
  5
C1
330
1F
100
AcDbEntity
  8
0
  6
Continuous
 62
     7
370
    15
100
AcDbLine
 10
363.1976957425
 20
212.218109375
 30
0.0
 11
368.0976957425
 21
207.318109375
 31
0.0
  0
LINE
  5
C2
330
1F
100
AcDbEntity
  8
0
  6
Continuous
 62
     7
370
    15
100
AcDbLine
 10
360.5976957425
 20
212.218109375
 30
0.0
 11
363.1976957425
 21
212.218109375
 31
0.0
  0
LINE
  5
C3
330
1F
100
AcDbEntity
  8
0
  6
Continuous
 62
     7
370
    15
100
AcDbLine
 10
363.1976957425
 20
242.668109375
 30
0.0
 11
360.5976957425
 21
242.668109375
 31
0.0
  0
LINE
  5
C4
330
1F
100
AcDbEntity
  8
0
  6
Continuous
 62
     7
370
    15
100
AcDbLine
 10
360.5976957425
 20
232.443109375
 30
0.0
 11
356.0976957425
 21
232.443109375
 31
0.0
  0
LINE
  5
C5
330
1F
100
AcDbEntity
  8
0
  6
Continuous
 62
     7
370
    15
100
AcDbLine
 10
356.0976957425
 20
222.443109375
 30
0.0
 11
360.5976957425
 21
222.443109375
 31
0.0
  0
LINE
  5
C6
330
1F
100
AcDbEntity
  8
0
  6
Continuous
 62
     7
370
    15
100
AcDbLine
 10
332.910046445
 20
222.443109375
 30
0.0
 11
334.0976957425
 21
222.443109375
 31
0.0
  0
LINE
  5
C7
330
1F
100
AcDbEntity
  8
0
  6
Continuous
 62
     7
370
    15
100
AcDbLine
 10
334.0976957425
 20
232.443109375
 30
0.0
 11
332.910046445
 21
232.443109375
 31
0.0
  0
LINE
  5
C8
330
1F
100
AcDbEntity
  8
0
  6
Continuous
 62
     7
370
    15
100
AcDbLine
 10
332.910046445
 20
246.443109375
 30
0.0
 11
321.410046445
 21
246.443109375
 31
0.0
  0
LINE
  5
C9
330
1F
100
AcDbEntity
  8
0
  6
Continuous
 62
     7
370
    15
100
AcDbLine
 10
321.410046445
 20
208.443109375
 30
0.0
 11
332.910046445
 21
208.443109375
 31
0.0
  0
LINE
  5
CA
330
1F
100
AcDbEntity
  8
0
  6
Continuous
 62
     7
370
    15
100
AcDbLine
 10
321.410046445
 20
246.443109375
 30
0.0
 11
320.910046445
 21
245.943109375
 31
0.0
  0
LINE
  5
CB
330
1F
100
AcDbEntity
  8
0
  6
Continuous
 62
     7
370
    15
100
AcDbLine
 10
320.910046445
 20
208.943109375
 30
0.0
 11
321.410046445
 21
208.443109375
 31
0.0
  0
LINE
  5
CC
330
1F
100
AcDbEntity
  8
0
  6
Continuous
 62
     7
370
    15
100
AcDbLine
 10
353.8976957425
 20
246.443109375
 30
0.0
 11
334.2976957425
 21
246.443109375
 31
0.0
  0
LINE
  5
CD
330
1F
100
AcDbEntity
  8
0
  6
Continuous
 62
     7
370
    15
100
AcDbLine
 10
334.2976957425
 20
208.443109375
 30
0.0
 11
353.8976957425
 21
208.443109375
 31
0.0
  0
LINE
  5
CE
330
1F
100
AcDbEntity
  8
0
  6
Continuous
 62
     7
370
    15
100
AcDbLine
 10
353.8976957425
 20
208.443109375
 30
0.0
 11
354.0976957425
 21
208.643109375
 31
0.0
  0
LINE
  5
CF
330
1F
100
AcDbEntity
  8
0
  6
Continuous
 62
     7
370
    15
100
AcDbLine
 10
354.0976957425
 20
246.243109375
 30
0.0
 11
353.8976957425
 21
246.443109375
 31
0.0
  0
LINE
  5
D0
330
1F
100
AcDbEntity
  8
0
  6
Continuous
 62
     7
370
    15
100
AcDbLine
 10
334.2976957425
 20
246.443109375
 30
0.0
 11
334.0976957425
 21
246.243109375
 31
0.0
  0
LINE
  5
D1
330
1F
100
AcDbEntity
  8
0
  6
Continuous
 62
     7
370
    15
100
AcDbLine
 10
334.0976957425
 20
208.643109375
 30
0.0
 11
334.2976957425
 21
208.443109375
 31
0.0
  0
LINE
  5
D2
330
1F
100
AcDbEntity
  8
0
  6
Continuous
 62
     7
370
    15
100
AcDbLine
 10
354.0976957425
 20
209.443109375
 30
0.0
 11
356.0976957425
 21
209.443109375
 31
0.0
  0
LINE
  5
D3
330
1F
100
AcDbEntity
  8
0
  6
Continuous
 62
     7
370
    15
100
AcDbLine
 10
356.0976957425
 20
245.443109375
 30
0.0
 11
354.0976957425
 21
245.443109375
 31
0.0
  0
LINE
  5
D4
330
1F
100
AcDbEntity
  8
0
  6
Continuous
 62
     7
370
    15
100
AcDbLine
 10
363.1976957425
 20
212.218109375
 30
0.0
 11
363.1976957425
 21
242.668109375
 31
0.0
  0
LINE
  5
D5
330
1F
100
AcDbEntity
  8
0
  6
Continuous
 62
     7
370
    15
100
AcDbLine
 10
368.0976957425
 20
207.318109375
 30
0.0
 11
368.0976957425
 21
247.568109375
 31
0.0
  0
LINE
  5
D6
330
1F
100
AcDbEntity
  8
0
  6
Continuous
 62
     7
370
    15
100
AcDbLine
 10
360.5976957425
 20
212.218109375
 30
0.0
 11
360.5976957425
 21
242.668109375
 31
0.0
  0
CIRCLE
  5
D7
330
1F
100
AcDbEntity
  8
0
  6
Continuous
 62
     7
370
    15
100
AcDbCircle
 10
333.410046445
 20
236.943109375
 30
0.0
 40
3.5
  0
CIRCLE
  5
D8
330
1F
100
AcDbEntity
  8
0
  6
Continuous
 62
     7
370
    15
100
AcDbCircle
 10
333.410046445
 20
236.943109375
 30
0.0
 40
2.999999999999886
  0
CIRCLE
  5
D9
330
1F
100
AcDbEntity
  8
0
  6
Continuous
 62
     7
370
    15
100
AcDbCircle
 10
333.410046445
 20
217.943109375
 30
0.0
 40
3.5
  0
CIRCLE
  5
DA
330
1F
100
AcDbEntity
  8
0
  6
Continuous
 62
     7
370
    15
100
AcDbCircle
 10
333.410046445
 20
217.943109375
 30
0.0
 40
2.999999999999829
  0
LINE
  5
DB
330
1F
100
AcDbEntity
  8
0
  6
Continuous
 62
     7
370
    15
100
AcDbLine
 10
332.910046445
 20
240.4072109901
 30
0.0
 11
332.910046445
 21
246.443109375
 31
0.0
  0
LINE
  5
DC
330
1F
100
AcDbEntity
  8
0
  6
Continuous
 62
     7
370
    15
100
AcDbLine
 10
332.910046445
 20
221.4072109901
 30
0.0
 11
332.910046445
 21
233.4790077599
 31
0.0
  0
LINE
  5
DD
330
1F
100
AcDbEntity
  8
0
  6
Continuous
 62
     7
370
    15
100
AcDbLine
 10
332.910046445
 20
208.443109375
 30
0.0
 11
332.910046445
 21
214.4790077599
 31
0.0
  0
LINE
  5
DE
330
1F
100
AcDbEntity
  8
0
  6
Continuous
 62
     7
370
    15
100
AcDbLine
 10
321.410046445
 20
227.443109375
 30
0.0
 11
321.410046445
 21
208.443109375
 31
0.0
  0
LINE
  5
DF
330
1F
100
AcDbEntity
  8
0
  6
Continuous
 62
     7
370
    15
100
AcDbLine
 10
321.410046445
 20
246.443109375
 30
0.0
 11
321.410046445
 21
227.443109375
 31
0.0
  0
LINE
  5
E0
330
1F
100
AcDbEntity
  8
0
  6
Continuous
 62
     7
370
    15
100
AcDbLine
 10
320.910046445
 20
227.443109375
 30
0.0
 11
320.910046445
 21
245.943109375
 31
0.0
  0
LINE
  5
E1
330
1F
100
AcDbEntity
  8
0
  6
Continuous
 62
     7
370
    15
100
AcDbLine
 10
320.910046445
 20
208.943109375
 30
0.0
 11
320.910046445
 21
227.443109375
 31
0.0
  0
LINE
  5
E2
330
1F
100
AcDbEntity
  8
0
  6
Continuous
 62
     7
370
    15
100
AcDbLine
 10
334.2976957425
 20
233.5138237351
 30
0.0
 11
334.2976957425
 21
221.3723950149
 31
0.0
  0
SPLINE
  5
E3
330
1F
100
AcDbEntity
  8
0
  6
Continuous
 62
     7
370
    15
100
AcDbSpline
210
0.0
220
0.0
230
1.0
 70
     8
 71
     3
 72
    35
 73
    31
 74
     0
 42
0.00000001
 43
0.00000001
 40
0.0
 40
0.0
 40
0.0
 40
0.0
 40
0.0250879924955969
 40
0.0703795290040813
 40
0.1167553774308513
 40
0.1486644212000753
 40
0.1808182230744427
 40
0.2136585730129786
 40
0.2467039902280862
 40
0.2793784442534075
 40
0.31222409553102
 40
0.3790747740568653
 40
0.4173151508479451
 40
0.4558194288433075
 40
0.4951912366927797
 40
0.5348815966174637
 40
0.5721288218818269
 40
0.6096868871214273
 40
0.6483063782075202
 40
0.6873302449853779
 40
0.7198749737285902
 40
0.7526948644241385
 40
0.7864327708273832
 40
0.8205093734507771
 40
0.8492273933026876
 40
0.8781680331737123
 40
0.9078285565055787
 40
0.9377449857635515
 40
0.968722719847045
 40
1.0
 40
1.0
 40
1.0
 40
1.0
 10
334.2976957424679
 20
240.3723950148977
 30
0.0
 10
334.3818609335797
 20
240.3532403149564
 30
0.0
 10
334.6179701603354
 20
240.2995054949894
 30
0.0
 10
334.9879382564844
 20
240.1653064594007
 30
0.0
 10
335.3473997442749
 20
239.9823437939191
 30
0.0
 10
335.6408242151635
 20
239.7901923144949
 30
0.0
 10
335.878327420915
 20
239.6037440202522
 30
0.0
 10
336.0978305975896
 20
239.3985969669253
 30
0.0
 10
336.2972725330859
 20
239.1772832618728
 30
0.0
 10
336.4754766195351
 20
238.9423415937926
 30
0.0
 10
336.6860997078043
 20
238.6103934341196
 30
0.0
 10
336.8598950241624
 20
238.2401753689732
 30
0.0
 10
336.9880413262448
 20
237.8344498636703
 30
0.0
 10
337.0596608392888
 20
237.49582490737
 30
0.0
 10
337.0980238203817
 20
237.1443866701565
 30
0.0
 10
337.1003142939365
 20
236.7905691862246
 30
0.0
 10
337.0670664774322
 20
236.4392793171014
 30
0.0
 10
336.9988167889676
 20
236.0913476131197
 30
0.0
 10
336.8920321589566
 20
235.7416158400472
 30
0.0
 10
336.7527793572025
 20
235.4146747183983
 30
0.0
 10
336.5884841959289
 20
235.1155884577393
 30
0.0
 10
336.4047934004413
 20
234.8438215168302
 30
0.0
 10
336.1904448679587
 20
234.5837121916695
 30
0.0
 10
335.9589381774747
 20
234.3529701821665
 30
0.0
 10
335.7178421300048
 20
234.1530779982014
 30
0.0
 10
335.4713367109629
 20
233.9817007593462
 30
0.0
 10
335.2057544701418
 20
233.8291426557531
 30
0.0
 10
334.9197412788772
 20
233.6975688585052
 30
0.0
 10
334.6168100101477
 20
233.5880338710954
 30
0.0
 10
334.4044078296265
 20
233.5386396687744
 30
0.0
 10
334.2976957424679
 20
233.5138237351043
 30
0.0
  0
LINE
  5
E4
330
1F
100
AcDbEntity
  8
0
  6
Continuous
 62
     7
370
    15
100
AcDbLine
 10
334.2976957425
 20
246.443109375
 30
0.0
 11
334.2976957425
 21
240.3723950149
 31
0.0
  0
LINE
  5
E5
330
1F
100
AcDbEntity
  8
0
  6
Continuous
 62
     7
370
    15
100
AcDbLine
 10
334.2976957425
 20
214.5138237351
 30
0.0
 11
334.2976957425
 21
208.443109375
 31
0.0
  0
SPLINE
  5
E6
330
1F
100
AcDbEntity
  8
0
  6
Continuous
 62
     7
370
    15
100
AcDbSpline
210
0.0
220
0.0
230
1.0
 70
     8
 71
     3
 72
    25
 73
    21
 74
     0
 42
0.00000001
 43
0.00000001
 40
0.0
 40
0.0
 40
0.0
 40
0.0
 40
0.0401826408664927
 40
0.0929529366763199
 40
0.1472203660995129
 40
0.2006724264759243
 40
0.2555513679290609
 40
0.3114320528938322
 40
0.3687016268018994
 40
0.4293183510466942
 40
0.4913490201590003
 40
0.5592114017808232
 40
0.6286639851748779
 40
0.7041868695810023
 40
0.7818337121083133
 40
0.8417985044036703
 40
0.9032750212897296
 40
0.9498462121628748
 40
0.9976321969622075
 40
1.0
 40
1.0
 40
1.0
 40
1.0
 10
334.2976957424676
 20
221.3723950148964
 30
0.0
 10
334.4344649734876
 20
221.3393719331544
 30
0.0
 10
334.7508479039307
 20
221.2629809254997
 30
0.0
 10
335.2233396656819
 20
221.0583392414306
 30
0.0
 10
335.694042625447
 20
220.7643967887034
 30
0.0
 10
336.1119241762266
 20
220.3985433551657
 30
0.0
 10
336.4652961589756
 20
219.9750171491141
 30
0.0
 10
336.7486370672605
 20
219.4997752828278
 30
0.0
 10
336.956222371549
 20
218.9802739629831
 30
0.0
 10
337.0795615214739
 20
218.428160653491
 30
0.0
 10
337.112945392317
 20
217.8439003636029
 30
0.0
 10
337.0461087810008
 20
217.2471457476804
 30
0.0
 10
336.8674155259984
 20
216.640463855168
 30
0.0
 10
336.5689284074792
 20
216.051776637907
 30
0.0
 10
336.1746656386562
 20
215.5470498721987
 30
0.0
 10
335.7172298813349
 20
215.1385127549242
 30
0.0
 10
335.2644073356579
 20
214.8502486070464
 30
0.0
 10
334.7928737481128
 20
214.6421272911358
 30
0.0
 10
334.4750353250737
 20
214.5504470641362
 30
0.0
 10
334.3056906488559
 20
214.5154748052307
 30
0.0
 10
334.2976957424675
 20
214.5138237351032
 30
0.0
  0
LINE
  5
E7
330
1F
100
AcDbEntity
  8
0
  6
Continuous
 62
     7
370
    15
100
AcDbLine
 10
353.8976957425
 20
208.443109375
 30
0.0
 11
353.8976957425
 21
246.443109375
 31
0.0
  0
LINE
  5
E8
330
1F
100
AcDbEntity
  8
0
  6
Continuous
 62
     7
370
    15
100
AcDbLine
 10
354.0976957425
 20
246.243109375
 30
0.0
 11
354.0976957425
 21
208.643109375
 31
0.0
  0
LINE
  5
E9
330
1F
100
AcDbEntity
  8
0
  6
Continuous
 62
     7
370
    15
100
AcDbLine
 10
334.0976957425
 20
221.4072109901
 30
0.0
 11
334.0976957425
 21
233.4790077599
 31
0.0
  0
LINE
  5
EA
330
1F
100
AcDbEntity
  8
0
  6
Continuous
 62
     7
370
    15
100
AcDbLine
 10
334.0976957425
 20
233.4790077599
 30
0.0
 11
334.2976957425
 21
233.5138237351
 31
0.0
  0
LINE
  5
EB
330
1F
100
AcDbEntity
  8
0
  6
Continuous
 62
     7
370
    15
100
AcDbLine
 10
334.2976957425
 20
221.3723950149
 30
0.0
 11
334.0976957425
 21
221.4072109901
 31
0.0
  0
LINE
  5
EC
330
1F
100
AcDbEntity
  8
0
  6
Continuous
 62
     7
370
    15
100
AcDbLine
 10
334.0976957425
 20
240.4072109901
 30
0.0
 11
334.0976957425
 21
246.243109375
 31
0.0
  0
LINE
  5
ED
330
1F
100
AcDbEntity
  8
0
  6
Continuous
 62
     7
370
    15
100
AcDbLine
 10
334.2976957425
 20
240.3723950149
 30
0.0
 11
334.0976957425
 21
240.4072109901
 31
0.0
  0
LINE
  5
EE
330
1F
100
AcDbEntity
  8
0
  6
Continuous
 62
     7
370
    15
100
AcDbLine
 10
334.0976957425
 20
208.643109375
 30
0.0
 11
334.0976957425
 21
214.4790077599
 31
0.0
  0
LINE
  5
EF
330
1F
100
AcDbEntity
  8
0
  6
Continuous
 62
     7
370
    15
100
AcDbLine
 10
334.0976957425
 20
214.4790077599
 30
0.0
 11
334.2976957425
 21
214.5138237351
 31
0.0
  0
LINE
  5
F0
330
1F
100
AcDbEntity
  8
0
  6
Continuous
 62
     7
370
    15
100
AcDbLine
 10
356.0976957425
 20
245.443109375
 30
0.0
 11
356.0976957425
 21
209.443109375
 31
0.0
  0
ENDSEC
  0
SECTION
  2
OBJECTS
  0
DICTIONARY
  5
C
330
0
100
AcDbDictionary
281
     1
  3
ACAD_GROUP
350
D
  3
ACAD_LAYOUT
350
1A
  3
ACAD_MLEADERSTYLE
350
F3
  3
ACAD_MLINESTYLE
350
17
  3
ACAD_PLOTSETTINGS
350
19
  3
ACAD_PLOTSTYLENAME
350
E
  3
ACAD_VISUALSTYLE
350
2A
  3
AcDbVariableDictionary
350
F1
  0
DICTIONARY
  5
D
102
{ACAD_REACTORS
330
C
102
}
330
C
100
AcDbDictionary
281
     1
  0
DICTIONARY
  5
1A
102
{ACAD_REACTORS
330
C
102
}
330
C
100
AcDbDictionary
281
     1
  3
Layout1
350
1E
  3
Layout2
350
26
  3
Model
350
22
  0
DICTIONARY
  5
F3
102
{ACAD_REACTORS
330
C
102
}
330
C
100
AcDbDictionary
281
     1
  0
DICTIONARY
  5
17
102
{ACAD_REACTORS
330
C
102
}
330
C
100
AcDbDictionary
281
     1
  3
Standard
350
18
  0
DICTIONARY
  5
19
102
{ACAD_REACTORS
330
C
102
}
330
C
100
AcDbDictionary
281
     1
  0
ACDBDICTIONARYWDFLT
  5
E
102
{ACAD_REACTORS
330
C
102
}
330
C
100
AcDbDictionary
281
     1
  3
Normal
350
F
100
AcDbDictionaryWithDefault
340
F
  0
DICTIONARY
  5
2A
102
{ACAD_REACTORS
330
C
102
}
330
C
100
AcDbDictionary
281
     1
  3
2dWireframe
350
2F
  3
3D Hidden
350
31
  3
3dWireframe
350
30
  3
Basic
350
32
  3
Brighten
350
36
  3
ColorChange
350
3A
  3
Conceptual
350
34
  3
Dim
350
35
  3
Facepattern
350
39
  3
Flat
350
2B
  3
FlatWithEdges
350
2C
  3
Gouraud
350
2D
  3
GouraudWithEdges
350
2E
  3
Linepattern
350
38
  3
Realistic
350
33
  3
Thicken
350
37
  0
DICTIONARY
  5
F1
102
{ACAD_REACTORS
330
C
102
}
330
C
100
AcDbDictionary
281
     1
  3
DIMASSOC
350
F6
  3
HIDETEXT
350
F7
  3
PSOLHEIGHT
350
F5
  3
PSOLWIDTH
350
F4
  0
LAYOUT
  5
1E
102
{ACAD_REACTORS
330
1A
102
}
330
1A
100
AcDbPlotSettings
  1

  2
none_device
  4

  6

 40
0.0
 41
0.0
 42
0.0
 43
0.0
 44
0.0
 45
0.0
 46
0.0
 47
0.0
 48
0.0
 49
0.0
140
0.0
141
0.0
142
1.0
143
1.0
 70
   688
 72
     0
 73
     0
 74
     5
  7

 75
    16
147
1.0
148
0.0
149
0.0
100
AcDbLayout
  1
Layout1
 70
     1
 71
     1
 10
0.0
 20
0.0
 11
420.0
 21
297.0
 12
0.0
 22
0.0
 32
0.0
 14
1.0000000000E+20
 24
1.0000000000E+20
 34
1.0000000000E+20
 15
-1.0000000000E+20
 25
-1.0000000000E+20
 35
-1.0000000000E+20
146
0.0
 13
0.0
 23
0.0
 33
0.0
 16
1.0
 26
0.0
 36
0.0
 17
0.0
 27
1.0
 37
0.0
 76
     0
330
1B
  0
LAYOUT
  5
26
102
{ACAD_REACTORS
330
1A
102
}
330
1A
100
AcDbPlotSettings
  1

  2
none_device
  4

  6

 40
0.0
 41
0.0
 42
0.0
 43
0.0
 44
0.0
 45
0.0
 46
0.0
 47
0.0
 48
0.0
 49
0.0
140
0.0
141
0.0
142
1.0
143
1.0
 70
   688
 72
     0
 73
     0
 74
     5
  7

 75
    16
147
1.0
148
0.0
149
0.0
100
AcDbLayout
  1
Layout2
 70
     1
 71
     2
 10
0.0
 20
0.0
 11
0.0
 21
0.0
 12
0.0
 22
0.0
 32
0.0
 14
0.0
 24
0.0
 34
0.0
 15
0.0
 25
0.0
 35
0.0
146
0.0
 13
0.0
 23
0.0
 33
0.0
 16
1.0
 26
0.0
 36
0.0
 17
0.0
 27
1.0
 37
0.0
 76
     0
330
23
  0
LAYOUT
  5
22
102
{ACAD_REACTORS
330
1A
102
}
330
1A
100
AcDbPlotSettings
  1

  2
none_device
  4

  6

 40
0.0
 41
0.0
 42
0.0
 43
0.0
 44
0.0
 45
0.0
 46
0.0
 47
0.0
 48
0.0
 49
0.0
140
0.0
141
0.0
142
1.0
143
1.0
 70
  1712
 72
     0
 73
     0
 74
     0
  7

 75
     0
147
1.0
148
0.0
149
0.0
100
AcDbLayout
  1
Model
 70
     1
 71
     0
 10
0.0
 20
0.0
 11
431.8
 21
279.4
 12
0.0
 22
0.0
 32
0.0
 14
0.0
 24
0.0
 34
0.0
 15
431.8
 25
279.4
 35
0.0
146
0.0
 13
0.0
 23
0.0
 33
0.0
 16
1.0
 26
0.0
 36
0.0
 17
0.0
 27
1.0
 37
0.0
 76
     0
330
1F
331
29
  0
MLINESTYLE
  5
18
102
{ACAD_REACTORS
330
17
102
}
330
17
100
AcDbMlineStyle
  2
Standard
 70
     0
  3

 62
   256
 51
90.0
 52
90.0
 71
     2
 49
0.5
 62
   256
  6
BYLAYER
 49
-0.5
 62
   256
  6
BYLAYER
  0
ACDBPLACEHOLDER
  5
F
102
{ACAD_REACTORS
330
E
102
}
330
E
  0
VISUALSTYLE
  5
2F
102
{ACAD_REACTORS
330
2A
102
}
330
2A
100
AcDbVisualStyle
  2
2dWireframe
 70
     4
 71
     0
 72
     2
 73
     0
 90
        0
 40
-0.6
 41
-30.0
 62
     5
 63
     7
 74
     1
 91
        4
 64
     7
 65
   257
 75
     1
175
     1
 42
1.0
 92
        0
 66
   257
 43
1.0
 76
     1
 77
     6
 78
     2
 67
     7
 79
     5
170
     0
171
     0
290
     0
174
     0
 93
        1
 44
0.0
173
     0
291
     0
 45
0.0
1001
ACAD
1000
AcDbSavedByObjectVersion
1070
     0
  0
VISUALSTYLE
  5
31
102
{ACAD_REACTORS
330
2A
102
}
330
2A
100
AcDbVisualStyle
  2
3D Hidden
 70
     6
 71
     1
 72
     2
 73
     2
 90
        0
 40
-0.6
 41
-30.0
 62
     5
 63
     7
 74
     2
 91
        2
 64
     7
 65
   257
 75
     2
175
     1
 42
40.0
 92
        0
 66
   257
 43
1.0
 76
     1
 77
     6
 78
     2
 67
     7
 79
     3
170
     0
171
     0
290
     0
174
     0
 93
        1
 44
0.0
173
     0
291
     0
 45
0.0
1001
ACAD
1000
AcDbSavedByObjectVersion
1070
     0
  0
VISUALSTYLE
  5
30
102
{ACAD_REACTORS
330
2A
102
}
330
2A
100
AcDbVisualStyle
  2
3dWireframe
 70
     5
 71
     0
 72
     2
 73
     0
 90
        0
 40
-0.6
 41
-30.0
 62
     5
 63
     7
 74
     1
 91
        4
 64
     7
 65
   257
 75
     1
175
     1
 42
1.0
 92
        0
 66
   257
 43
1.0
 76
     1
 77
     6
 78
     2
 67
     7
 79
     5
170
     0
171
     0
290
     0
174
     0
 93
        1
 44
0.0
173
     0
291
     0
 45
0.0
1001
ACAD
1000
AcDbSavedByObjectVersion
1070
     0
  0
VISUALSTYLE
  5
32
102
{ACAD_REACTORS
330
2A
102
}
330
2A
100
AcDbVisualStyle
  2
Basic
 70
     7
 71
     1
 72
     0
 73
     1
 90
        0
 40
-0.6
 41
-30.0
 62
     5
 63
     7
 74
     0
 91
        4
 64
     7
 65
   257
 75
     1
175
     1
 42
1.0
 92
        8
 66
     7
 43
1.0
 76
     1
 77
     6
 78
     2
 67
     7
 79
     5
170
     0
171
     0
290
     0
174
     0
 93
        1
 44
0.0
173
     0
291
     1
 45
0.0
1001
ACAD
1000
AcDbSavedByObjectVersion
1070
     0
  0
VISUALSTYLE
  5
36
102
{ACAD_REACTORS
330
2A
102
}
330
2A
100
AcDbVisualStyle
  2
Brighten
 70
    12
 71
     2
 72
     2
 73
     0
 90
        0
 40
-0.6
 41
-30.0
 62
     5
 63
     7
 74
     1
 91
        4
 64
     7
 65
   257
 75
     1
175
     1
 42
1.0
 92
        8
 66
     7
 43
1.0
 76
     1
 77
     6
 78
     2
 67
     7
 79
     5
170
     0
171
     0
290
     0
174
     0
 93
        1
 44
50.0
173
     0
291
     1
 45
0.0
1001
ACAD
1000
AcDbSavedByObjectVersion
1070
     0
  0
VISUALSTYLE
  5
3A
102
{ACAD_REACTORS
330
2A
102
}
330
2A
100
AcDbVisualStyle
  2
ColorChange
 70
    16
 71
     2
 72
     2
 73
     3
 90
        0
 40
-0.6
 41
-30.0
 62
     5
 63
     8
 74
     1
 91
        4
 64
     7
 65
   257
 75
     1
175
     1
 42
1.0
 92
        8
 66
     8
 43
1.0
 76
     1
 77
     6
 78
     2
 67
     7
 79
     5
170
     0
171
     0
290
     0
174
     0
 93
        1
 44
0.0
173
     0
291
     1
 45
0.0
1001
ACAD
1000
AcDbSavedByObjectVersion
1070
     0
  0
VISUALSTYLE
  5
34
102
{ACAD_REACTORS
330
2A
102
}
330
2A
100
AcDbVisualStyle
  2
Conceptual
 70
     9
 71
     3
 72
     2
 73
     0
 90
        0
 40
-0.6
 41
-30.0
 62
     5
 63
     7
 74
     2
 91
        2
 64
     7
 65
   257
 75
     1
175
     1
 42
40.0
 92
        8
 66
     7
 43
1.0
 76
     1
 77
     6
 78
     2
 67
     7
 79
     3
170
     0
171
     0
290
     0
174
     0
 93
        1
 44
0.0
173
     0
291
     0
 45
0.0
1001
ACAD
1000
AcDbSavedByObjectVersion
1070
     0
  0
VISUALSTYLE
  5
35
102
{ACAD_REACTORS
330
2A
102
}
330
2A
100
AcDbVisualStyle
  2
Dim
 70
    11
 71
     2
 72
     2
 73
     0
 90
        0
 40
-0.6
 41
-30.0
 62
     5
 63
     7
 74
     1
 91
        4
 64
     7
 65
   257
 75
     1
175
     1
 42
1.0
 92
        8
 66
     7
 43
1.0
 76
     1
 77
     6
 78
     2
 67
     7
 79
     5
170
     0
171
     0
290
     0
174
     0
 93
        1
 44
-50.0
173
     0
291
     1
 45
0.0
1001
ACAD
1000
AcDbSavedByObjectVersion
1070
     0
  0
VISUALSTYLE
  5
39
102
{ACAD_REACTORS
330
2A
102
}
330
2A
100
AcDbVisualStyle
  2
Facepattern
 70
    15
 71
     2
 72
     2
 73
     0
 90
        0
 40
-0.6
 41
-30.0
 62
     5
 63
     7
 74
     1
 91
        4
 64
     7
 65
   257
 75
     1
175
     1
 42
1.0
 92
        8
 66
     7
 43
1.0
 76
     1
 77
     6
 78
     2
 67
     7
 79
     5
170
     0
171
     0
290
     0
174
     0
 93
        1
 44
0.0
173
     0
291
     1
 45
0.0
1001
ACAD
1000
AcDbSavedByObjectVersion
1070
     0
  0
VISUALSTYLE
  5
2B
102
{ACAD_REACTORS
330
2A
102
}
330
2A
100
AcDbVisualStyle
  2
Flat
 70
     0
 71
     2
 72
     1
 73
     1
 90
        2
 40
-0.6
 41
30.0
 62
     5
 63
     7
 74
     0
 91
        4
 64
     7
 65
   257
 75
     1
175
     1
 42
1.0
 92
        8
 66
     7
 43
1.0
 76
     1
 77
     6
 78
     2
 67
     7
 79
     5
170
     0
171
     0
290
     0
174
     0
 93
       13
 44
0.0
173
     0
291
     1
 45
0.0
1001
ACAD
1000
AcDbSavedByObjectVersion
1070
     0
  0
VISUALSTYLE
  5
2C
102
{ACAD_REACTORS
330
2A
102
}
330
2A
100
AcDbVisualStyle
  2
FlatWithEdges
 70
     1
 71
     2
 72
     1
 73
     1
 90
        2
 40
-0.6
 41
30.0
 62
     5
 63
     7
 74
     1
 91
        4
 64
     7
 65
   257
 75
     1
175
     1
 42
1.0
 92
        0
 66
   257
 43
1.0
 76
     1
 77
     6
 78
     2
 67
     7
 79
     5
170
     0
171
     0
290
     0
174
     0
 93
       13
 44
0.0
173
     0
291
     1
 45
0.0
1001
ACAD
1000
AcDbSavedByObjectVersion
1070
     0
  0
VISUALSTYLE
  5
2D
102
{ACAD_REACTORS
330
2A
102
}
330
2A
100
AcDbVisualStyle
  2
Gouraud
 70
     2
 71
     2
 72
     2
 73
     1
 90
        2
 40
-0.6
 41
30.0
 62
     5
 63
     7
 74
     0
 91
        4
 64
     7
 65
   257
 75
     1
175
     1
 42
1.0
 92
        0
 66
     7
 43
1.0
 76
     1
 77
     6
 78
     2
 67
     7
 79
     5
170
     0
171
     0
290
     0
174
     0
 93
       13
 44
0.0
173
     0
291
     1
 45
0.0
1001
ACAD
1000
AcDbSavedByObjectVersion
1070
     0
  0
VISUALSTYLE
  5
2E
102
{ACAD_REACTORS
330
2A
102
}
330
2A
100
AcDbVisualStyle
  2
GouraudWithEdges
 70
     3
 71
     2
 72
     2
 73
     1
 90
        2
 40
-0.6
 41
30.0
 62
     5
 63
     7
 74
     1
 91
        4
 64
     7
 65
   257
 75
     1
175
     1
 42
1.0
 92
        0
 66
   257
 43
1.0
 76
     1
 77
     6
 78
     2
 67
     7
 79
     5
170
     0
171
     0
290
     0
174
     0
 93
       13
 44
0.0
173
     0
291
     1
 45
0.0
1001
ACAD
1000
AcDbSavedByObjectVersion
1070
     0
  0
VISUALSTYLE
  5
38
102
{ACAD_REACTORS
330
2A
102
}
330
2A
100
AcDbVisualStyle
  2
Linepattern
 70
    14
 71
     2
 72
     2
 73
     0
 90
        0
 40
-0.6
 41
-30.0
 62
     5
 63
     7
 74
     1
 91
        4
 64
     7
 65
   257
 75
     7
175
     7
 42
1.0
 92
        8
 66
     7
 43
1.0
 76
     1
 77
     6
 78
     2
 67
     7
 79
     5
170
     0
171
     0
290
     0
174
     0
 93
        1
 44
0.0
173
     0
291
     1
 45
0.0
1001
ACAD
1000
AcDbSavedByObjectVersion
1070
     0
  0
VISUALSTYLE
  5
33
102
{ACAD_REACTORS
330
2A
102
}
330
2A
100
AcDbVisualStyle
  2
Realistic
 70
     8
 71
     2
 72
     2
 73
     0
 90
        0
 40
-0.6
 41
-30.0
 62
     5
 63
     7
 74
     1
 91
        0
 64
     7
 65
   257
 75
     1
175
     1
 42
1.0
 92
        8
 66
     8
 43
1.0
 76
     1
 77
     6
 78
     2
 67
     7
 79
     5
170
     0
171
     0
290
     0
174
     0
 93
       13
 44
0.0
173
     0
291
     0
 45
0.0
1001
ACAD
1000
AcDbSavedByObjectVersion
1070
     0
  0
VISUALSTYLE
  5
37
102
{ACAD_REACTORS
330
2A
102
}
330
2A
100
AcDbVisualStyle
  2
Thicken
 70
    13
 71
     2
 72
     2
 73
     0
 90
        0
 40
-0.6
 41
-30.0
 62
     5
 63
     7
 74
     1
 91
        4
 64
     7
 65
   257
 75
     1
175
     1
 42
1.0
 92
       12
 66
     7
 43
1.0
 76
     1
 77
     6
 78
     2
 67
     7
 79
     5
170
     0
171
     0
290
     0
174
     0
 93
        1
 44
0.0
173
     0
291
     1
 45
0.0
1001
ACAD
1000
AcDbSavedByObjectVersion
1070
     0
  0
DICTIONARYVAR
  5
F6
102
{ACAD_REACTORS
330
F1
102
}
330
F1
100
DictionaryVariables
280
     0
  1
2
  0
DICTIONARYVAR
  5
F7
102
{ACAD_REACTORS
330
F1
102
}
330
F1
100
DictionaryVariables
280
     0
  1
1
  0
DICTIONARYVAR
  5
F5
102
{ACAD_REACTORS
330
F1
102
}
330
F1
100
DictionaryVariables
280
     0
  1
80.000000
  0
DICTIONARYVAR
  5
F4
102
{ACAD_REACTORS
330
F1
102
}
330
F1
100
DictionaryVariables
280
     0
  1
5.000000
  0
ENDSEC
  0
EOF
