  0
SECTION
  2
HEADER
  9
$ACADVER
  1
AC1015
  9
$ACADMAINTVER
 70
     6
  9
$DWGCODEPAGE
  3
ANSI_1252
  9
$INSBASE
 10
0.0
 20
0.0
 30
0.0
  9
$EXTMIN
 10
0.0
 20
0.0
 30
0.0
  9
$EXTMAX
 10
431.8
 20
279.4
 30
0.0
  9
$LIMMIN
 10
0.0
 20
0.0
  9
$LIMMAX
 10
431.8
 20
279.4
  9
$ORTHOMODE
 70
     0
  9
$REGENMODE
 70
     1
  9
$FILLMODE
 70
     1
  9
$QTEXTMODE
 70
     0
  9
$MIRRTEXT
 70
     1
  9
$LTSCALE
 40
1.0
  9
$ATTMODE
 70
     1
  9
$TEXTSIZE
 40
4.9388888889
  9
$TRACEWID
 40
1.0
  9
$TEXTSTYLE
  7
Standard
  9
$CLAYER
  8
0
  9
$CELTYPE
  6
ByLayer
  9
$CECOLOR
 62
   256
  9
$CELTSCALE
 40
1.0
  9
$DISPSILH
 70
     0
  9
$DIMSCALE
 40
1.0
  9
$DIMASZ
 40
5.1366373698
  9
$DIMEXO
 40
2.0
  9
$DIMDLI
 40
3.75
  9
$DIMRND
 40
0.0
  9
$DIMDLE
 40
0.0
  9
$DIMEXE
 40
2.0
  9
$DIMTP
 40
0.0
  9
$DIMTM
 40
0.0
  9
$DIMTXT
 40
7.0555555556
  9
$DIMCEN
 40
2.5
  9
$DIMTSZ
 40
0.0
  9
$DIMTOL
 70
     0
  9
$DIMLIM
 70
     0
  9
$DIMTIH
 70
     1
  9
$DIMTOH
 70
     1
  9
$DIMSE1
 70
     0
  9
$DIMSE2
 70
     0
  9
$DIMTAD
 70
     1
  9
$DIMZIN
 70
     0
  9
$DIMBLK
  1

  9
$DIMASO
 70
     1
  9
$DIMSHO
 70
     1
  9
$DIMPOST
  1

  9
$DIMAPOST
  1

  9
$DIMALT
 70
     0
  9
$DIMALTD
 70
     3
  9
$DIMALTF
 40
0.0393700787
  9
$DIMLFAC
 40
1.0
  9
$DIMTOFL
 70
     1
  9
$DIMTVP
 40
0.0
  9
$DIMTIX
 70
     0
  9
$DIMSOXD
 70
     0
  9
$DIMSAH
 70
     0
  9
$DIMBLK1
  1

  9
$DIMBLK2
  1

  9
$DIMSTYLE
  2
ISO-25
  9
$DIMCLRD
 70
     0
  9
$DIMCLRE
 70
     0
  9
$DIMCLRT
 70
     0
  9
$DIMTFAC
 40
1.0
  9
$DIMGAP
 40
2.0
  9
$DIMJUST
 70
     0
  9
$DIMSD1
 70
     0
  9
$DIMSD2
 70
     0
  9
$DIMTOLJ
 70
     0
  9
$DIMTZIN
 70
     0
  9
$DIMALTZ
 70
     0
  9
$DIMALTTZ
 70
     0
  9
$DIMUPT
 70
     0
  9
$DIMDEC
 70
     2
  9
$DIMTDEC
 70
     2
  9
$DIMALTU
 70
     2
  9
$DIMALTTD
 70
     3
  9
$DIMTXSTY
  7
Standard
  9
$DIMAUNIT
 70
     0
  9
$DIMADEC
 70
     2
  9
$DIMALTRND
 40
0.0
  9
$DIMAZIN
 70
     0
  9
$DIMDSEP
 70
    44
  9
$DIMATFIT
 70
     3
  9
$DIMFRAC
 70
     0
  9
$DIMLDRBLK
  1

  9
$DIMLUNIT
 70
     2
  9
$DIMLWD
 70
    -2
  9
$DIMLWE
 70
    -2
  9
$DIMTMOVE
 70
     0
  9
$LUNITS
 70
     2
  9
$LUPREC
 70
     2
  9
$SKETCHINC
 40
1.0
  9
$FILLETRAD
 40
10.0
  9
$AUNITS
 70
     0
  9
$AUPREC
 70
     2
  9
$MENU
  1
.
  9
$ELEVATION
 40
0.0
  9
$PELEVATION
 40
0.0
  9
$THICKNESS
 40
0.0
  9
$LIMCHECK
 70
     0
  9
$CHAMFERA
 40
0.0
  9
$CHAMFERB
 40
0.0
  9
$CHAMFERC
 40
0.0
  9
$CHAMFERD
 40
0.0
  9
$SKPOLY
 70
     0
  9
$TDCREATE
 40
2457688.698059016
  9
$TDUCREATE
 40
2457688.614725683
  9
$TDUPDATE
 40
2457688.698059595
  9
$TDUUPDATE
 40
2457688.614726262
  9
$TDINDWG
 40
0.0000000116
  9
$TDUSRTIMER
 40
0.0000000116
  9
$USRTIMER
 70
     1
  9
$ANGBASE
 50
0.0
  9
$ANGDIR
 70
     0
  9
$PDMODE
 70
     0
  9
$PDSIZE
 40
-1.0
  9
$PLINEWID
 40
0.0
  9
$SPLFRAME
 70
     0
  9
$SPLINETYPE
 70
     6
  9
$SPLINESEGS
 70
     8
  9
$HANDSEED
  5
4CC
  9
$SURFTAB1
 70
     6
  9
$SURFTAB2
 70
     6
  9
$SURFTYPE
 70
     6
  9
$SURFU
 70
     6
  9
$SURFV
 70
     6
  9
$UCSBASE
  2

  9
$UCSNAME
  2

  9
$UCSORG
 10
0.0
 20
0.0
 30
0.0
  9
$UCSXDIR
 10
1.0
 20
0.0
 30
0.0
  9
$UCSYDIR
 10
0.0
 20
1.0
 30
0.0
  9
$UCSORTHOREF
  2

  9
$UCSORTHOVIEW
 70
     0
  9
$UCSORGTOP
 10
0.0
 20
0.0
 30
0.0
  9
$UCSORGBOTTOM
 10
0.0
 20
0.0
 30
0.0
  9
$UCSORGLEFT
 10
0.0
 20
0.0
 30
0.0
  9
$UCSORGRIGHT
 10
0.0
 20
0.0
 30
0.0
  9
$UCSORGFRONT
 10
0.0
 20
0.0
 30
0.0
  9
$UCSORGBACK
 10
0.0
 20
0.0
 30
0.0
  9
$PUCSBASE
  2

  9
$PUCSNAME
  2

  9
$PUCSORG
 10
0.0
 20
0.0
 30
0.0
  9
$PUCSXDIR
 10
1.0
 20
0.0
 30
0.0
  9
$PUCSYDIR
 10
0.0
 20
1.0
 30
0.0
  9
$PUCSORTHOREF
  2

  9
$PUCSORTHOVIEW
 70
     0
  9
$PUCSORGTOP
 10
0.0
 20
0.0
 30
0.0
  9
$PUCSORGBOTTOM
 10
0.0
 20
0.0
 30
0.0
  9
$PUCSORGLEFT
 10
0.0
 20
0.0
 30
0.0
  9
$PUCSORGRIGHT
 10
0.0
 20
0.0
 30
0.0
  9
$PUCSORGFRONT
 10
0.0
 20
0.0
 30
0.0
  9
$PUCSORGBACK
 10
0.0
 20
0.0
 30
0.0
  9
$USERI1
 70
     0
  9
$USERI2
 70
     0
  9
$USERI3
 70
     0
  9
$USERI4
 70
     0
  9
$USERI5
 70
     0
  9
$USERR1
 40
0.0
  9
$USERR2
 40
0.0
  9
$USERR3
 40
0.0
  9
$USERR4
 40
0.0
  9
$USERR5
 40
0.0
  9
$WORLDVIEW
 70
     1
  9
$SHADEDGE
 70
     3
  9
$SHADEDIF
 70
    70
  9
$TILEMODE
 70
     1
  9
$MAXACTVP
 70
    64
  9
$PINSBASE
 10
0.0
 20
0.0
 30
0.0
  9
$PLIMCHECK
 70
     0
  9
$PEXTMIN
 10
1.0000000000E+20
 20
1.0000000000E+20
 30
1.0000000000E+20
  9
$PEXTMAX
 10
-1.0000000000E+20
 20
-1.0000000000E+20
 30
-1.0000000000E+20
  9
$PLIMMIN
 10
0.0
 20
0.0
  9
$PLIMMAX
 10
420.0
 20
297.0
  9
$UNITMODE
 70
     0
  9
$VISRETAIN
 70
     1
  9
$PLINEGEN
 70
     0
  9
$PSLTSCALE
 70
     1
  9
$TREEDEPTH
 70
  3020
  9
$CMLSTYLE
  2
Standard
  9
$CMLJUST
 70
     0
  9
$CMLSCALE
 40
20.0
  9
$PROXYGRAPHICS
 70
     1
  9
$MEASUREMENT
 70
     1
  9
$CELWEIGHT
370
    -1
  9
$ENDCAPS
280
     0
  9
$JOINSTYLE
280
     0
  9
$LWDISPLAY
290
     1
  9
$INSUNITS
 70
     4
  9
$HYPERLINKBASE
  1

  9
$STYLESHEET
  1

  9
$XEDIT
290
     1
  9
$CEPSNTYPE
380
     0
  9
$PSTYLEMODE
290
     1
  9
$FINGERPRINTGUID
  2
{FC28AF55-16E8-4D97-AFAC-5D726CE38DC9}
  9
$VERSIONGUID
  2
{FAEB1C32-E019-11D5-929B-00C0DF256EC4}
  9
$EXTNAMES
290
     1
  9
$PSVPSCALE
 40
0.0
  9
$OLESTARTUP
290
     0
  0
ENDSEC
  0
SECTION
  2
CLASSES
  0
CLASS
  1
ACDBDICTIONARYWDFLT
  2
AcDbDictionaryWithDefault
  3
ObjectDBX Classes
 90
        0
280
     0
281
     0
  0
CLASS
  1
VISUALSTYLE
  2
AcDbVisualStyle
  3
ObjectDBX Classes
 90
     4095
280
     0
281
     0
  0
CLASS
  1
MATERIAL
  2
AcDbMaterial
  3
ObjectDBX Classes
 90
     1153
280
     0
281
     0
  0
CLASS
  1
SCALE
  2
AcDbScale
  3
ObjectDBX Classes
 90
     1153
280
     0
281
     0
  0
CLASS
  1
TABLESTYLE
  2
AcDbTableStyle
  3
ObjectDBX Classes
 90
     4095
280
     0
281
     0
  0
CLASS
  1
MLEADERSTYLE
  2
AcDbMLeaderStyle
  3
ACDB_MLEADERSTYLE_CLASS
 90
     4095
280
     0
281
     0
  0
CLASS
  1
SUN
  2
AcDbSun
  3
SCENEOE
 90
     1153
280
     0
281
     0
  0
CLASS
  1
ACDBPLACEHOLDER
  2
AcDbPlaceHolder
  3
ObjectDBX Classes
 90
        0
280
     0
281
     0
  0
CLASS
  1
LAYOUT
  2
AcDbLayout
  3
ObjectDBX Classes
 90
        0
280
     0
281
     0
  0
ENDSEC
  0
SECTION
  2
TABLES
  0
TABLE
  2
VPORT
  5
8
330
0
100
AcDbSymbolTable
 70
     1
  0
VPORT
  5
29
330
8
100
AcDbSymbolTableRecord
100
AcDbViewportTableRecord
  2
*Active
 70
     0
 10
0.0
 20
0.0
 11
1.0
 21
1.0
 12
215.9
 22
139.7
 13
0.0
 23
0.0
 14
10.0
 24
10.0
 15
10.0
 25
10.0
 16
0.0
 26
0.0
 36
1.0
 17
0.0
 27
0.0
 37
0.0
 40
279.4
 41
1.5454545455
 42
50.0
 43
0.0
 44
0.0
 50
0.0
 51
0.0
 71
     0
 72
  2000
 73
     1
 74
     3
 75
     0
 76
     0
 77
     0
 78
     0
281
     0
 65
     1
110
0.0
120
0.0
130
0.0
111
1.0
121
0.0
131
0.0
112
0.0
122
1.0
132
0.0
 79
     0
146
0.0
  0
ENDTAB
  0
TABLE
  2
LTYPE
  5
5
330
0
100
AcDbSymbolTable
 70
     6
  0
LTYPE
  5
14
330
5
100
AcDbSymbolTableRecord
100
AcDbLinetypeTableRecord
  2
ByBlock
 70
     0
  3

 72
    65
 73
     0
 40
0.0
  0
LTYPE
  5
15
330
5
100
AcDbSymbolTableRecord
100
AcDbLinetypeTableRecord
  2
ByLayer
 70
     0
  3

 72
    65
 73
     0
 40
0.0
  0
LTYPE
  5
16
330
5
100
AcDbSymbolTableRecord
100
AcDbLinetypeTableRecord
  2
Continuous
 70
     0
  3
Solid line
 72
    65
 73
     0
 40
0.0
  0
LTYPE
  5
6E
330
5
100
AcDbSymbolTableRecord
100
AcDbLinetypeTableRecord
  2
HIDDEN
 70
     0
  3
Hidden __ __ __ __ __ __ __ __ __ __ __ __ __ __
 72
    65
 73
     2
 40
1.905
 49
1.27
 74
     0
 49
-0.635
 74
     0
  0
LTYPE
  5
6F
330
5
100
AcDbSymbolTableRecord
100
AcDbLinetypeTableRecord
  2
PHANTOM
 70
     0
  3
Phantom ______  __  __  ______  __  __  ______
 72
    65
 73
     6
 40
12.7
 49
6.35
 74
     0
 49
-1.27
 74
     0
 49
1.27
 74
     0
 49
-1.27
 74
     0
 49
1.27
 74
     0
 49
-1.27
 74
     0
  0
LTYPE
  5
70
330
5
100
AcDbSymbolTableRecord
100
AcDbLinetypeTableRecord
  2
CENTER
 70
     0
  3
Center ____ _ ____ _ ____ _ ____ _ ____ _ ____
 72
    65
 73
     4
 40
10.16
 49
6.35
 74
     0
 49
-1.27
 74
     0
 49
1.27
 74
     0
 49
-1.27
 74
     0
  0
LTYPE
  5
71
330
5
100
AcDbSymbolTableRecord
100
AcDbLinetypeTableRecord
  2
CENTERX2
 70
     0
  3
Center (2x) ________  __  ________  __  _____
 72
    65
 73
     4
 40
20.32
 49
12.7
 74
     0
 49
-2.54
 74
     0
 49
2.54
 74
     0
 49
-2.54
 74
     0
  0
LTYPE
  5
72
330
5
100
AcDbSymbolTableRecord
100
AcDbLinetypeTableRecord
  2
DOT2
 70
     0
  3
Dot (.5x) ........................................
 72
    65
 73
     2
 40
0.635
 49
0.0
 74
     0
 49
-0.635
 74
     0
  0
ENDTAB
  0
TABLE
  2
LAYER
  5
2
330
0
100
AcDbSymbolTable
 70
     3
  0
LAYER
  5
10
330
2
100
AcDbSymbolTableRecord
100
AcDbLayerTableRecord
  2
0
 70
     0
 62
     7
  6
Continuous
370
    -3
390
F
  0
LAYER
  5
73
330
2
100
AcDbSymbolTableRecord
100
AcDbLayerTableRecord
  2
SLD-0
 70
     0
 62
   179
  6
Continuous
370
    -3
390
F
  0
LAYER
  5
74
330
2
100
AcDbSymbolTableRecord
100
AcDbLayerTableRecord
  2
EBENE_1
 70
     0
 62
   179
  6
Continuous
370
    -3
390
F
  0
ENDTAB
  0
TABLE
  2
STYLE
  5
3
330
0
100
AcDbSymbolTable
 70
     3
  0
STYLE
  5
11
330
3
100
AcDbSymbolTableRecord
100
AcDbTextStyleTableRecord
  2
Standard
 70
     0
 40
0.0
 41
1.0
 50
0.0
 71
     0
 42
4.9388888889
  3
txt
  4

  0
STYLE
  5
96
330
3
100
AcDbSymbolTableRecord
100
AcDbTextStyleTableRecord
  2
SLDTEXTSTYLE0
 70
     0
 40
0.0
 41
0.605
 50
0.0
 71
     0
 42
4.9388888889
  3
TXT
  4

  0
STYLE
  5
16E
330
3
100
AcDbSymbolTableRecord
100
AcDbTextStyleTableRecord
  2
SLDTEXTSTYLE1
 70
     0
 40
0.0
 41
0.75
 50
0.0
 71
     0
 42
4.9388888889
  3
TXT
  4

  0
ENDTAB
  0
TABLE
  2
VIEW
  5
6
330
0
100
AcDbSymbolTable
 70
     0
  0
ENDTAB
  0
TABLE
  2
UCS
  5
7
330
0
100
AcDbSymbolTable
 70
     0
  0
ENDTAB
  0
TABLE
  2
APPID
  5
9
330
0
100
AcDbSymbolTable
 70
     1
  0
APPID
  5
12
330
9
100
AcDbSymbolTableRecord
100
AcDbRegAppTableRecord
  2
ACAD
 70
     0
  0
ENDTAB
  0
TABLE
  2
DIMSTYLE
  5
A
330
0
100
AcDbSymbolTable
 70
     1
100
AcDbDimStyleTable
  0
DIMSTYLE
105
27
330
A
100
AcDbSymbolTableRecord
100
AcDbDimStyleTableRecord
  2
ISO-25
 70
     0
 41
2.5
 42
0.625
 43
3.75
 44
1.25
 73
     0
 74
     0
 77
     1
 78
     8
140
2.5
141
2.5
143
0.0393700787
147
0.625
171
     3
172
     1
178
     0
271
     2
272
     2
274
     3
278
    44
283
     0
284
     8
340
11
  0
ENDTAB
  0
TABLE
  2
BLOCK_RECORD
  5
1
330
0
100
AcDbSymbolTable
 70
    25
  0
BLOCK_RECORD
  5
1F
330
1
100
AcDbSymbolTableRecord
100
AcDbBlockTableRecord
  2
*Model_Space
340
22
  0
BLOCK_RECORD
  5
1B
330
1
100
AcDbSymbolTableRecord
100
AcDbBlockTableRecord
  2
*Paper_Space
340
1E
  0
BLOCK_RECORD
  5
23
330
1
100
AcDbSymbolTableRecord
100
AcDbBlockTableRecord
  2
*Paper_Space0
340
26
  0
BLOCK_RECORD
  5
75
330
1
100
AcDbSymbolTableRecord
100
AcDbBlockTableRecord
  2
Block1
340
0
102
{BLKREFS
331
16D
102
}
  0
BLOCK_RECORD
  5
8C
330
1
100
AcDbSymbolTableRecord
100
AcDbBlockTableRecord
  2
SW_BLOCK_DIMENSION_0
340
0
102
{BLKREFS
331
98
102
}
  0
BLOCK_RECORD
  5
8F
330
1
100
AcDbSymbolTableRecord
100
AcDbBlockTableRecord
  2
_ORIGIN
340
0
102
{BLKREFS
331
94
331
104
102
}
  0
BLOCK_RECORD
  5
99
330
1
100
AcDbSymbolTableRecord
100
AcDbBlockTableRecord
  2
SW_BLOCK_DIMENSION_1
340
0
102
{BLKREFS
331
A0
102
}
  0
BLOCK_RECORD
  5
A1
330
1
100
AcDbSymbolTableRecord
100
AcDbBlockTableRecord
  2
SW_BLOCK_DIMENSION_2
340
0
102
{BLKREFS
331
A8
102
}
  0
BLOCK_RECORD
  5
A9
330
1
100
AcDbSymbolTableRecord
100
AcDbBlockTableRecord
  2
SW_BLOCK_DIMENSION_3
340
0
102
{BLKREFS
331
B0
102
}
  0
BLOCK_RECORD
  5
B1
330
1
100
AcDbSymbolTableRecord
100
AcDbBlockTableRecord
  2
SW_BLOCK_DIMENSION_4
340
0
102
{BLKREFS
331
B8
102
}
  0
BLOCK_RECORD
  5
B9
330
1
100
AcDbSymbolTableRecord
100
AcDbBlockTableRecord
  2
SW_BLOCK_DIMENSION_5
340
0
102
{BLKREFS
331
C0
102
}
  0
BLOCK_RECORD
  5
C1
330
1
100
AcDbSymbolTableRecord
100
AcDbBlockTableRecord
  2
SW_BLOCK_DIMENSION_6
340
0
102
{BLKREFS
331
C8
102
}
  0
BLOCK_RECORD
  5
C9
330
1
100
AcDbSymbolTableRecord
100
AcDbBlockTableRecord
  2
SW_BLOCK_DIMENSION_7
340
0
102
{BLKREFS
331
D0
102
}
  0
BLOCK_RECORD
  5
D1
330
1
100
AcDbSymbolTableRecord
100
AcDbBlockTableRecord
  2
SW_BLOCK_DIMENSION_8
340
0
102
{BLKREFS
331
D8
102
}
  0
BLOCK_RECORD
  5
D9
330
1
100
AcDbSymbolTableRecord
100
AcDbBlockTableRecord
  2
SW_BLOCK_DIMENSION_9
340
0
102
{BLKREFS
331
E0
102
}
  0
BLOCK_RECORD
  5
E1
330
1
100
AcDbSymbolTableRecord
100
AcDbBlockTableRecord
  2
SW_BLOCK_DIMENSION_10
340
0
102
{BLKREFS
331
E8
102
}
  0
BLOCK_RECORD
  5
E9
330
1
100
AcDbSymbolTableRecord
100
AcDbBlockTableRecord
  2
SW_BLOCK_DIMENSION_11
340
0
102
{BLKREFS
331
F0
102
}
  0
BLOCK_RECORD
  5
F1
330
1
100
AcDbSymbolTableRecord
100
AcDbBlockTableRecord
  2
SW_BLOCK_DIMENSION_12
340
0
102
{BLKREFS
331
F8
102
}
  0
BLOCK_RECORD
  5
F9
330
1
100
AcDbSymbolTableRecord
100
AcDbBlockTableRecord
  2
SW_BLOCK_DIMENSION_13
340
0
102
{BLKREFS
331
100
102
}
  0
BLOCK_RECORD
  5
101
330
1
100
AcDbSymbolTableRecord
100
AcDbBlockTableRecord
  2
SW_BLOCK_DIMENSION_14
340
0
102
{BLKREFS
331
110
102
}
  0
BLOCK_RECORD
  5
111
330
1
100
AcDbSymbolTableRecord
100
AcDbBlockTableRecord
  2
SW_BLOCK_DIMENSION_15
340
0
102
{BLKREFS
331
121
102
}
  0
BLOCK_RECORD
  5
122
330
1
100
AcDbSymbolTableRecord
100
AcDbBlockTableRecord
  2
SW_BLOCK_DIMENSION_16
340
0
102
{BLKREFS
331
132
102
}
  0
BLOCK_RECORD
  5
133
330
1
100
AcDbSymbolTableRecord
100
AcDbBlockTableRecord
  2
SW_BLOCK_DIMENSION_17
340
0
102
{BLKREFS
331
143
102
}
  0
BLOCK_RECORD
  5
144
330
1
100
AcDbSymbolTableRecord
100
AcDbBlockTableRecord
  2
SW_BLOCK_DIMENSION_18
340
0
102
{BLKREFS
331
154
102
}
  0
BLOCK_RECORD
  5
155
330
1
100
AcDbSymbolTableRecord
100
AcDbBlockTableRecord
  2
SW_BLOCK_DIMENSION_19
340
0
102
{BLKREFS
331
165
102
}
  0
BLOCK_RECORD
  5
166
330
1
100
AcDbSymbolTableRecord
100
AcDbBlockTableRecord
  2
SW_NOTE_0
340
0
102
{BLKREFS
331
16B
102
}
  0
BLOCK_RECORD
  5
171
330
1
100
AcDbSymbolTableRecord
100
AcDbBlockTableRecord
  2
SW_NOTE_1
340
0
102
{BLKREFS
331
178
102
}
  0
ENDTAB
  0
ENDSEC
  0
SECTION
  2
BLOCKS
  0
BLOCK
  5
20
330
1F
100
AcDbEntity
  8
0
100
AcDbBlockBegin
  2
*Model_Space
 70
     0
 10
0.0
 20
0.0
 30
0.0
  3
*Model_Space
  1

  0
ENDBLK
  5
21
330
1F
100
AcDbEntity
  8
0
100
AcDbBlockEnd
  0
BLOCK
  5
1C
330
1B
100
AcDbEntity
 67
     1
  8
0
100
AcDbBlockBegin
  2
*Paper_Space
 70
     0
 10
0.0
 20
0.0
 30
0.0
  3
*Paper_Space
  1

  0
ENDBLK
  5
1D
330
1B
100
AcDbEntity
 67
     1
  8
0
100
AcDbBlockEnd
  0
BLOCK
  5
24
330
23
100
AcDbEntity
  8
0
100
AcDbBlockBegin
  2
*Paper_Space0
 70
     0
 10
0.0
 20
0.0
 30
0.0
  3
*Paper_Space0
  1

  0
ENDBLK
  5
25
330
23
100
AcDbEntity
  8
0
100
AcDbBlockEnd
  0
BLOCK
  5
76
330
75
100
AcDbEntity
  8
0
100
AcDbBlockBegin
  2
Block1
 70
     0
 10
0.0
 20
0.0
 30
0.0
  3
Block1
  1

  0
LINE
  5
78
330
75
100
AcDbEntity
  8
EBENE_1
100
AcDbLine
 10
363.6834285714
 20
41.3579706949
 30
0.0
 11
388.6834285714
 21
41.3579706949
 31
0.0
  0
LINE
  5
79
330
75
100
AcDbEntity
  8
EBENE_1
100
AcDbLine
 10
374.9034285714
 20
41.3579706949
 30
0.0
 11
374.9034285714
 21
171.3579706949
 31
0.0
  0
LINE
  5
7A
330
75
100
AcDbEntity
  8
EBENE_1
100
AcDbLine
 10
374.9034285714
 20
51.3579706949
 30
0.0
 11
384.9034285714
 21
51.3579706949
 31
0.0
  0
LINE
  5
7B
330
75
100
AcDbEntity
  8
EBENE_1
100
AcDbLine
 10
374.9034285714
 20
61.3579706949
 30
0.0
 11
384.9034285714
 21
61.3579706949
 31
0.0
  0
LINE
  5
7C
330
75
100
AcDbEntity
  8
EBENE_1
100
AcDbLine
 10
374.9034285714
 20
71.3579706949
 30
0.0
 11
384.9034285714
 21
71.3579706949
 31
0.0
  0
LINE
  5
7D
330
75
100
AcDbEntity
  8
EBENE_1
100
AcDbLine
 10
374.9034285714
 20
81.3579706949
 30
0.0
 11
384.9034285714
 21
81.3579706949
 31
0.0
  0
LINE
  5
7E
330
75
100
AcDbEntity
  8
EBENE_1
100
AcDbLine
 10
374.9034285714
 20
91.3579706949
 30
0.0
 11
384.9034285714
 21
91.3579706949
 31
0.0
  0
LINE
  5
7F
330
75
100
AcDbEntity
  8
EBENE_1
100
AcDbLine
 10
374.9034285714
 20
101.3579706949
 30
0.0
 11
384.9034285714
 21
101.3579706949
 31
0.0
  0
LINE
  5
80
330
75
100
AcDbEntity
  8
EBENE_1
100
AcDbLine
 10
374.9034285714
 20
111.3579706949
 30
0.0
 11
384.9034285714
 21
111.3579706949
 31
0.0
  0
LINE
  5
81
330
75
100
AcDbEntity
  8
EBENE_1
100
AcDbLine
 10
374.9034285714
 20
121.3579706949
 30
0.0
 11
384.9034285714
 21
121.3579706949
 31
0.0
  0
LINE
  5
82
330
75
100
AcDbEntity
  8
EBENE_1
100
AcDbLine
 10
374.9034285714
 20
131.3579706949
 30
0.0
 11
384.9034285714
 21
131.3579706949
 31
0.0
  0
LINE
  5
83
330
75
100
AcDbEntity
  8
EBENE_1
100
AcDbLine
 10
374.9034285714
 20
141.3579706949
 30
0.0
 11
384.9034285714
 21
141.3579706949
 31
0.0
  0
LINE
  5
84
330
75
100
AcDbEntity
  8
EBENE_1
100
AcDbLine
 10
374.9034285714
 20
151.3579706949
 30
0.0
 11
384.9034285714
 21
151.3579706949
 31
0.0
  0
LINE
  5
85
330
75
100
AcDbEntity
  8
EBENE_1
100
AcDbLine
 10
374.9034285714
 20
161.3579706949
 30
0.0
 11
384.9034285714
 21
161.3579706949
 31
0.0
  0
LINE
  5
86
330
75
100
AcDbEntity
  8
EBENE_1
100
AcDbLine
 10
374.9034285714
 20
171.3579706949
 30
0.0
 11
384.9034285714
 21
171.3579706949
 31
0.0
  0
LINE
  5
87
330
75
100
AcDbEntity
  8
EBENE_1
100
AcDbLine
 10
374.9034285714
 20
66.7579706949
 30
0.0
 11
362.9034285714
 21
66.7579706949
 31
0.0
  0
LINE
  5
88
330
75
100
AcDbEntity
  8
EBENE_1
100
AcDbLine
 10
374.9034285714
 20
92.1579706949
 30
0.0
 11
362.9034285714
 21
92.1579706949
 31
0.0
  0
LINE
  5
89
330
75
100
AcDbEntity
  8
EBENE_1
100
AcDbLine
 10
374.9034285714
 20
117.5579706949
 30
0.0
 11
362.9034285714
 21
117.5579706949
 31
0.0
  0
LINE
  5
8A
330
75
100
AcDbEntity
  8
EBENE_1
100
AcDbLine
 10
374.9034285714
 20
142.9579706949
 30
0.0
 11
362.9034285714
 21
142.9579706949
 31
0.0
  0
LINE
  5
8B
330
75
100
AcDbEntity
  8
EBENE_1
100
AcDbLine
 10
374.9034285714
 20
168.3579706949
 30
0.0
 11
362.9034285714
 21
168.3579706949
 31
0.0
  0
INSERT
  5
98
330
75
100
AcDbEntity
  8
EBENE_1
100
AcDbBlockReference
  2
SW_BLOCK_DIMENSION_0
 10
397.2096946378
 20
38.9914197296
 30
0.0
  0
INSERT
  5
A0
330
75
100
AcDbEntity
  8
EBENE_1
100
AcDbBlockReference
  2
SW_BLOCK_DIMENSION_1
 10
397.2096946378
 20
48.9914197296
 30
0.0
  0
INSERT
  5
A8
330
75
100
AcDbEntity
  8
EBENE_1
100
AcDbBlockReference
  2
SW_BLOCK_DIMENSION_2
 10
397.2096946378
 20
58.9914197296
 30
0.0
  0
INSERT
  5
B0
330
75
100
AcDbEntity
  8
EBENE_1
100
AcDbBlockReference
  2
SW_BLOCK_DIMENSION_3
 10
397.2096946378
 20
68.9914197296
 30
0.0
  0
INSERT
  5
B8
330
75
100
AcDbEntity
  8
EBENE_1
100
AcDbBlockReference
  2
SW_BLOCK_DIMENSION_4
 10
397.2096946378
 20
78.9914197296
 30
0.0
  0
INSERT
  5
C0
330
75
100
AcDbEntity
  8
EBENE_1
100
AcDbBlockReference
  2
SW_BLOCK_DIMENSION_5
 10
397.2096946378
 20
88.9914197296
 30
0.0
  0
INSERT
  5
C8
330
75
100
AcDbEntity
  8
EBENE_1
100
AcDbBlockReference
  2
SW_BLOCK_DIMENSION_6
 10
397.2096946378
 20
98.9914197296
 30
0.0
  0
INSERT
  5
D0
330
75
100
AcDbEntity
  8
EBENE_1
100
AcDbBlockReference
  2
SW_BLOCK_DIMENSION_7
 10
397.2096946378
 20
108.9914197296
 30
0.0
  0
INSERT
  5
D8
330
75
100
AcDbEntity
  8
EBENE_1
100
AcDbBlockReference
  2
SW_BLOCK_DIMENSION_8
 10
397.2096946378
 20
118.9914197296
 30
0.0
  0
INSERT
  5
E0
330
75
100
AcDbEntity
  8
EBENE_1
100
AcDbBlockReference
  2
SW_BLOCK_DIMENSION_9
 10
397.2096946378
 20
128.9914197296
 30
0.0
  0
INSERT
  5
E8
330
75
100
AcDbEntity
  8
EBENE_1
100
AcDbBlockReference
  2
SW_BLOCK_DIMENSION_10
 10
397.2096946378
 20
138.9914197296
 30
0.0
  0
INSERT
  5
F0
330
75
100
AcDbEntity
  8
EBENE_1
100
AcDbBlockReference
  2
SW_BLOCK_DIMENSION_11
 10
397.2096946378
 20
148.9914197296
 30
0.0
  0
INSERT
  5
F8
330
75
100
AcDbEntity
  8
EBENE_1
100
AcDbBlockReference
  2
SW_BLOCK_DIMENSION_12
 10
397.2096946378
 20
158.9914197296
 30
0.0
  0
INSERT
  5
100
330
75
100
AcDbEntity
  8
EBENE_1
100
AcDbBlockReference
  2
SW_BLOCK_DIMENSION_13
 10
397.2096946378
 20
168.9914197296
 30
0.0
  0
INSERT
  5
110
330
75
100
AcDbEntity
  8
EBENE_1
100
AcDbBlockReference
  2
SW_BLOCK_DIMENSION_14
 10
337.2987953614
 20
36.1691980072
 30
0.0
  0
INSERT
  5
121
330
75
100
AcDbEntity
  8
EBENE_1
100
AcDbBlockReference
  2
SW_BLOCK_DIMENSION_15
 10
337.2987953614
 20
61.5691980072
 30
0.0
  0
INSERT
  5
132
330
75
100
AcDbEntity
  8
EBENE_1
100
AcDbBlockReference
  2
SW_BLOCK_DIMENSION_16
 10
337.2987953614
 20
86.9691980072
 30
0.0
  0
INSERT
  5
143
330
75
100
AcDbEntity
  8
EBENE_1
100
AcDbBlockReference
  2
SW_BLOCK_DIMENSION_17
 10
337.2987953614
 20
112.3691980072
 30
0.0
  0
INSERT
  5
154
330
75
100
AcDbEntity
  8
EBENE_1
100
AcDbBlockReference
  2
SW_BLOCK_DIMENSION_18
 10
336.8284243759
 20
137.7691980072
 30
0.0
  0
INSERT
  5
165
330
75
100
AcDbEntity
  8
EBENE_1
100
AcDbBlockReference
  2
SW_BLOCK_DIMENSION_19
 10
337.2987953614
 20
163.1691980072
 30
0.0
  0
INSERT
  5
16B
330
75
100
AcDbEntity
  8
EBENE_1
 62
   179
100
AcDbBlockReference
  2
SW_NOTE_0
 10
337.5586028241
 20
28.8175207347
 30
0.0
  0
MTEXT
  5
16C
330
75
100
AcDbEntity
  8
EBENE_1
100
AcDbMText
 10
393.160738319
 20
33.5924424874
 30
0.0
 40
3.7041666667
 41
0.0
 71
     1
 72
     1
  1
mm
  7
SLDTEXTSTYLE0
 73
     1
 44
1.0
  0
ENDBLK
  5
77
330
75
100
AcDbEntity
  8
0
100
AcDbBlockEnd
  0
BLOCK
  5
8D
330
8C
100
AcDbEntity
  8
0
100
AcDbBlockBegin
  2
SW_BLOCK_DIMENSION_0
 70
     0
 10
0.0
 20
0.0
 30
0.0
  3
SW_BLOCK_DIMENSION_0
  1

  0
INSERT
  5
94
330
8C
100
AcDbEntity
  8
EBENE_1
 62
     0
100
AcDbBlockReference
  2
_ORIGIN
 10
-1.5805038061
 20
2.3665509652
 30
0.0
 41
0.9483022837
 42
0.9483022837
 50
0.0
  0
LINE
  5
95
330
8C
100
AcDbEntity
  8
EBENE_1
 62
     0
100
AcDbLine
 10
-6.5262660664
 20
2.3665509652
 30
0.0
 11
0.0
 21
2.3665509652
 31
0.0
  0
MTEXT
  5
97
330
8C
100
AcDbEntity
  8
EBENE_1
 62
     0
100
AcDbMText
 10
0.0
 20
4.0927900738
 30
0.0
 40
3.175
 41
0.0
 71
     1
 72
     1
  1
0
  7
SLDTEXTSTYLE0
 73
     1
 44
1.0
  0
ENDBLK
  5
8E
330
8C
100
AcDbEntity
  8
0
100
AcDbBlockEnd
  0
BLOCK
  5
90
330
8F
100
AcDbEntity
  8
0
100
AcDbBlockBegin
  2
_ORIGIN
 70
     0
 10
0.0
 20
0.0
 30
0.0
  3
_ORIGIN
  1

  0
CIRCLE
  5
92
330
8F
100
AcDbEntity
  8
0
  6
ByBlock
 62
     0
370
    -2
100
AcDbCircle
 10
0.0
 20
0.0
 30
0.0
 40
0.5
  0
LINE
  5
93
330
8F
100
AcDbEntity
  8
0
  6
ByBlock
 62
     0
370
    -2
100
AcDbLine
 10
0.0
 20
0.0
 30
0.0
 11
-1.0
 21
0.0
 31
0.0
  0
ENDBLK
  5
91
330
8F
100
AcDbEntity
  8
0
100
AcDbBlockEnd
  0
BLOCK
  5
9A
330
99
100
AcDbEntity
  8
0
100
AcDbBlockBegin
  2
SW_BLOCK_DIMENSION_1
 70
     0
 10
0.0
 20
0.0
 30
0.0
  3
SW_BLOCK_DIMENSION_1
  1

  0
SOLID
  5
9C
330
99
100
AcDbEntity
  8
EBENE_1
 62
     0
100
AcDbTrace
 10
-1.5805038061
 20
2.3665509652
 30
0.0
 11
-2.0546549479
 21
-0.7154314566
 31
0.0
 12
-1.1063526643
 22
-0.7154314566
 32
0.0
 13
-1.1063526643
 23
-0.7154314566
 33
0.0
  0
LINE
  5
9D
330
99
100
AcDbEntity
  8
EBENE_1
 62
     0
100
AcDbLine
 10
-10.3062660664
 20
2.3665509652
 30
0.0
 11
0.0
 21
2.3665509652
 31
0.0
  0
LINE
  5
9E
330
99
100
AcDbEntity
  8
EBENE_1
 62
     0
100
AcDbLine
 10
-1.5805038061
 20
-7.6334490348
 30
0.0
 11
-1.5805038061
 21
2.3665509652
 31
0.0
  0
MTEXT
  5
9F
330
99
100
AcDbEntity
  8
EBENE_1
 62
     0
100
AcDbMText
 10
0.0
 20
4.0927900738
 30
0.0
 40
3.175
 41
0.0
 71
     1
 72
     1
  1
10
  7
SLDTEXTSTYLE0
 73
     1
 44
1.0
  0
ENDBLK
  5
9B
330
99
100
AcDbEntity
  8
0
100
AcDbBlockEnd
  0
BLOCK
  5
A2
330
A1
100
AcDbEntity
  8
0
100
AcDbBlockBegin
  2
SW_BLOCK_DIMENSION_2
 70
     0
 10
0.0
 20
0.0
 30
0.0
  3
SW_BLOCK_DIMENSION_2
  1

  0
SOLID
  5
A4
330
A1
100
AcDbEntity
  8
EBENE_1
 62
     0
100
AcDbTrace
 10
-1.5805038061
 20
2.3665509652
 30
0.0
 11
-2.0546549479
 21
-0.7154314566
 31
0.0
 12
-1.1063526643
 22
-0.7154314566
 32
0.0
 13
-1.1063526643
 23
-0.7154314566
 33
0.0
  0
LINE
  5
A5
330
A1
100
AcDbEntity
  8
EBENE_1
 62
     0
100
AcDbLine
 10
-10.3062660664
 20
2.3665509652
 30
0.0
 11
0.0
 21
2.3665509652
 31
0.0
  0
LINE
  5
A6
330
A1
100
AcDbEntity
  8
EBENE_1
 62
     0
100
AcDbLine
 10
-1.5805038061
 20
-7.6334490348
 30
0.0
 11
-1.5805038061
 21
2.3665509652
 31
0.0
  0
MTEXT
  5
A7
330
A1
100
AcDbEntity
  8
EBENE_1
 62
     0
100
AcDbMText
 10
0.0
 20
4.0927900738
 30
0.0
 40
3.175
 41
0.0
 71
     1
 72
     1
  1
20
  7
SLDTEXTSTYLE0
 73
     1
 44
1.0
  0
ENDBLK
  5
A3
330
A1
100
AcDbEntity
  8
0
100
AcDbBlockEnd
  0
BLOCK
  5
AA
330
A9
100
AcDbEntity
  8
0
100
AcDbBlockBegin
  2
SW_BLOCK_DIMENSION_3
 70
     0
 10
0.0
 20
0.0
 30
0.0
  3
SW_BLOCK_DIMENSION_3
  1

  0
SOLID
  5
AC
330
A9
100
AcDbEntity
  8
EBENE_1
 62
     0
100
AcDbTrace
 10
-1.5805038061
 20
2.3665509652
 30
0.0
 11
-2.0546549479
 21
-0.7154314566
 31
0.0
 12
-1.1063526643
 22
-0.7154314566
 32
0.0
 13
-1.1063526643
 23
-0.7154314566
 33
0.0
  0
LINE
  5
AD
330
A9
100
AcDbEntity
  8
EBENE_1
 62
     0
100
AcDbLine
 10
-10.3062660664
 20
2.3665509652
 30
0.0
 11
0.0
 21
2.3665509652
 31
0.0
  0
LINE
  5
AE
330
A9
100
AcDbEntity
  8
EBENE_1
 62
     0
100
AcDbLine
 10
-1.5805038061
 20
-7.6334490348
 30
0.0
 11
-1.5805038061
 21
2.3665509652
 31
0.0
  0
MTEXT
  5
AF
330
A9
100
AcDbEntity
  8
EBENE_1
 62
     0
100
AcDbMText
 10
0.0
 20
4.0927900738
 30
0.0
 40
3.175
 41
0.0
 71
     1
 72
     1
  1
30
  7
SLDTEXTSTYLE0
 73
     1
 44
1.0
  0
ENDBLK
  5
AB
330
A9
100
AcDbEntity
  8
0
100
AcDbBlockEnd
  0
BLOCK
  5
B2
330
B1
100
AcDbEntity
  8
0
100
AcDbBlockBegin
  2
SW_BLOCK_DIMENSION_4
 70
     0
 10
0.0
 20
0.0
 30
0.0
  3
SW_BLOCK_DIMENSION_4
  1

  0
SOLID
  5
B4
330
B1
100
AcDbEntity
  8
EBENE_1
 62
     0
100
AcDbTrace
 10
-1.5805038061
 20
2.3665509652
 30
0.0
 11
-2.0546549479
 21
-0.7154314566
 31
0.0
 12
-1.1063526643
 22
-0.7154314566
 32
0.0
 13
-1.1063526643
 23
-0.7154314566
 33
0.0
  0
LINE
  5
B5
330
B1
100
AcDbEntity
  8
EBENE_1
 62
     0
100
AcDbLine
 10
-10.3062660664
 20
2.3665509652
 30
0.0
 11
0.0
 21
2.3665509652
 31
0.0
  0
LINE
  5
B6
330
B1
100
AcDbEntity
  8
EBENE_1
 62
     0
100
AcDbLine
 10
-1.5805038061
 20
-7.6334490348
 30
0.0
 11
-1.5805038061
 21
2.3665509652
 31
0.0
  0
MTEXT
  5
B7
330
B1
100
AcDbEntity
  8
EBENE_1
 62
     0
100
AcDbMText
 10
0.0
 20
4.0927900738
 30
0.0
 40
3.175
 41
0.0
 71
     1
 72
     1
  1
40
  7
SLDTEXTSTYLE0
 73
     1
 44
1.0
  0
ENDBLK
  5
B3
330
B1
100
AcDbEntity
  8
0
100
AcDbBlockEnd
  0
BLOCK
  5
BA
330
B9
100
AcDbEntity
  8
0
100
AcDbBlockBegin
  2
SW_BLOCK_DIMENSION_5
 70
     0
 10
0.0
 20
0.0
 30
0.0
  3
SW_BLOCK_DIMENSION_5
  1

  0
SOLID
  5
BC
330
B9
100
AcDbEntity
  8
EBENE_1
 62
     0
100
AcDbTrace
 10
-1.5805038061
 20
2.3665509652
 30
0.0
 11
-2.0546549479
 21
-0.7154314566
 31
0.0
 12
-1.1063526643
 22
-0.7154314566
 32
0.0
 13
-1.1063526643
 23
-0.7154314566
 33
0.0
  0
LINE
  5
BD
330
B9
100
AcDbEntity
  8
EBENE_1
 62
     0
100
AcDbLine
 10
-10.3062660664
 20
2.3665509652
 30
0.0
 11
0.0
 21
2.3665509652
 31
0.0
  0
LINE
  5
BE
330
B9
100
AcDbEntity
  8
EBENE_1
 62
     0
100
AcDbLine
 10
-1.5805038061
 20
-7.6334490348
 30
0.0
 11
-1.5805038061
 21
2.3665509652
 31
0.0
  0
MTEXT
  5
BF
330
B9
100
AcDbEntity
  8
EBENE_1
 62
     0
100
AcDbMText
 10
0.0
 20
4.0927900738
 30
0.0
 40
3.175
 41
0.0
 71
     1
 72
     1
  1
50
  7
SLDTEXTSTYLE0
 73
     1
 44
1.0
  0
ENDBLK
  5
BB
330
B9
100
AcDbEntity
  8
0
100
AcDbBlockEnd
  0
BLOCK
  5
C2
330
C1
100
AcDbEntity
  8
0
100
AcDbBlockBegin
  2
SW_BLOCK_DIMENSION_6
 70
     0
 10
0.0
 20
0.0
 30
0.0
  3
SW_BLOCK_DIMENSION_6
  1

  0
SOLID
  5
C4
330
C1
100
AcDbEntity
  8
EBENE_1
 62
     0
100
AcDbTrace
 10
-1.5805038061
 20
2.3665509652
 30
0.0
 11
-2.0546549479
 21
-0.7154314566
 31
0.0
 12
-1.1063526643
 22
-0.7154314566
 32
0.0
 13
-1.1063526643
 23
-0.7154314566
 33
0.0
  0
LINE
  5
C5
330
C1
100
AcDbEntity
  8
EBENE_1
 62
     0
100
AcDbLine
 10
-10.3062660664
 20
2.3665509652
 30
0.0
 11
0.0
 21
2.3665509652
 31
0.0
  0
LINE
  5
C6
330
C1
100
AcDbEntity
  8
EBENE_1
 62
     0
100
AcDbLine
 10
-1.5805038061
 20
-7.6334490348
 30
0.0
 11
-1.5805038061
 21
2.3665509652
 31
0.0
  0
MTEXT
  5
C7
330
C1
100
AcDbEntity
  8
EBENE_1
 62
     0
100
AcDbMText
 10
0.0
 20
4.0927900738
 30
0.0
 40
3.175
 41
0.0
 71
     1
 72
     1
  1
60
  7
SLDTEXTSTYLE0
 73
     1
 44
1.0
  0
ENDBLK
  5
C3
330
C1
100
AcDbEntity
  8
0
100
AcDbBlockEnd
  0
BLOCK
  5
CA
330
C9
100
AcDbEntity
  8
0
100
AcDbBlockBegin
  2
SW_BLOCK_DIMENSION_7
 70
     0
 10
0.0
 20
0.0
 30
0.0
  3
SW_BLOCK_DIMENSION_7
  1

  0
SOLID
  5
CC
330
C9
100
AcDbEntity
  8
EBENE_1
 62
     0
100
AcDbTrace
 10
-1.5805038061
 20
2.3665509652
 30
0.0
 11
-2.0546549479
 21
-0.7154314566
 31
0.0
 12
-1.1063526643
 22
-0.7154314566
 32
0.0
 13
-1.1063526643
 23
-0.7154314566
 33
0.0
  0
LINE
  5
CD
330
C9
100
AcDbEntity
  8
EBENE_1
 62
     0
100
AcDbLine
 10
-10.3062660664
 20
2.3665509652
 30
0.0
 11
0.0
 21
2.3665509652
 31
0.0
  0
LINE
  5
CE
330
C9
100
AcDbEntity
  8
EBENE_1
 62
     0
100
AcDbLine
 10
-1.5805038061
 20
-7.6334490348
 30
0.0
 11
-1.5805038061
 21
2.3665509652
 31
0.0
  0
MTEXT
  5
CF
330
C9
100
AcDbEntity
  8
EBENE_1
 62
     0
100
AcDbMText
 10
0.0
 20
4.0927900738
 30
0.0
 40
3.175
 41
0.0
 71
     1
 72
     1
  1
70
  7
SLDTEXTSTYLE0
 73
     1
 44
1.0
  0
ENDBLK
  5
CB
330
C9
100
AcDbEntity
  8
0
100
AcDbBlockEnd
  0
BLOCK
  5
D2
330
D1
100
AcDbEntity
  8
0
100
AcDbBlockBegin
  2
SW_BLOCK_DIMENSION_8
 70
     0
 10
0.0
 20
0.0
 30
0.0
  3
SW_BLOCK_DIMENSION_8
  1

  0
SOLID
  5
D4
330
D1
100
AcDbEntity
  8
EBENE_1
 62
     0
100
AcDbTrace
 10
-1.5805038061
 20
2.3665509652
 30
0.0
 11
-2.0546549479
 21
-0.7154314566
 31
0.0
 12
-1.1063526643
 22
-0.7154314566
 32
0.0
 13
-1.1063526643
 23
-0.7154314566
 33
0.0
  0
LINE
  5
D5
330
D1
100
AcDbEntity
  8
EBENE_1
 62
     0
100
AcDbLine
 10
-10.3062660664
 20
2.3665509652
 30
0.0
 11
0.0
 21
2.3665509652
 31
0.0
  0
LINE
  5
D6
330
D1
100
AcDbEntity
  8
EBENE_1
 62
     0
100
AcDbLine
 10
-1.5805038061
 20
-7.6334490348
 30
0.0
 11
-1.5805038061
 21
2.3665509652
 31
0.0
  0
MTEXT
  5
D7
330
D1
100
AcDbEntity
  8
EBENE_1
 62
     0
100
AcDbMText
 10
0.0
 20
4.0927900738
 30
0.0
 40
3.175
 41
0.0
 71
     1
 72
     1
  1
80
  7
SLDTEXTSTYLE0
 73
     1
 44
1.0
  0
ENDBLK
  5
D3
330
D1
100
AcDbEntity
  8
0
100
AcDbBlockEnd
  0
BLOCK
  5
DA
330
D9
100
AcDbEntity
  8
0
100
AcDbBlockBegin
  2
SW_BLOCK_DIMENSION_9
 70
     0
 10
0.0
 20
0.0
 30
0.0
  3
SW_BLOCK_DIMENSION_9
  1

  0
SOLID
  5
DC
330
D9
100
AcDbEntity
  8
EBENE_1
 62
     0
100
AcDbTrace
 10
-1.5805038061
 20
2.3665509652
 30
0.0
 11
-2.0546549479
 21
-0.7154314566
 31
0.0
 12
-1.1063526643
 22
-0.7154314566
 32
0.0
 13
-1.1063526643
 23
-0.7154314566
 33
0.0
  0
LINE
  5
DD
330
D9
100
AcDbEntity
  8
EBENE_1
 62
     0
100
AcDbLine
 10
-10.3062660664
 20
2.3665509652
 30
0.0
 11
0.0
 21
2.3665509652
 31
0.0
  0
LINE
  5
DE
330
D9
100
AcDbEntity
  8
EBENE_1
 62
     0
100
AcDbLine
 10
-1.5805038061
 20
-7.6334490348
 30
0.0
 11
-1.5805038061
 21
2.3665509652
 31
0.0
  0
MTEXT
  5
DF
330
D9
100
AcDbEntity
  8
EBENE_1
 62
     0
100
AcDbMText
 10
0.0
 20
4.0927900738
 30
0.0
 40
3.175
 41
0.0
 71
     1
 72
     1
  1
90
  7
SLDTEXTSTYLE0
 73
     1
 44
1.0
  0
ENDBLK
  5
DB
330
D9
100
AcDbEntity
  8
0
100
AcDbBlockEnd
  0
BLOCK
  5
E2
330
E1
100
AcDbEntity
  8
0
100
AcDbBlockBegin
  2
SW_BLOCK_DIMENSION_10
 70
     0
 10
0.0
 20
0.0
 30
0.0
  3
SW_BLOCK_DIMENSION_10
  1

  0
SOLID
  5
E4
330
E1
100
AcDbEntity
  8
EBENE_1
 62
     0
100
AcDbTrace
 10
-1.5805038061
 20
2.3665509652
 30
0.0
 11
-2.0546549479
 21
-0.7154314566
 31
0.0
 12
-1.1063526643
 22
-0.7154314566
 32
0.0
 13
-1.1063526643
 23
-0.7154314566
 33
0.0
  0
LINE
  5
E5
330
E1
100
AcDbEntity
  8
EBENE_1
 62
     0
100
AcDbLine
 10
-10.3062660664
 20
2.3665509652
 30
0.0
 11
0.0
 21
2.3665509652
 31
0.0
  0
LINE
  5
E6
330
E1
100
AcDbEntity
  8
EBENE_1
 62
     0
100
AcDbLine
 10
-1.5805038061
 20
-7.6334490348
 30
0.0
 11
-1.5805038061
 21
2.3665509652
 31
0.0
  0
MTEXT
  5
E7
330
E1
100
AcDbEntity
  8
EBENE_1
 62
     0
100
AcDbMText
 10
0.0
 20
4.0927900738
 30
0.0
 40
3.175
 41
0.0
 71
     1
 72
     1
  1
100
  7
SLDTEXTSTYLE0
 73
     1
 44
1.0
  0
ENDBLK
  5
E3
330
E1
100
AcDbEntity
  8
0
100
AcDbBlockEnd
  0
BLOCK
  5
EA
330
E9
100
AcDbEntity
  8
0
100
AcDbBlockBegin
  2
SW_BLOCK_DIMENSION_11
 70
     0
 10
0.0
 20
0.0
 30
0.0
  3
SW_BLOCK_DIMENSION_11
  1

  0
SOLID
  5
EC
330
E9
100
AcDbEntity
  8
EBENE_1
 62
     0
100
AcDbTrace
 10
-1.5805038061
 20
2.3665509652
 30
0.0
 11
-2.0546549479
 21
-0.7154314566
 31
0.0
 12
-1.1063526643
 22
-0.7154314566
 32
0.0
 13
-1.1063526643
 23
-0.7154314566
 33
0.0
  0
LINE
  5
ED
330
E9
100
AcDbEntity
  8
EBENE_1
 62
     0
100
AcDbLine
 10
-10.3062660664
 20
2.3665509652
 30
0.0
 11
0.0
 21
2.3665509652
 31
0.0
  0
LINE
  5
EE
330
E9
100
AcDbEntity
  8
EBENE_1
 62
     0
100
AcDbLine
 10
-1.5805038061
 20
-7.6334490348
 30
0.0
 11
-1.5805038061
 21
2.3665509652
 31
0.0
  0
MTEXT
  5
EF
330
E9
100
AcDbEntity
  8
EBENE_1
 62
     0
100
AcDbMText
 10
0.0
 20
4.0927900738
 30
0.0
 40
3.175
 41
0.0
 71
     1
 72
     1
  1
110
  7
SLDTEXTSTYLE0
 73
     1
 44
1.0
  0
ENDBLK
  5
EB
330
E9
100
AcDbEntity
  8
0
100
AcDbBlockEnd
  0
BLOCK
  5
F2
330
F1
100
AcDbEntity
  8
0
100
AcDbBlockBegin
  2
SW_BLOCK_DIMENSION_12
 70
     0
 10
0.0
 20
0.0
 30
0.0
  3
SW_BLOCK_DIMENSION_12
  1

  0
SOLID
  5
F4
330
F1
100
AcDbEntity
  8
EBENE_1
 62
     0
100
AcDbTrace
 10
-1.5805038061
 20
2.3665509652
 30
0.0
 11
-2.0546549479
 21
-0.7154314566
 31
0.0
 12
-1.1063526643
 22
-0.7154314566
 32
0.0
 13
-1.1063526643
 23
-0.7154314566
 33
0.0
  0
LINE
  5
F5
330
F1
100
AcDbEntity
  8
EBENE_1
 62
     0
100
AcDbLine
 10
-10.3062660664
 20
2.3665509652
 30
0.0
 11
0.0
 21
2.3665509652
 31
0.0
  0
LINE
  5
F6
330
F1
100
AcDbEntity
  8
EBENE_1
 62
     0
100
AcDbLine
 10
-1.5805038061
 20
-7.6334490348
 30
0.0
 11
-1.5805038061
 21
2.3665509652
 31
0.0
  0
MTEXT
  5
F7
330
F1
100
AcDbEntity
  8
EBENE_1
 62
     0
100
AcDbMText
 10
0.0
 20
4.0927900738
 30
0.0
 40
3.175
 41
0.0
 71
     1
 72
     1
  1
120
  7
SLDTEXTSTYLE0
 73
     1
 44
1.0
  0
ENDBLK
  5
F3
330
F1
100
AcDbEntity
  8
0
100
AcDbBlockEnd
  0
BLOCK
  5
FA
330
F9
100
AcDbEntity
  8
0
100
AcDbBlockBegin
  2
SW_BLOCK_DIMENSION_13
 70
     0
 10
0.0
 20
0.0
 30
0.0
  3
SW_BLOCK_DIMENSION_13
  1

  0
SOLID
  5
FC
330
F9
100
AcDbEntity
  8
EBENE_1
 62
     0
100
AcDbTrace
 10
-1.5805038061
 20
2.3665509652
 30
0.0
 11
-2.0546549479
 21
-0.7154314566
 31
0.0
 12
-1.1063526643
 22
-0.7154314566
 32
0.0
 13
-1.1063526643
 23
-0.7154314566
 33
0.0
  0
LINE
  5
FD
330
F9
100
AcDbEntity
  8
EBENE_1
 62
     0
100
AcDbLine
 10
-10.3062660664
 20
2.3665509652
 30
0.0
 11
0.0
 21
2.3665509652
 31
0.0
  0
LINE
  5
FE
330
F9
100
AcDbEntity
  8
EBENE_1
 62
     0
100
AcDbLine
 10
-1.5805038061
 20
-7.6334490348
 30
0.0
 11
-1.5805038061
 21
2.3665509652
 31
0.0
  0
MTEXT
  5
FF
330
F9
100
AcDbEntity
  8
EBENE_1
 62
     0
100
AcDbMText
 10
0.0
 20
4.0927900738
 30
0.0
 40
3.175
 41
0.0
 71
     1
 72
     1
  1
130
  7
SLDTEXTSTYLE0
 73
     1
 44
1.0
  0
ENDBLK
  5
FB
330
F9
100
AcDbEntity
  8
0
100
AcDbBlockEnd
  0
BLOCK
  5
102
330
101
100
AcDbEntity
  8
0
100
AcDbBlockBegin
  2
SW_BLOCK_DIMENSION_14
 70
     0
 10
0.0
 20
0.0
 30
0.0
  3
SW_BLOCK_DIMENSION_14
  1

  0
INSERT
  5
104
330
101
100
AcDbEntity
  8
EBENE_1
 62
     0
100
AcDbBlockReference
  2
_ORIGIN
 10
16.3971707594
 20
5.1887726877
 30
0.0
 41
0.9483022837
 42
0.9483022837
 50
0.0
  0
LINE
  5
105
330
101
100
AcDbEntity
  8
EBENE_1
 62
     0
100
AcDbLine
 10
3.2925925916
 20
9.671990294
 30
0.0
 11
2.2342592711
 21
9.671990294
 31
0.0
  0
LINE
  5
106
330
101
100
AcDbEntity
  8
EBENE_1
 62
     0
100
AcDbLine
 10
2.2342592711
 20
9.671990294
 30
0.0
 11
2.2342592711
 21
4.9388883635
 31
0.0
  0
LINE
  5
107
330
101
100
AcDbEntity
  8
EBENE_1
 62
     0
100
AcDbLine
 10
2.2342592711
 20
4.9388883635
 30
0.0
 11
3.2925925916
 21
4.9388883635
 31
0.0
  0
LINE
  5
108
330
101
100
AcDbEntity
  8
EBENE_1
 62
     0
100
AcDbLine
 10
11.5240741288
 20
9.671990294
 30
0.0
 11
12.5824074494
 21
9.671990294
 31
0.0
  0
LINE
  5
109
330
101
100
AcDbEntity
  8
EBENE_1
 62
     0
100
AcDbLine
 10
12.5824074494
 20
9.671990294
 30
0.0
 11
12.5824074494
 21
4.9388883635
 31
0.0
  0
LINE
  5
10A
330
101
100
AcDbEntity
  8
EBENE_1
 62
     0
100
AcDbLine
 10
12.5824074494
 20
4.9388883635
 30
0.0
 11
11.5240741288
 21
4.9388883635
 31
0.0
  0
LINE
  5
10B
330
101
100
AcDbEntity
  8
EBENE_1
 62
     0
100
AcDbLine
 10
24.38463321
 20
5.1887726877
 30
0.0
 11
14.8166669533
 21
5.1887726877
 31
0.0
  0
MTEXT
  5
10C
330
101
100
AcDbEntity
  8
EBENE_1
 62
     0
100
AcDbMText
 10
1.190625
 20
4.0927900738
 30
0.0
 40
3.175
 41
0.0
 71
     1
 72
     1
  1

  7
SLDTEXTSTYLE0
 73
     1
 44
1.0
  0
MTEXT
  5
10D
330
101
100
AcDbEntity
  8
EBENE_1
 62
     0
100
AcDbMText
 10
3.2925925916
 20
9.0316784373
 30
0.0
 40
3.175
 41
0.0
 71
     1
 72
     1
  1
0,00
  7
SLDTEXTSTYLE0
 73
     1
 44
1.0
  0
MTEXT
  5
10E
330
101
100
AcDbEntity
  8
EBENE_1
 62
     0
100
AcDbMText
 10
6.2324074097
 20
4.0927898409
 30
0.0
 40
3.175
 41
0.0
 71
     1
 72
     1
  1
0
  7
SLDTEXTSTYLE0
 73
     1
 44
1.0
  0
MTEXT
  5
10F
330
101
100
AcDbEntity
  8
EBENE_1
 62
     0
100
AcDbMText
 10
14.8313658863
 20
4.0927900738
 30
0.0
 40
3.175
 41
0.0
 71
     1
 72
     1
  1

  7
SLDTEXTSTYLE0
 73
     1
 44
1.0
  0
ENDBLK
  5
103
330
101
100
AcDbEntity
  8
0
100
AcDbBlockEnd
  0
BLOCK
  5
112
330
111
100
AcDbEntity
  8
0
100
AcDbBlockBegin
  2
SW_BLOCK_DIMENSION_15
 70
     0
 10
0.0
 20
0.0
 30
0.0
  3
SW_BLOCK_DIMENSION_15
  1

  0
SOLID
  5
114
330
111
100
AcDbEntity
  8
EBENE_1
 62
     0
100
AcDbTrace
 10
16.3971707594
 20
5.1887726877
 30
0.0
 11
15.9230196175
 21
2.1067902658
 31
0.0
 12
16.8713219012
 22
2.1067902658
 32
0.0
 13
16.8713219012
 23
2.1067902658
 33
0.0
  0
LINE
  5
115
330
111
100
AcDbEntity
  8
EBENE_1
 62
     0
100
AcDbLine
 10
3.2925925916
 20
9.671990294
 30
0.0
 11
2.2342592711
 21
9.671990294
 31
0.0
  0
LINE
  5
116
330
111
100
AcDbEntity
  8
EBENE_1
 62
     0
100
AcDbLine
 10
2.2342592711
 20
9.671990294
 30
0.0
 11
2.2342592711
 21
4.9388883635
 31
0.0
  0
LINE
  5
117
330
111
100
AcDbEntity
  8
EBENE_1
 62
     0
100
AcDbLine
 10
2.2342592711
 20
4.9388883635
 30
0.0
 11
3.2925925916
 21
4.9388883635
 31
0.0
  0
LINE
  5
118
330
111
100
AcDbEntity
  8
EBENE_1
 62
     0
100
AcDbLine
 10
11.5240741288
 20
9.671990294
 30
0.0
 11
12.5824074494
 21
9.671990294
 31
0.0
  0
LINE
  5
119
330
111
100
AcDbEntity
  8
EBENE_1
 62
     0
100
AcDbLine
 10
12.5824074494
 20
9.671990294
 30
0.0
 11
12.5824074494
 21
4.9388883635
 31
0.0
  0
LINE
  5
11A
330
111
100
AcDbEntity
  8
EBENE_1
 62
     0
100
AcDbLine
 10
12.5824074494
 20
4.9388883635
 30
0.0
 11
11.5240741288
 21
4.9388883635
 31
0.0
  0
LINE
  5
11B
330
111
100
AcDbEntity
  8
EBENE_1
 62
     0
100
AcDbLine
 10
23.60463321
 20
5.1887726877
 30
0.0
 11
14.8166669533
 21
5.1887726877
 31
0.0
  0
LINE
  5
11C
330
111
100
AcDbEntity
  8
EBENE_1
 62
     0
100
AcDbLine
 10
16.3971707594
 20
-20.2112273123
 30
0.0
 11
16.3971707594
 21
5.1887726877
 31
0.0
  0
MTEXT
  5
11D
330
111
100
AcDbEntity
  8
EBENE_1
 62
     0
100
AcDbMText
 10
1.190625
 20
4.0927900738
 30
0.0
 40
3.175
 41
0.0
 71
     1
 72
     1
  1

  7
SLDTEXTSTYLE0
 73
     1
 44
1.0
  0
MTEXT
  5
11E
330
111
100
AcDbEntity
  8
EBENE_1
 62
     0
100
AcDbMText
 10
3.2925925916
 20
9.0316784373
 30
0.0
 40
3.175
 41
0.0
 71
     1
 72
     1
  1
1,00
  7
SLDTEXTSTYLE0
 73
     1
 44
1.0
  0
MTEXT
  5
11F
330
111
100
AcDbEntity
  8
EBENE_1
 62
     0
100
AcDbMText
 10
2.1166665247
 20
4.0927898409
 30
0.0
 40
3.175
 41
0.0
 71
     1
 72
     1
  1
25,40
  7
SLDTEXTSTYLE0
 73
     1
 44
1.0
  0
MTEXT
  5
120
330
111
100
AcDbEntity
  8
EBENE_1
 62
     0
100
AcDbMText
 10
14.8313658863
 20
4.0927900738
 30
0.0
 40
3.175
 41
0.0
 71
     1
 72
     1
  1

  7
SLDTEXTSTYLE0
 73
     1
 44
1.0
  0
ENDBLK
  5
113
330
111
100
AcDbEntity
  8
0
100
AcDbBlockEnd
  0
BLOCK
  5
123
330
122
100
AcDbEntity
  8
0
100
AcDbBlockBegin
  2
SW_BLOCK_DIMENSION_16
 70
     0
 10
0.0
 20
0.0
 30
0.0
  3
SW_BLOCK_DIMENSION_16
  1

  0
SOLID
  5
125
330
122
100
AcDbEntity
  8
EBENE_1
 62
     0
100
AcDbTrace
 10
16.3971707594
 20
5.1887726877
 30
0.0
 11
15.9230196175
 21
2.1067902658
 31
0.0
 12
16.8713219012
 22
2.1067902658
 32
0.0
 13
16.8713219012
 23
2.1067902658
 33
0.0
  0
LINE
  5
126
330
122
100
AcDbEntity
  8
EBENE_1
 62
     0
100
AcDbLine
 10
3.2925925916
 20
9.671990294
 30
0.0
 11
2.2342592711
 21
9.671990294
 31
0.0
  0
LINE
  5
127
330
122
100
AcDbEntity
  8
EBENE_1
 62
     0
100
AcDbLine
 10
2.2342592711
 20
9.671990294
 30
0.0
 11
2.2342592711
 21
4.9388883635
 31
0.0
  0
LINE
  5
128
330
122
100
AcDbEntity
  8
EBENE_1
 62
     0
100
AcDbLine
 10
2.2342592711
 20
4.9388883635
 30
0.0
 11
3.2925925916
 21
4.9388883635
 31
0.0
  0
LINE
  5
129
330
122
100
AcDbEntity
  8
EBENE_1
 62
     0
100
AcDbLine
 10
11.5240741288
 20
9.671990294
 30
0.0
 11
12.5824074494
 21
9.671990294
 31
0.0
  0
LINE
  5
12A
330
122
100
AcDbEntity
  8
EBENE_1
 62
     0
100
AcDbLine
 10
12.5824074494
 20
9.671990294
 30
0.0
 11
12.5824074494
 21
4.9388883635
 31
0.0
  0
LINE
  5
12B
330
122
100
AcDbEntity
  8
EBENE_1
 62
     0
100
AcDbLine
 10
12.5824074494
 20
4.9388883635
 30
0.0
 11
11.5240741288
 21
4.9388883635
 31
0.0
  0
LINE
  5
12C
330
122
100
AcDbEntity
  8
EBENE_1
 62
     0
100
AcDbLine
 10
23.60463321
 20
5.1887726877
 30
0.0
 11
14.8166669533
 21
5.1887726877
 31
0.0
  0
LINE
  5
12D
330
122
100
AcDbEntity
  8
EBENE_1
 62
     0
100
AcDbLine
 10
16.3971707594
 20
-20.2112273123
 30
0.0
 11
16.3971707594
 21
5.1887726877
 31
0.0
  0
MTEXT
  5
12E
330
122
100
AcDbEntity
  8
EBENE_1
 62
     0
100
AcDbMText
 10
1.190625
 20
4.0927900738
 30
0.0
 40
3.175
 41
0.0
 71
     1
 72
     1
  1

  7
SLDTEXTSTYLE0
 73
     1
 44
1.0
  0
MTEXT
  5
12F
330
122
100
AcDbEntity
  8
EBENE_1
 62
     0
100
AcDbMText
 10
3.2925925916
 20
9.0316784373
 30
0.0
 40
3.175
 41
0.0
 71
     1
 72
     1
  1
2,00
  7
SLDTEXTSTYLE0
 73
     1
 44
1.0
  0
MTEXT
  5
130
330
122
100
AcDbEntity
  8
EBENE_1
 62
     0
100
AcDbMText
 10
2.1166665247
 20
4.0927898409
 30
0.0
 40
3.175
 41
0.0
 71
     1
 72
     1
  1
50,80
  7
SLDTEXTSTYLE0
 73
     1
 44
1.0
  0
MTEXT
  5
131
330
122
100
AcDbEntity
  8
EBENE_1
 62
     0
100
AcDbMText
 10
14.8313658863
 20
4.0927900738
 30
0.0
 40
3.175
 41
0.0
 71
     1
 72
     1
  1

  7
SLDTEXTSTYLE0
 73
     1
 44
1.0
  0
ENDBLK
  5
124
330
122
100
AcDbEntity
  8
0
100
AcDbBlockEnd
  0
BLOCK
  5
134
330
133
100
AcDbEntity
  8
0
100
AcDbBlockBegin
  2
SW_BLOCK_DIMENSION_17
 70
     0
 10
0.0
 20
0.0
 30
0.0
  3
SW_BLOCK_DIMENSION_17
  1

  0
SOLID
  5
136
330
133
100
AcDbEntity
  8
EBENE_1
 62
     0
100
AcDbTrace
 10
16.3971707594
 20
5.1887726877
 30
0.0
 11
15.9230196175
 21
2.1067902658
 31
0.0
 12
16.8713219012
 22
2.1067902658
 32
0.0
 13
16.8713219012
 23
2.1067902658
 33
0.0
  0
LINE
  5
137
330
133
100
AcDbEntity
  8
EBENE_1
 62
     0
100
AcDbLine
 10
3.2925925916
 20
9.671990294
 30
0.0
 11
2.2342592711
 21
9.671990294
 31
0.0
  0
LINE
  5
138
330
133
100
AcDbEntity
  8
EBENE_1
 62
     0
100
AcDbLine
 10
2.2342592711
 20
9.671990294
 30
0.0
 11
2.2342592711
 21
4.9388883635
 31
0.0
  0
LINE
  5
139
330
133
100
AcDbEntity
  8
EBENE_1
 62
     0
100
AcDbLine
 10
2.2342592711
 20
4.9388883635
 30
0.0
 11
3.2925925916
 21
4.9388883635
 31
0.0
  0
LINE
  5
13A
330
133
100
AcDbEntity
  8
EBENE_1
 62
     0
100
AcDbLine
 10
11.5240741288
 20
9.671990294
 30
0.0
 11
12.5824074494
 21
9.671990294
 31
0.0
  0
LINE
  5
13B
330
133
100
AcDbEntity
  8
EBENE_1
 62
     0
100
AcDbLine
 10
12.5824074494
 20
9.671990294
 30
0.0
 11
12.5824074494
 21
4.9388883635
 31
0.0
  0
LINE
  5
13C
330
133
100
AcDbEntity
  8
EBENE_1
 62
     0
100
AcDbLine
 10
12.5824074494
 20
4.9388883635
 30
0.0
 11
11.5240741288
 21
4.9388883635
 31
0.0
  0
LINE
  5
13D
330
133
100
AcDbEntity
  8
EBENE_1
 62
     0
100
AcDbLine
 10
23.60463321
 20
5.1887726877
 30
0.0
 11
14.8166669533
 21
5.1887726877
 31
0.0
  0
LINE
  5
13E
330
133
100
AcDbEntity
  8
EBENE_1
 62
     0
100
AcDbLine
 10
16.3971707594
 20
-20.2112273123
 30
0.0
 11
16.3971707594
 21
5.1887726877
 31
0.0
  0
MTEXT
  5
13F
330
133
100
AcDbEntity
  8
EBENE_1
 62
     0
100
AcDbMText
 10
1.190625
 20
4.0927900738
 30
0.0
 40
3.175
 41
0.0
 71
     1
 72
     1
  1

  7
SLDTEXTSTYLE0
 73
     1
 44
1.0
  0
MTEXT
  5
140
330
133
100
AcDbEntity
  8
EBENE_1
 62
     0
100
AcDbMText
 10
3.2925925916
 20
9.0316784373
 30
0.0
 40
3.175
 41
0.0
 71
     1
 72
     1
  1
3,00
  7
SLDTEXTSTYLE0
 73
     1
 44
1.0
  0
MTEXT
  5
141
330
133
100
AcDbEntity
  8
EBENE_1
 62
     0
100
AcDbMText
 10
2.1166665247
 20
4.0927898409
 30
0.0
 40
3.175
 41
0.0
 71
     1
 72
     1
  1
76,20
  7
SLDTEXTSTYLE0
 73
     1
 44
1.0
  0
MTEXT
  5
142
330
133
100
AcDbEntity
  8
EBENE_1
 62
     0
100
AcDbMText
 10
14.8313658863
 20
4.0927900738
 30
0.0
 40
3.175
 41
0.0
 71
     1
 72
     1
  1

  7
SLDTEXTSTYLE0
 73
     1
 44
1.0
  0
ENDBLK
  5
135
330
133
100
AcDbEntity
  8
0
100
AcDbBlockEnd
  0
BLOCK
  5
145
330
144
100
AcDbEntity
  8
0
100
AcDbBlockBegin
  2
SW_BLOCK_DIMENSION_18
 70
     0
 10
0.0
 20
0.0
 30
0.0
  3
SW_BLOCK_DIMENSION_18
  1

  0
SOLID
  5
147
330
144
100
AcDbEntity
  8
EBENE_1
 62
     0
100
AcDbTrace
 10
16.8675417449
 20
5.1887726877
 30
0.0
 11
16.3933906031
 21
2.1067902658
 31
0.0
 12
17.3416928867
 22
2.1067902658
 32
0.0
 13
17.3416928867
 23
2.1067902658
 33
0.0
  0
LINE
  5
148
330
144
100
AcDbEntity
  8
EBENE_1
 62
     0
100
AcDbLine
 10
3.5277780844
 20
9.671990294
 30
0.0
 11
2.4694447638
 21
9.671990294
 31
0.0
  0
LINE
  5
149
330
144
100
AcDbEntity
  8
EBENE_1
 62
     0
100
AcDbLine
 10
2.4694447638
 20
9.671990294
 30
0.0
 11
2.4694447638
 21
4.9388883635
 31
0.0
  0
LINE
  5
14A
330
144
100
AcDbEntity
  8
EBENE_1
 62
     0
100
AcDbLine
 10
2.4694447638
 20
4.9388883635
 30
0.0
 11
3.5277780844
 21
4.9388883635
 31
0.0
  0
LINE
  5
14B
330
144
100
AcDbEntity
  8
EBENE_1
 62
     0
100
AcDbLine
 10
11.7592596216
 20
9.671990294
 30
0.0
 11
12.8175929422
 21
9.671990294
 31
0.0
  0
LINE
  5
14C
330
144
100
AcDbEntity
  8
EBENE_1
 62
     0
100
AcDbLine
 10
12.8175929422
 20
9.671990294
 30
0.0
 11
12.8175929422
 21
4.9388883635
 31
0.0
  0
LINE
  5
14D
330
144
100
AcDbEntity
  8
EBENE_1
 62
     0
100
AcDbLine
 10
12.8175929422
 20
4.9388883635
 30
0.0
 11
11.7592596216
 21
4.9388883635
 31
0.0
  0
LINE
  5
14E
330
144
100
AcDbEntity
  8
EBENE_1
 62
     0
100
AcDbLine
 10
24.0750041956
 20
5.1887726877
 30
0.0
 11
15.2870379388
 21
5.1887726877
 31
0.0
  0
LINE
  5
14F
330
144
100
AcDbEntity
  8
EBENE_1
 62
     0
100
AcDbLine
 10
16.8675417449
 20
-20.2112273123
 30
0.0
 11
16.8675417449
 21
5.1887726877
 31
0.0
  0
MTEXT
  5
150
330
144
100
AcDbEntity
  8
EBENE_1
 62
     0
100
AcDbMText
 10
1.190625
 20
4.0927900738
 30
0.0
 40
3.175
 41
0.0
 71
     1
 72
     1
  1

  7
SLDTEXTSTYLE0
 73
     1
 44
1.0
  0
MTEXT
  5
151
330
144
100
AcDbEntity
  8
EBENE_1
 62
     0
100
AcDbMText
 10
3.5277780844
 20
9.0316784373
 30
0.0
 40
3.175
 41
0.0
 71
     1
 72
     1
  1
4,00
  7
SLDTEXTSTYLE0
 73
     1
 44
1.0
  0
MTEXT
  5
152
330
144
100
AcDbEntity
  8
EBENE_1
 62
     0
100
AcDbMText
 10
1.1759259505
 20
4.0927898409
 30
0.0
 40
3.175
 41
0.0
 71
     1
 72
     1
  1
101,60
  7
SLDTEXTSTYLE0
 73
     1
 44
1.0
  0
MTEXT
  5
153
330
144
100
AcDbEntity
  8
EBENE_1
 62
     0
100
AcDbMText
 10
15.3017368719
 20
4.0927900738
 30
0.0
 40
3.175
 41
0.0
 71
     1
 72
     1
  1

  7
SLDTEXTSTYLE0
 73
     1
 44
1.0
  0
ENDBLK
  5
146
330
144
100
AcDbEntity
  8
0
100
AcDbBlockEnd
  0
BLOCK
  5
156
330
155
100
AcDbEntity
  8
0
100
AcDbBlockBegin
  2
SW_BLOCK_DIMENSION_19
 70
     0
 10
0.0
 20
0.0
 30
0.0
  3
SW_BLOCK_DIMENSION_19
  1

  0
SOLID
  5
158
330
155
100
AcDbEntity
  8
EBENE_1
 62
     0
100
AcDbTrace
 10
16.3971707594
 20
5.1887726877
 30
0.0
 11
15.9230196175
 21
2.1067902658
 31
0.0
 12
16.8713219012
 22
2.1067902658
 32
0.0
 13
16.8713219012
 23
2.1067902658
 33
0.0
  0
LINE
  5
159
330
155
100
AcDbEntity
  8
EBENE_1
 62
     0
100
AcDbLine
 10
3.2925925916
 20
9.671990294
 30
0.0
 11
2.2342592711
 21
9.671990294
 31
0.0
  0
LINE
  5
15A
330
155
100
AcDbEntity
  8
EBENE_1
 62
     0
100
AcDbLine
 10
2.2342592711
 20
9.671990294
 30
0.0
 11
2.2342592711
 21
4.9388883635
 31
0.0
  0
LINE
  5
15B
330
155
100
AcDbEntity
  8
EBENE_1
 62
     0
100
AcDbLine
 10
2.2342592711
 20
4.9388883635
 30
0.0
 11
3.2925925916
 21
4.9388883635
 31
0.0
  0
LINE
  5
15C
330
155
100
AcDbEntity
  8
EBENE_1
 62
     0
100
AcDbLine
 10
11.5240741288
 20
9.671990294
 30
0.0
 11
12.5824074494
 21
9.671990294
 31
0.0
  0
LINE
  5
15D
330
155
100
AcDbEntity
  8
EBENE_1
 62
     0
100
AcDbLine
 10
12.5824074494
 20
9.671990294
 30
0.0
 11
12.5824074494
 21
4.9388883635
 31
0.0
  0
LINE
  5
15E
330
155
100
AcDbEntity
  8
EBENE_1
 62
     0
100
AcDbLine
 10
12.5824074494
 20
4.9388883635
 30
0.0
 11
11.5240741288
 21
4.9388883635
 31
0.0
  0
LINE
  5
15F
330
155
100
AcDbEntity
  8
EBENE_1
 62
     0
100
AcDbLine
 10
23.60463321
 20
5.1887726877
 30
0.0
 11
14.8166669533
 21
5.1887726877
 31
0.0
  0
LINE
  5
160
330
155
100
AcDbEntity
  8
EBENE_1
 62
     0
100
AcDbLine
 10
16.3971707594
 20
-20.2112273123
 30
0.0
 11
16.3971707594
 21
5.1887726877
 31
0.0
  0
MTEXT
  5
161
330
155
100
AcDbEntity
  8
EBENE_1
 62
     0
100
AcDbMText
 10
1.190625
 20
4.0927900738
 30
0.0
 40
3.175
 41
0.0
 71
     1
 72
     1
  1

  7
SLDTEXTSTYLE0
 73
     1
 44
1.0
  0
MTEXT
  5
162
330
155
100
AcDbEntity
  8
EBENE_1
 62
     0
100
AcDbMText
 10
3.2925925916
 20
9.0316784373
 30
0.0
 40
3.175
 41
0.0
 71
     1
 72
     1
  1
5,00
  7
SLDTEXTSTYLE0
 73
     1
 44
1.0
  0
MTEXT
  5
163
330
155
100
AcDbEntity
  8
EBENE_1
 62
     0
100
AcDbMText
 10
3.8805556251
 20
4.0927898409
 30
0.0
 40
3.175
 41
0.0
 71
     1
 72
     1
  1
127
  7
SLDTEXTSTYLE0
 73
     1
 44
1.0
  0
MTEXT
  5
164
330
155
100
AcDbEntity
  8
EBENE_1
 62
     0
100
AcDbMText
 10
14.8313658863
 20
4.0927900738
 30
0.0
 40
3.175
 41
0.0
 71
     1
 72
     1
  1

  7
SLDTEXTSTYLE0
 73
     1
 44
1.0
  0
ENDBLK
  5
157
330
155
100
AcDbEntity
  8
0
100
AcDbBlockEnd
  0
BLOCK
  5
167
330
166
100
AcDbEntity
  8
0
100
AcDbBlockBegin
  2
SW_NOTE_0
 70
     0
 10
0.0
 20
0.0
 30
0.0
  3
SW_NOTE_0
  1

  0
MTEXT
  5
169
330
166
100
AcDbEntity
  8
EBENE_1
 62
     0
100
AcDbMText
 10
6.7138020833
 20
4.7749217527
 30
0.0
 40
3.7041666667
 41
0.0
 71
     2
 72
     1
  1
(Inch)
  7
SLDTEXTSTYLE0
 73
     1
 44
1.0
  0
MTEXT
  5
16A
330
166
100
AcDbEntity
  8
EBENE_1
 62
     0
100
AcDbMText
 10
6.7309508326
 20
-1.1639672404
 30
0.0
 40
3.7041666667
 41
0.0
 71
     2
 72
     1
  1
mm
  7
SLDTEXTSTYLE0
 73
     1
 44
1.0
  0
ENDBLK
  5
168
330
166
100
AcDbEntity
  8
0
100
AcDbBlockEnd
  0
BLOCK
  5
172
330
171
100
AcDbEntity
  8
0
100
AcDbBlockBegin
  2
SW_NOTE_1
 70
     0
 10
0.0
 20
0.0
 30
0.0
  3
SW_NOTE_1
  1

  0
MTEXT
  5
174
330
171
100
AcDbEntity
  8
0
  6
Continuous
 62
     0
370
     0
100
AcDbMText
 10
19.893359375
 20
4.0927900738
 30
0.0
 40
3.175
 41
0.0
 71
     2
 72
     1
  1
ABP-Beyerle GmbH
  7
SLDTEXTSTYLE0
 73
     1
 44
1.0
  0
MTEXT
  5
175
330
171
100
AcDbEntity
  8
0
  6
Continuous
 62
     0
370
     0
100
AcDbMText
 10
20.6558884293
 20
-0.1405432084
 30
0.0
 40
3.175
 41
0.0
 71
     2
 72
     1
  1
Im Schollengarten 24b, 76646 Bruchsal
  7
SLDTEXTSTYLE0
 73
     1
 44
1.0
  0
MTEXT
  5
176
330
171
100
AcDbEntity
  8
0
  6
Continuous
 62
     0
370
     0
100
AcDbMText
 10
20.7863491923
 20
-4.3738764906
 30
0.0
 40
3.175
 41
0.0
 71
     2
 72
     1
  1
Tel. +49 (0)7251-9127-0, Fax. +49 (0)7251-9127-29
  7
SLDTEXTSTYLE0
 73
     1
 44
1.0
  0
MTEXT
  5
177
330
171
100
AcDbEntity
  8
0
  6
Continuous
 62
     0
370
     0
100
AcDbMText
 10
20.8392552227
 20
-8.6072097727
 30
0.0
 40
3.175
 41
0.0
 71
     2
 72
     1
  1
info@abp-beyerle.de, www.abp-beyerle.de
  7
SLDTEXTSTYLE0
 73
     1
 44
1.0
  0
ENDBLK
  5
173
330
171
100
AcDbEntity
  8
0
100
AcDbBlockEnd
  0
ENDSEC
  0
SECTION
  2
ENTITIES
  0
INSERT
  5
16D
330
1F
100
AcDbEntity
  8
EBENE_1
100
AcDbBlockReference
  2
Block1
 10
19.561342692
 20
-6.9223244521
 30
0.0
  0
MTEXT
  5
16F
330
1F
100
AcDbEntity
  8
0
  6
Continuous
 62
     7
370
     0
100
AcDbMText
 10
402.5
 20
14.7189135832
 30
0.0
 40
6.35
 41
0.0
 71
     1
 72
     1
  1
1:1
  7
SLDTEXTSTYLE1
 73
     1
 44
1.0
  0
MTEXT
  5
170
330
1F
100
AcDbEntity
  8
0
  6
Continuous
 62
     7
370
     0
100
AcDbMText
 10
168.4090458961
 20
14.7189131175
 30
0.0
 40
6.35
 41
0.0
 71
     1
 72
     1
  1
USU45DS-2100EF
  7
SLDTEXTSTYLE1
 73
     1
 44
1.0
  0
INSERT
  5
178
330
1F
100
AcDbEntity
  8
0
  6
Continuous
 62
     7
370
     0
100
AcDbBlockReference
  2
SW_NOTE_1
 10
35.4202146835
 20
20.1681939512
 30
0.0
  0
LINE
  5
179
330
1F
100
AcDbEntity
  8
0
  6
Continuous
 62
     7
370
    15
100
AcDbLine
 10
-647.8109740728
 20
2149.7642031777
 30
0.0
 11
-618.8109823578
 21
2149.7642031777
 31
0.0
  0
LINE
  5
17A
330
1F
100
AcDbEntity
  8
0
  6
Continuous
 62
     7
370
    15
100
AcDbLine
 10
-553.0398571008
 20
2149.7642031777
 30
0.0
 11
-541.4806240314
 21
2149.7642031777
 31
0.0
  0
LINE
  5
17B
330
1F
100
AcDbEntity
  8
0
  6
Continuous
 62
     7
370
    15
100
AcDbLine
 10
-535.1443150156
 20
2149.7642031777
 30
0.0
 11
-501.3341465109
 21
2149.7642031777
 31
0.0
  0
LINE
  5
17C
330
1F
100
AcDbEntity
  8
0
  6
Continuous
 62
     7
370
    15
100
AcDbLine
 10
-471.3341453188
 20
2149.7642031777
 30
0.0
 11
198.6658639199
 21
2149.7642031777
 31
0.0
  0
LINE
  5
17D
330
1F
100
AcDbEntity
  8
0
  6
Continuous
 62
     7
370
    15
100
AcDbLine
 10
228.6658353097
 20
2149.7642031777
 30
0.0
 11
1337.5223941094
 21
2149.7642031777
 31
0.0
  0
LINE
  5
17E
330
1F
100
AcDbEntity
  8
0
  6
Continuous
 62
     7
370
    15
100
AcDbLine
 10
1343.8586062676
 20
2149.7642031777
 30
0.0
 11
1348.1890029198
 21
2149.7642031777
 31
0.0
  0
LINE
  5
17F
330
1F
100
AcDbEntity
  8
0
  6
Continuous
 62
     7
370
    15
100
AcDbLine
 10
1421.1890763527
 20
2149.7642031777
 30
0.0
 11
1450.1890010125
 21
2149.7642031777
 31
0.0
  0
LINE
  5
180
330
1F
100
AcDbEntity
  8
0
  6
Continuous
 62
     7
370
    15
100
AcDbLine
 10
1450.1890010125
 20
2174.7642035502
 30
0.0
 11
1410.3714293725
 21
2174.7642035502
 31
0.0
  0
LINE
  5
181
330
1F
100
AcDbEntity
  8
0
  6
Continuous
 62
     7
370
    15
100
AcDbLine
 10
1391.0065955407
 20
2174.7642035502
 30
0.0
 11
228.6658353097
 21
2174.7642035502
 31
0.0
  0
LINE
  5
182
330
1F
100
AcDbEntity
  8
0
  6
Continuous
 62
     7
370
    15
100
AcDbLine
 10
198.6658639199
 20
2174.7642035502
 30
0.0
 11
-471.3341453188
 21
2174.7642035502
 31
0.0
  0
LINE
  5
183
330
1F
100
AcDbEntity
  8
0
  6
Continuous
 62
     7
370
    15
100
AcDbLine
 10
-501.3341465109
 20
2174.7642035502
 30
0.0
 11
-588.6285238975
 21
2174.7642035502
 31
0.0
  0
LINE
  5
184
330
1F
100
AcDbEntity
  8
0
  6
Continuous
 62
     7
370
    15
100
AcDbLine
 10
-607.9934396857
 20
2174.7642035502
 30
0.0
 11
-647.8109740728
 21
2174.7642035502
 31
0.0
  0
LINE
  5
185
330
1F
100
AcDbEntity
  8
0
  6
Continuous
 62
     7
370
    15
100
AcDbLine
 10
1450.1890010125
 20
2149.7642031777
 30
0.0
 11
1451.1890477425
 21
2150.7642033416
 31
0.0
  0
LINE
  5
186
330
1F
100
AcDbEntity
  8
0
  6
Continuous
 62
     7
370
    15
100
AcDbLine
 10
1451.1890477425
 20
2173.7642033863
 30
0.0
 11
1450.1890010125
 21
2174.7642035502
 31
0.0
  0
LINE
  5
187
330
1F
100
AcDbEntity
  8
0
  6
Continuous
 62
     7
370
    15
100
AcDbLine
 10
-647.8109740728
 20
2174.7642035502
 30
0.0
 11
-648.8109760993
 21
2173.7642033863
 31
0.0
  0
LINE
  5
188
330
1F
100
AcDbEntity
  8
0
  6
Continuous
 62
     7
370
    15
100
AcDbLine
 10
-648.8109760993
 20
2150.7642033416
 30
0.0
 11
-647.8109740728
 21
2149.7642031777
 31
0.0
  0
LINE
  5
189
330
1F
100
AcDbEntity
  8
0
  6
Continuous
 62
     7
370
    15
100
AcDbLine
 10
1380.4889983422
 20
2139.1642034891
 30
0.0
 11
1380.6890315301
 21
2139.3642031494
 31
0.0
  0
LINE
  5
18A
330
1F
100
AcDbEntity
  8
0
  6
Continuous
 62
     7
370
    15
100
AcDbLine
 10
1380.6890315301
 20
2157.1642031799
 30
0.0
 11
1380.4889983422
 21
2157.3642033058
 31
0.0
  0
LINE
  5
18B
330
1F
100
AcDbEntity
  8
0
  6
Continuous
 62
     7
370
    15
100
AcDbLine
 10
1375.3889865166
 20
2157.3642033058
 30
0.0
 11
1375.1890725381
 21
2157.1642031799
 31
0.0
  0
LINE
  5
18C
330
1F
100
AcDbEntity
  8
0
  6
Continuous
 62
     7
370
    15
100
AcDbLine
 10
1375.1890725381
 20
2139.3642031494
 30
0.0
 11
1375.3889865166
 21
2139.1642034891
 31
0.0
  0
LINE
  5
18D
330
1F
100
AcDbEntity
  8
0
  6
Continuous
 62
     7
370
    15
100
AcDbLine
 10
1380.4889983422
 20
2157.3642033058
 30
0.0
 11
1375.3889865166
 21
2157.3642033058
 31
0.0
  0
LINE
  5
18E
330
1F
100
AcDbEntity
  8
0
  6
Continuous
 62
     7
370
    15
100
AcDbLine
 10
1375.3889865166
 20
2139.1642034891
 30
0.0
 11
1380.4889983422
 21
2139.1642034891
 31
0.0
  0
LINE
  5
18F
330
1F
100
AcDbEntity
  8
0
  6
Continuous
 62
     7
370
    15
100
AcDbLine
 10
-573.0109819287
 20
2139.1642034891
 30
0.0
 11
-572.8109822684
 21
2139.3642031494
 31
0.0
  0
LINE
  5
190
330
1F
100
AcDbEntity
  8
0
  6
Continuous
 62
     7
370
    15
100
AcDbLine
 10
-572.8109822684
 20
2157.1642031799
 30
0.0
 11
-573.0109819287
 21
2157.3642033058
 31
0.0
  0
LINE
  5
191
330
1F
100
AcDbEntity
  8
0
  6
Continuous
 62
     7
370
    15
100
AcDbLine
 10
-578.1109825784
 20
2139.1642034891
 30
0.0
 11
-573.0109819287
 21
2139.1642034891
 31
0.0
  0
LINE
  5
192
330
1F
100
AcDbEntity
  8
0
  6
Continuous
 62
     7
370
    15
100
AcDbLine
 10
-573.0109819287
 20
2157.3642033058
 30
0.0
 11
-578.1109825784
 21
2157.3642033058
 31
0.0
  0
LINE
  5
193
330
1F
100
AcDbEntity
  8
0
  6
Continuous
 62
     7
370
    15
100
AcDbLine
 10
-578.1109825784
 20
2157.3642033058
 30
0.0
 11
-578.3109822386
 21
2157.1642031799
 31
0.0
  0
LINE
  5
194
330
1F
100
AcDbEntity
  8
0
  6
Continuous
 62
     7
370
    15
100
AcDbLine
 10
-578.3109822386
 20
2139.3642031494
 30
0.0
 11
-578.1109825784
 21
2139.1642034891
 31
0.0
  0
LINE
  5
195
330
1F
100
AcDbEntity
  8
0
  6
Continuous
 62
     7
370
    15
100
AcDbLine
 10
-572.8109822684
 20
2142.3142027947
 30
0.0
 11
-564.1109802836
 21
2142.3142027947
 31
0.0
  0
LINE
  5
196
330
1F
100
AcDbEntity
  8
0
  6
Continuous
 62
     7
370
    15
100
AcDbLine
 10
-564.1109802836
 20
2154.2142030689
 30
0.0
 11
-572.8109822684
 21
2154.2142030689
 31
0.0
  0
ARC
  5
197
330
1F
100
AcDbEntity
  8
0
  6
Continuous
 62
     7
370
    15
100
AcDbCircle
 10
-564.1109808677
 20
2153.9142033639
 30
0.0
 40
0.3000000000000682
100
AcDbArc
 50
0.0
 51
90.0
  0
ARC
  5
198
330
1F
100
AcDbEntity
  8
0
  6
Continuous
 62
     7
370
    15
100
AcDbCircle
 10
-564.1109808677
 20
2142.6142033639
 30
0.0
 40
0.3000000000000682
100
AcDbArc
 50
270.0
 51
0.0
  0
ARC
  5
199
330
1F
100
AcDbEntity
  8
0
  6
Continuous
 62
     7
370
    15
100
AcDbCircle
 10
1350.4890191323
 20
2142.6142033639
 30
0.0
 40
0.3000000000001819
100
AcDbArc
 50
180.0
 51
270.0
  0
ARC
  5
19A
330
1F
100
AcDbEntity
  8
0
  6
Continuous
 62
     7
370
    15
100
AcDbCircle
 10
1350.4890191323
 20
2153.9142033639
 30
0.0
 40
0.3000000000001819
100
AcDbArc
 50
90.0
 51
180.0
  0
LINE
  5
19B
330
1F
100
AcDbEntity
  8
0
  6
Continuous
 62
     7
370
    15
100
AcDbLine
 10
1375.1890725381
 20
2154.2142030689
 30
0.0
 11
1350.4890269524
 21
2154.2142030689
 31
0.0
  0
LINE
  5
19C
330
1F
100
AcDbEntity
  8
0
  6
Continuous
 62
     7
370
    15
100
AcDbLine
 10
1350.4890269524
 20
2142.3142027947
 30
0.0
 11
1375.1890725381
 21
2142.3142027947
 31
0.0
  0
LINE
  5
19D
330
1F
100
AcDbEntity
  8
0
  6
Continuous
 62
     7
370
    15
100
AcDbLine
 10
1348.1890029198
 20
2143.2642039749
 30
0.0
 11
1350.1889771706
 21
2143.2642039749
 31
0.0
  0
LINE
  5
19E
330
1F
100
AcDbEntity
  8
0
  6
Continuous
 62
     7
370
    15
100
AcDbLine
 10
1350.1889771706
 20
2153.2642037514
 30
0.0
 11
1348.1890029198
 21
2153.2642037514
 31
0.0
  0
LINE
  5
19F
330
1F
100
AcDbEntity
  8
0
  6
Continuous
 62
     7
370
    15
100
AcDbLine
 10
-561.810982328
 20
2153.2642037514
 30
0.0
 11
-563.8109826558
 21
2153.2642037514
 31
0.0
  0
LINE
  5
1A0
330
1F
100
AcDbEntity
  8
0
  6
Continuous
 62
     7
370
    15
100
AcDbLine
 10
-563.8109826558
 20
2143.2642039749
 30
0.0
 11
-561.810982328
 21
2143.2642039749
 31
0.0
  0
LINE
  5
1A1
330
1F
100
AcDbEntity
  8
0
  6
Continuous
 62
     7
370
    15
100
AcDbLine
 10
-618.5109772795
 20
2156.7392034362
 30
0.0
 11
-618.8109823578
 21
2156.4392034802
 31
0.0
  0
LINE
  5
1A2
330
1F
100
AcDbEntity
  8
0
  6
Continuous
 62
     7
370
    15
100
AcDbLine
 10
-618.8109823578
 20
2140.0892042461
 30
0.0
 11
-618.5109772795
 21
2139.7892028931
 31
0.0
  0
LINE
  5
1A3
330
1F
100
AcDbEntity
  8
0
  6
Continuous
 62
     7
370
    15
100
AcDbLine
 10
-618.3040895575
 20
2156.7392034362
 30
0.0
 11
-618.5109772795
 21
2156.7392034362
 31
0.0
  0
LINE
  5
1A4
330
1F
100
AcDbEntity
  8
0
  6
Continuous
 62
     7
370
    15
100
AcDbLine
 10
-618.5109772795
 20
2139.7892028931
 30
0.0
 11
-608.038485896
 21
2139.7892028931
 31
0.0
  0
LINE
  5
1A5
330
1F
100
AcDbEntity
  8
0
  6
Continuous
 62
     7
370
    15
100
AcDbLine
 10
-578.3109822386
 20
2156.7392034362
 30
0.0
 11
-578.3178740257
 21
2156.7392034362
 31
0.0
  0
LINE
  5
1A6
330
1F
100
AcDbEntity
  8
0
  6
Continuous
 62
     7
370
    15
100
AcDbLine
 10
-588.5834776872
 20
2139.7892028931
 30
0.0
 11
-578.3109822386
 21
2139.7892028931
 31
0.0
  0
LINE
  5
1A7
330
1F
100
AcDbEntity
  8
0
  6
Continuous
 62
     7
370
    15
100
AcDbLine
 10
1420.8890265709
 20
2139.7892028931
 30
0.0
 11
1421.1890763527
 21
2140.0892042461
 31
0.0
  0
LINE
  5
1A8
330
1F
100
AcDbEntity
  8
0
  6
Continuous
 62
     7
370
    15
100
AcDbLine
 10
1421.1890763527
 20
2156.4392034802
 30
0.0
 11
1420.8890265709
 21
2156.7392034362
 31
0.0
  0
LINE
  5
1A9
330
1F
100
AcDbEntity
  8
0
  6
Continuous
 62
     7
370
    15
100
AcDbLine
 10
1410.4164904839
 20
2139.7892028931
 30
0.0
 11
1420.8890265709
 21
2139.7892028931
 31
0.0
  0
LINE
  5
1AA
330
1F
100
AcDbEntity
  8
0
  6
Continuous
 62
     7
370
    15
100
AcDbLine
 10
1420.8890265709
 20
2156.7392034362
 30
0.0
 11
1420.6820792443
 21
2156.7392034362
 31
0.0
  0
LINE
  5
1AB
330
1F
100
AcDbEntity
  8
0
  6
Continuous
 62
     7
370
    15
100
AcDbLine
 10
1380.6890315301
 20
2139.7892028931
 30
0.0
 11
1390.9615344292
 21
2139.7892028931
 31
0.0
  0
LINE
  5
1AC
330
1F
100
AcDbEntity
  8
0
  6
Continuous
 62
     7
370
    15
100
AcDbLine
 10
1380.6959456689
 20
2156.7392034362
 30
0.0
 11
1380.6890315301
 21
2156.7392034362
 31
0.0
  0
ARC
  5
1AD
330
1F
100
AcDbEntity
  8
0
  6
Continuous
 62
     7
370
    15
100
AcDbCircle
 10
-555.2193077809
 20
2145.2642033639
 30
0.0
 40
5.000000000000369
100
AcDbArc
 50
58.9972808661
 51
90.0
  0
ARC
  5
1AE
330
1F
100
AcDbEntity
  8
0
  6
Continuous
 62
     7
370
    15
100
AcDbCircle
 10
-555.2193077809
 20
2149.2642033639
 30
0.0
 40
4.99999999999959
100
AcDbArc
 50
270.0
 51
301.0027191339
  0
LINE
  5
1AF
330
1F
100
AcDbEntity
  8
0
  6
Continuous
 62
     7
370
    15
100
AcDbLine
 10
-555.2193083876
 20
2150.2642032596
 30
0.0
 11
-561.810982328
 21
2150.2642032596
 31
0.0
  0
LINE
  5
1B0
330
1F
100
AcDbEntity
  8
0
  6
Continuous
 62
     7
370
    15
100
AcDbLine
 10
-561.810982328
 20
2144.2642041388
 30
0.0
 11
-555.2193083876
 21
2144.2642041388
 31
0.0
  0
ARC
  5
1B1
330
1F
100
AcDbEntity
  8
0
  6
Continuous
 62
     7
370
    15
100
AcDbCircle
 10
-539.7003819638
 20
2145.0918656661
 30
0.0
 40
5.000000000000173
100
AcDbArc
 50
85.7108466712
 51
119.125466729
  0
ARC
  5
1B2
330
1F
100
AcDbEntity
  8
0
  6
Continuous
 62
     7
370
    15
100
AcDbCircle
 10
-539.7003819638
 20
2149.4365410618
 30
0.0
 40
4.999999999999719
100
AcDbArc
 50
240.874533271
 51
274.2891533288
  0
LINE
  5
1B3
330
1F
100
AcDbEntity
  8
0
  6
Continuous
 62
     7
370
    15
100
AcDbLine
 10
-539.3264320755
 20
2144.4505450222
 30
0.0
 11
-532.7361905092
 21
2144.9448128137
 31
0.0
  0
LINE
  5
1B4
330
1F
100
AcDbEntity
  8
0
  6
Continuous
 62
     7
370
    15
100
AcDbLine
 10
-532.7361905092
 20
2149.5835936534
 30
0.0
 11
-539.3264320755
 21
2150.0778623763
 31
0.0
  0
ARC
  5
1B5
330
1F
100
AcDbEntity
  8
0
  6
Continuous
 62
     7
370
    15
100
AcDbCircle
 10
-532.8109808677
 20
2145.9420119199
 30
0.0
 40
1.0
100
AcDbArc
 50
274.2891533288
 51
0.0
  0
ARC
  5
1B6
330
1F
100
AcDbEntity
  8
0
  6
Continuous
 62
     7
370
    15
100
AcDbCircle
 10
-532.8109808677
 20
2148.5863948079
 30
0.0
 40
1.0
100
AcDbArc
 50
0.0
 51
85.7108466712
  0
ARC
  5
1B7
330
1F
100
AcDbEntity
  8
0
  6
Continuous
 62
     7
370
    15
100
AcDbCircle
 10
-549.8109808677
 20
2140.2642033639
 30
0.0
 40
5.500000000000025
100
AcDbArc
 50
90.0
 51
121.0027191339
  0
ARC
  5
1B8
330
1F
100
AcDbEntity
  8
0
  6
Continuous
 62
     7
370
    15
100
AcDbCircle
 10
-549.8109808677
 20
2154.2642033639
 30
0.0
 40
5.500000000000025
100
AcDbArc
 50
238.9972808661
 51
270.0
  0
ARC
  5
1B9
330
1F
100
AcDbEntity
  8
0
  6
Continuous
 62
     7
370
    15
100
AcDbCircle
 10
-544.8109808677
 20
2140.2642033639
 30
0.0
 40
5.500000000000217
100
AcDbArc
 50
60.874533271
 51
90.0
  0
ARC
  5
1BA
330
1F
100
AcDbEntity
  8
0
  6
Continuous
 62
     7
370
    15
100
AcDbCircle
 10
-544.8109808677
 20
2154.2642033639
 30
0.0
 40
5.500000000000217
100
AcDbArc
 50
270.0
 51
299.125466729
  0
LINE
  5
1BB
330
1F
100
AcDbEntity
  8
0
  6
Continuous
 62
     7
370
    15
100
AcDbLine
 10
-549.8109803611
 20
2145.7642034533
 30
0.0
 11
-544.8109814042
 21
2145.7642034533
 31
0.0
  0
LINE
  5
1BC
330
1F
100
AcDbEntity
  8
0
  6
Continuous
 62
     7
370
    15
100
AcDbLine
 10
-544.8109814042
 20
2148.7642030138
 30
0.0
 11
-549.8109803611
 21
2148.7642030138
 31
0.0
  0
ARC
  5
1BD
330
1F
100
AcDbEntity
  8
0
  6
Continuous
 62
     7
370
    15
100
AcDbCircle
 10
1342.0784202283
 20
2149.4365410618
 30
0.0
 40
4.999999999999745
100
AcDbArc
 50
265.7108466712
 51
299.125466729
  0
ARC
  5
1BE
330
1F
100
AcDbEntity
  8
0
  6
Continuous
 62
     7
370
    15
100
AcDbCircle
 10
1342.0784202283
 20
2145.0918656661
 30
0.0
 40
5.000000000000199
100
AcDbArc
 50
60.874533271
 51
94.2891533288
  0
LINE
  5
1BF
330
1F
100
AcDbEntity
  8
0
  6
Continuous
 62
     7
370
    15
100
AcDbLine
 10
1341.7044944054
 20
2150.0778623763
 30
0.0
 11
1335.1142472512
 21
2149.5835936534
 31
0.0
  0
LINE
  5
1C0
330
1F
100
AcDbEntity
  8
0
  6
Continuous
 62
     7
370
    15
100
AcDbLine
 10
1335.1142472512
 20
2144.9448128137
 30
0.0
 11
1341.7044944054
 21
2144.4505450222
 31
0.0
  0
ARC
  5
1C1
330
1F
100
AcDbEntity
  8
0
  6
Continuous
 62
     7
370
    15
100
AcDbCircle
 10
1335.1890191323
 20
2148.5863948079
 30
0.0
 40
1.0
100
AcDbArc
 50
94.2891533288
 51
180.0
  0
ARC
  5
1C2
330
1F
100
AcDbEntity
  8
0
  6
Continuous
 62
     7
370
    15
100
AcDbCircle
 10
1335.1890191323
 20
2145.9420119199
 30
0.0
 40
1.0
100
AcDbArc
 50
180.0
 51
265.7108466712
  0
ARC
  5
1C3
330
1F
100
AcDbEntity
  8
0
  6
Continuous
 62
     7
370
    15
100
AcDbCircle
 10
1347.1890191323
 20
2154.2642033639
 30
0.0
 40
5.500000000000106
100
AcDbArc
 50
240.874533271
 51
270.0
  0
ARC
  5
1C4
330
1F
100
AcDbEntity
  8
0
  6
Continuous
 62
     7
370
    15
100
AcDbCircle
 10
1347.1890191323
 20
2140.2642033639
 30
0.0
 40
5.500000000000106
100
AcDbArc
 50
90.0
 51
119.125466729
  0
LINE
  5
1C5
330
1F
100
AcDbEntity
  8
0
  6
Continuous
 62
     7
370
    15
100
AcDbLine
 10
1348.1890029198
 20
2148.7642030138
 30
0.0
 11
1347.1890753991
 21
2148.7642030138
 31
0.0
  0
LINE
  5
1C6
330
1F
100
AcDbEntity
  8
0
  6
Continuous
 62
     7
370
    15
100
AcDbLine
 10
1347.1890753991
 20
2145.7642034533
 30
0.0
 11
1348.1890029198
 21
2145.7642034533
 31
0.0
  0
ARC
  5
1C7
330
1F
100
AcDbEntity
  8
0
  6
Continuous
 62
     7
370
    15
100
AcDbCircle
 10
218.2149732376
 20
73.1356919845
 30
0.0
 40
1.500000000000057
100
AcDbArc
 50
270.0
 51
359.0
  0
ARC
  5
1C8
330
1F
100
AcDbEntity
  8
0
  6
Continuous
 62
     7
370
    15
100
AcDbCircle
 10
249.163065027
 20
73.1356919845
 30
0.0
 40
1.500000000000057
100
AcDbArc
 50
181.0
 51
270.0
  0
LINE
  5
1C9
330
1F
100
AcDbEntity
  8
0
  6
Continuous
 62
     7
370
    15
100
AcDbLine
 10
219.7588152176
 20
75.6357663217
 30
0.0
 11
219.7147673852
 21
73.1094830575
 31
0.0
  0
LINE
  5
1CA
330
1F
100
AcDbEntity
  8
0
  6
Continuous
 62
     7
370
    15
100
AcDbLine
 10
247.663266111
 20
73.1094830575
 30
0.0
 11
247.6192182786
 21
75.6357663217
 31
0.0
  0
SPLINE
  5
1CB
330
1F
100
AcDbEntity
  8
0
  6
Continuous
 62
     7
370
    15
100
AcDbSpline
210
0.0
220
0.0
230
1.0
 70
     8
 71
     3
 72
    14
 73
    10
 74
     0
 42
0.000000001
 43
0.00000001
 40
0.0
 40
0.0
 40
0.0
 40
0.0
 40
0.1604424683994809
 40
0.320400398635531
 40
0.4928112956962171
 40
0.6864298199005441
 40
0.8326140406512228
 40
0.9790338297209207
 40
1.0
 40
1.0
 40
1.0
 40
1.0
 10
715.7390183693507
 20
2162.264203363934
 30
0.0
 10
715.6690902368107
 20
2161.491458077229
 30
0.0
 10
715.5294451555226
 20
2159.94830120378
 30
0.0
 10
714.4560621491097
 20
2157.861797228865
 30
0.0
 10
712.80354215519
 20
2156.113980183483
 30
0.0
 10
710.6684575768523
 20
2154.986783361625
 30
0.0
 10
708.363555295317
 20
2154.644545600448
 30
0.0
 10
706.7954627881411
 20
2154.72917696925
 30
0.0
 10
706.0817453550795
 20
2155.037193632568
 30
0.0
 10
705.992347646389
 20
2155.075774704942
 30
0.0
  0
SPLINE
  5
1CC
330
1F
100
AcDbEntity
  8
0
  6
Continuous
 62
     7
370
    15
100
AcDbSpline
210
0.0
220
0.0
230
1.0
 70
     8
 71
     3
 72
    14
 73
    10
 74
     0
 42
0.000000001
 43
0.00000001
 40
0.0
 40
0.0
 40
0.0
 40
0.0
 40
0.0879001355107915
 40
0.243110593966896
 40
0.3903547794063454
 40
0.5601946505167862
 40
0.7585959222370823
 40
0.9513022376608637
 40
0.9999999999999999
 40
0.9999999999999999
 40
0.9999999999999999
 40
0.9999999999999999
 10
706.4303225761986
 20
2169.530290821472
 30
0.0
 10
706.8203896971266
 20
2169.635493749211
 30
0.0
 10
707.8992213610913
 20
2169.926459697115
 30
0.0
 10
709.7685713408067
 20
2169.732853349123
 30
0.0
 10
711.7919045168103
 20
2169.016249458484
 30
0.0
 10
713.6531986584071
 20
2167.662147877671
 30
0.0
 10
715.128228706696
 20
2165.612594407025
 30
0.0
 10
715.7013005016005
 20
2163.611369324783
 30
0.0
 10
715.7326868832799
 20
2162.490344527912
 30
0.0
 10
715.7390183693504
 20
2162.264203363934
 30
0.0
  0
SPLINE
  5
1CD
330
1F
100
AcDbEntity
  8
0
  6
Continuous
 62
     7
370
    15
100
AcDbSpline
210
0.0
220
0.0
230
1.0
 70
     8
 71
     3
 72
    22
 73
    18
 74
     0
 42
0.000000001
 43
0.00000001
 40
0.0
 40
0.0
 40
0.0
 40
0.0
 40
0.0334235945521222
 40
0.0999833422377025
 40
0.1666559341642746
 40
0.2324784605650593
 40
0.3099788632383725
 40
0.3984774768548878
 40
0.4813648796646026
 40
0.5528622118269684
 40
0.6225287420095833
 40
0.6994678830855066
 40
0.7865454306685882
 40
0.8547918274598255
 40
0.9232465369556303
 40
0.988187766042036
 40
1.0
 40
1.0
 40
1.0
 40
1.0
 10
97.30959599081046
 20
2155.513131236562
 30
0.0
 10
97.01664283835798
 20
2155.343443274886
 30
0.0
 10
96.14030276501195
 20
2154.835838698743
 30
0.0
 10
94.33447393343752
 20
2154.637955953787
 30
0.0
 10
92.23743653856864
 20
2154.866972254154
 30
0.0
 10
90.23740463054509
 20
2155.710737068376
 30
0.0
 10
88.42290805537245
 20
2157.179434184908
 30
0.0
 10
87.0519628550892
 20
2159.349936672882
 30
0.0
 10
86.51180402155778
 20
2161.899415261484
 30
0.0
 10
86.8006295853987
 20
2164.283492997706
 30
0.0
 10
87.71598495911125
 20
2166.360916349232
 30
0.0
 10
89.25721915345375
 20
2168.156527805398
 30
0.0
 10
91.28900608376922
 20
2169.371821003052
 30
0.0
 10
93.60559784343103
 20
2169.905037179966
 30
0.0
 10
95.74204880590787
 20
2169.72004760378
 30
0.0
 10
97.22796969248104
 20
2169.300505001108
 30
0.0
 10
97.84222340862425
 20
2168.838014717106
 30
0.0
 10
97.93675606313712
 20
2168.766838209608
 30
0.0
  0
SPLINE
  5
1CE
330
1F
100
AcDbEntity
  8
0
  6
Continuous
 62
     7
370
    15
100
AcDbSpline
210
0.0
220
0.0
230
1.0
 70
    11
 71
     3
 72
    28
 73
    24
 74
     0
 42
0.000000001
 43
0.00000001
 40
0.0
 40
0.0
 40
0.0
 40
0.0
 40
0.0475553488591511
 40
0.0949656620366241
 40
0.1460696750894246
 40
0.2034579990806941
 40
0.2467844369035528
 40
0.2901855362763153
 40
0.3330343784470997
 40
0.3834830280389017
 40
0.441092589399643
 40
0.4950488599171673
 40
0.5415909544449459
 40
0.5869405056711815
 40
0.6370239441451642
 40
0.6937078255810617
 40
0.7381345917872528
 40
0.7826957759786975
 40
0.8249698297618852
 40
0.8737311429806331
 40
0.930692482447621
 40
0.9860187903644446
 40
1.0
 40
1.0
 40
1.0
 40
1.0
 10
1328.7390536553
 20
2162.264203363934
 30
0.0
 10
1328.669036308154
 20
2161.491411710809
 30
0.0
 10
1328.529215154799
 20
2159.948185286948
 30
0.0
 10
1327.456482953953
 20
2157.862390826591
 30
0.0
 10
1325.801979845041
 20
2156.111172740497
 30
0.0
 10
1323.673935246009
 20
2154.997605207238
 30
0.0
 10
1321.348480779995
 20
2154.615106361066
 30
0.0
 10
1319.233737152576
 20
2154.872990696344
 30
0.0
 10
1317.238528207885
 20
2155.70879055835
 30
0.0
 10
1315.422524653274
 20
2157.180110358662
 30
0.0
 10
1314.052002613604
 20
2159.349740782041
 30
0.0
 10
1313.511677877975
 20
2161.899480532365
 30
0.0
 10
1313.800714035917
 20
2164.283419237576
 30
0.0
 10
1314.716078815181
 20
2166.361075326593
 30
0.0
 10
1316.256636513731
 20
2168.155839693542
 30
0.0
 10
1318.290998710786
 20
2169.374549277676
 30
0.0
 10
1320.599790944769
 20
2169.897319281812
 30
0.0
 10
1322.763414438069
 20
2169.748530325314
 30
0.0
 10
1324.793527595716
 20
2169.011455373781
 30
0.0
 10
1326.652696783183
 20
2167.663769749184
 30
0.0
 10
1328.128417978957
 20
2165.612129470199
 30
0.0
 10
1328.701328099699
 20
2163.611392537009
 30
0.0
 10
1328.732720878714
 20
2162.490348424417
 30
0.0
 10
1328.7390536553
 20
2162.264203363934
 30
0.0
  0
SPLINE
  5
1CF
330
1F
100
AcDbEntity
  8
0
  6
Continuous
 62
     7
370
    15
100
AcDbSpline
210
0.0
220
0.0
230
1.0
 70
    11
 71
     3
 72
    28
 73
    24
 74
     0
 42
0.000000001
 43
0.00000001
 40
0.0
 40
0.0
 40
0.0
 40
0.0
 40
0.0475551017581377
 40
0.0949664478301108
 40
0.1460694109748525
 40
0.2034572620135033
 40
0.2467854039304267
 40
0.2901854595561361
 40
0.3330337828653862
 40
0.3834830941484244
 40
0.4410924202715051
 40
0.4950486988046595
 40
0.5415905724712584
 40
0.5869408337005583
 40
0.637024723295287
 40
0.6937086281078244
 40
0.7381340333147036
 40
0.7826955103207595
 40
0.8249696366383935
 40
0.8737310939239696
 40
0.9306923259971297
 40
0.9860188322291032
 40
1.0
 40
1.0
 40
1.0
 40
1.0
 10
-511.2609806546234
 20
2162.264203363934
 30
0.0
 10
-511.3309488251001
 20
2161.491405283754
 30
0.0
 10
-511.4706736572567
 20
2159.948145236958
 30
0.0
 10
-512.5436122338368
 20
2157.862446115241
 30
0.0
 10
-514.1979720539093
 20
2156.111151742863
 30
0.0
 10
-516.3260460523138
 20
2154.997590004787
 30
0.0
 10
-518.651501955135
 20
2154.615110505931
 30
0.0
 10
-520.7662483534908
 20
2154.87298911576
 30
0.0
 10
-522.7614235687272
 20
2155.708810626186
 30
0.0
 10
-524.5774622022288
 20
2157.180086673867
 30
0.0
 10
-525.9479673394538
 20
2159.349752541819
 30
0.0
 10
-526.4882176128646
 20
2161.899467889558
 30
0.0
 10
-526.1994005976177
 20
2164.283447924507
 30
0.0
 10
-525.2838635456959
 20
2166.361063723673
 30
0.0
 10
-523.7433143119003
 20
2168.155834852546
 30
0.0
 10
-521.7089597128017
 20
2169.374534452405
 30
0.0
 10
-519.4001969776439
 20
2169.897324989158
 30
0.0
 10
-517.2365874047862
 20
2169.748529984819
 30
0.0
 10
-515.2064728824614
 20
2169.01145430412
 30
0.0
 10
-513.3472841964468
 20
2167.663776351659
 30
0.0
 10
-511.8716286213291
 20
2165.612118320273
 30
0.0
 10
-511.2985769382153
 20
2163.61139960198
 30
0.0
 10
-511.2672917034658
 20
2162.490348622091
 30
0.0
 10
-511.2609806546234
 20
2162.264203363934
 30
0.0
  0
LINE
  5
1D0
330
1F
100
AcDbEntity
  8
0
  6
Continuous
 62
     7
370
    15
100
AcDbLine
 10
-647.8109740728
 20
2174.7642035502
 30
0.0
 11
-647.8109740728
 21
2149.7642031777
 31
0.0
  0
LINE
  5
1D1
330
1F
100
AcDbEntity
  8
0
  6
Continuous
 62
     7
370
    15
100
AcDbLine
 10
1450.1890010125
 20
2149.7642031777
 30
0.0
 11
1450.1890010125
 21
2174.7642035502
 31
0.0
  0
LINE
  5
1D2
330
1F
100
AcDbEntity
  8
0
  6
Continuous
 62
     7
370
    15
100
AcDbLine
 10
1451.1890477425
 20
2173.7642033863
 30
0.0
 11
1451.1890477425
 21
2150.7642033416
 31
0.0
  0
LINE
  5
1D3
330
1F
100
AcDbEntity
  8
0
  6
Continuous
 62
     7
370
    15
100
AcDbLine
 10
-648.8109760993
 20
2150.7642033416
 30
0.0
 11
-648.8109760993
 21
2173.7642033863
 31
0.0
  0
LINE
  5
1D4
330
1F
100
AcDbEntity
  8
0
  6
Continuous
 62
     7
370
    15
100
AcDbLine
 10
1380.4889983422
 20
2139.1642034891
 30
0.0
 11
1380.4889983422
 21
2157.3642033058
 31
0.0
  0
LINE
  5
1D5
330
1F
100
AcDbEntity
  8
0
  6
Continuous
 62
     7
370
    15
100
AcDbLine
 10
1380.6890315301
 20
2157.1642031799
 30
0.0
 11
1380.6890315301
 21
2139.3642031494
 31
0.0
  0
LINE
  5
1D6
330
1F
100
AcDbEntity
  8
0
  6
Continuous
 62
     7
370
    15
100
AcDbLine
 10
1375.1890725381
 20
2139.3642031494
 30
0.0
 11
1375.1890725381
 21
2157.1642031799
 31
0.0
  0
LINE
  5
1D7
330
1F
100
AcDbEntity
  8
0
  6
Continuous
 62
     7
370
    15
100
AcDbLine
 10
1375.3889865166
 20
2157.3642033058
 30
0.0
 11
1375.3889865166
 21
2139.1642034891
 31
0.0
  0
LINE
  5
1D8
330
1F
100
AcDbEntity
  8
0
  6
Continuous
 62
     7
370
    15
100
AcDbLine
 10
-572.8109822684
 20
2155.1887683476
 30
0.0
 11
-572.8109822684
 21
2139.3642031494
 31
0.0
  0
LINE
  5
1D9
330
1F
100
AcDbEntity
  8
0
  6
Continuous
 62
     7
370
    15
100
AcDbLine
 10
-572.8109822684
 20
2157.1642031799
 30
0.0
 11
-572.8109822684
 21
2155.1887683476
 31
0.0
  0
LINE
  5
1DA
330
1F
100
AcDbEntity
  8
0
  6
Continuous
 62
     7
370
    15
100
AcDbLine
 10
-573.0109819287
 20
2155.3443765174
 30
0.0
 11
-573.0109819287
 21
2157.3642033058
 31
0.0
  0
LINE
  5
1DB
330
1F
100
AcDbEntity
  8
0
  6
Continuous
 62
     7
370
    15
100
AcDbLine
 10
-573.0109819287
 20
2139.1642034891
 30
0.0
 11
-573.0109819287
 21
2155.3443765174
 31
0.0
  0
LINE
  5
1DC
330
1F
100
AcDbEntity
  8
0
  6
Continuous
 62
     7
370
    15
100
AcDbLine
 10
-578.1109825784
 20
2155.3443765174
 30
0.0
 11
-578.1109825784
 21
2139.1642034891
 31
0.0
  0
LINE
  5
1DD
330
1F
100
AcDbEntity
  8
0
  6
Continuous
 62
     7
370
    15
100
AcDbLine
 10
-578.1109825784
 20
2157.3642033058
 30
0.0
 11
-578.1109825784
 21
2155.3443765174
 31
0.0
  0
LINE
  5
1DE
330
1F
100
AcDbEntity
  8
0
  6
Continuous
 62
     7
370
    15
100
AcDbLine
 10
-578.3109822386
 20
2155.1887683476
 30
0.0
 11
-578.3109822386
 21
2157.1642031799
 31
0.0
  0
LINE
  5
1DF
330
1F
100
AcDbEntity
  8
0
  6
Continuous
 62
     7
370
    15
100
AcDbLine
 10
-578.3109822386
 20
2139.3642031494
 30
0.0
 11
-578.3109822386
 21
2155.1887683476
 31
0.0
  0
LINE
  5
1E0
330
1F
100
AcDbEntity
  8
0
  6
Continuous
 62
     7
370
    15
100
AcDbLine
 10
-563.8109826558
 20
2153.9142035785
 30
0.0
 11
-563.8109826558
 21
2142.6142041477
 31
0.0
  0
LINE
  5
1E1
330
1F
100
AcDbEntity
  8
0
  6
Continuous
 62
     7
370
    15
100
AcDbLine
 10
1350.1889771706
 20
2142.6142041477
 30
0.0
 11
1350.1889771706
 21
2153.9142035785
 31
0.0
  0
LINE
  5
1E2
330
1F
100
AcDbEntity
  8
0
  6
Continuous
 62
     7
370
    15
100
AcDbLine
 10
1348.1890029198
 20
2145.49984009
 30
0.0
 11
1348.1890029198
 21
2143.2642039749
 31
0.0
  0
LINE
  5
1E3
330
1F
100
AcDbEntity
  8
0
  6
Continuous
 62
     7
370
    15
100
AcDbLine
 10
1348.1890029198
 20
2153.2642037514
 30
0.0
 11
1348.1890029198
 21
2145.49984009
 31
0.0
  0
LINE
  5
1E4
330
1F
100
AcDbEntity
  8
0
  6
Continuous
 62
     7
370
    15
100
AcDbLine
 10
-561.810982328
 20
2146.633717874
 30
0.0
 11
-561.810982328
 21
2153.2642037514
 31
0.0
  0
LINE
  5
1E5
330
1F
100
AcDbEntity
  8
0
  6
Continuous
 62
     7
370
    15
100
AcDbLine
 10
-561.810982328
 20
2143.2642039749
 30
0.0
 11
-561.810982328
 21
2146.633717874
 31
0.0
  0
LINE
  5
1E6
330
1F
100
AcDbEntity
  8
0
  6
Continuous
 62
     7
370
    15
100
AcDbLine
 10
-618.5109772795
 20
2156.7392034362
 30
0.0
 11
-618.5109772795
 21
2139.7892028931
 31
0.0
  0
LINE
  5
1E7
330
1F
100
AcDbEntity
  8
0
  6
Continuous
 62
     7
370
    15
100
AcDbLine
 10
-618.8109823578
 20
2140.0892042461
 30
0.0
 11
-618.8109823578
 21
2156.4392034802
 31
0.0
  0
LINE
  5
1E8
330
1F
100
AcDbEntity
  8
0
  6
Continuous
 62
     7
370
    15
100
AcDbLine
 10
1420.8890265709
 20
2139.7892028931
 30
0.0
 11
1420.8890265709
 21
2156.7392034362
 31
0.0
  0
LINE
  5
1E9
330
1F
100
AcDbEntity
  8
0
  6
Continuous
 62
     7
370
    15
100
AcDbLine
 10
1421.1890763527
 20
2156.4392034802
 30
0.0
 11
1421.1890763527
 21
2140.0892042461
 31
0.0
  0
CIRCLE
  5
1EA
330
1F
100
AcDbEntity
  8
0
  6
Continuous
 62
     7
370
    15
100
AcDbCircle
 10
-589.3222535836
 20
2157.7145163801
 30
0.0
 40
1.299999999999968
  0
CIRCLE
  5
1EB
330
1F
100
AcDbEntity
  8
0
  6
Continuous
 62
     7
370
    15
100
AcDbCircle
 10
-598.3109808677
 20
2157.2642033639
 30
0.0
 40
18.00000000000004
  0
CIRCLE
  5
1EC
330
1F
100
AcDbEntity
  8
0
  6
Continuous
 62
     7
370
    15
100
AcDbCircle
 10
-597.8606678515
 20
2148.2754760799
 30
0.0
 40
1.299999999999968
  0
CIRCLE
  5
1ED
330
1F
100
AcDbEntity
  8
0
  6
Continuous
 62
     7
370
    15
100
AcDbCircle
 10
-598.7612938839
 20
2166.252930648
 30
0.0
 40
1.300000000000059
  0
CIRCLE
  5
1EE
330
1F
100
AcDbEntity
  8
0
  6
Continuous
 62
     7
370
    15
100
AcDbCircle
 10
-607.2997081518
 20
2156.8138903478
 30
0.0
 40
1.299999999999854
  0
CIRCLE
  5
1EF
330
1F
100
AcDbEntity
  8
0
  6
Continuous
 62
     7
370
    15
100
AcDbCircle
 10
-598.3109808677
 20
2157.2642033639
 30
0.0
 40
20.00000000000015
  0
CIRCLE
  5
1F0
330
1F
100
AcDbEntity
  8
0
  6
Continuous
 62
     7
370
    15
100
AcDbCircle
 10
1408.8142882225
 20
2161.1346041457
 30
0.0
 40
1.29999999999966
  0
CIRCLE
  5
1F1
330
1F
100
AcDbEntity
  8
0
  6
Continuous
 62
     7
370
    15
100
AcDbCircle
 10
1400.6890191323
 20
2157.2642033639
 30
0.0
 40
18.00000000000002
  0
CIRCLE
  5
1F2
330
1F
100
AcDbEntity
  8
0
  6
Continuous
 62
     7
370
    15
100
AcDbCircle
 10
1396.8186183505
 20
2165.3894724541
 30
0.0
 40
1.300000000000266
  0
CIRCLE
  5
1F3
330
1F
100
AcDbEntity
  8
0
  6
Continuous
 62
     7
370
    15
100
AcDbCircle
 10
1392.5637500421
 20
2153.3938025821
 30
0.0
 40
1.300000000000071
  0
CIRCLE
  5
1F4
330
1F
100
AcDbEntity
  8
0
  6
Continuous
 62
     7
370
    15
100
AcDbCircle
 10
1404.5594199141
 20
2149.1389342737
 30
0.0
 40
1.299999999999856
  0
CIRCLE
  5
1F5
330
1F
100
AcDbEntity
  8
0
  6
Continuous
 62
     7
370
    15
100
AcDbCircle
 10
1400.6890191323
 20
2157.2642033639
 30
0.0
 40
20.00000000000014
  0
LINE
  5
1F6
330
1F
100
AcDbEntity
  8
0
  6
Continuous
 62
     7
370
    15
100
AcDbLine
 10
-531.8109811359
 20
2148.5863949078
 30
0.0
 11
-531.8109811359
 21
2145.9420115593
 31
0.0
  0
LINE
  5
1F7
330
1F
100
AcDbEntity
  8
0
  6
Continuous
 62
     7
370
    15
100
AcDbLine
 10
1334.189063955
 20
2145.9420115593
 30
0.0
 11
1334.189063955
 21
2148.5863949078
 31
0.0
  0
ARC
  5
1F8
330
1F
100
AcDbEntity
  8
0
  6
Continuous
 62
     7
370
    15
100
AcDbCircle
 10
213.6658533869
 20
2200.6356741273
 30
0.0
 40
28.94999999999994
100
AcDbArc
 50
301.2072148381
 51
223.6746648299
  0
ARC
  5
1F9
330
1F
100
AcDbEntity
  8
0
  6
Continuous
 62
     7
370
    15
100
AcDbCircle
 10
213.6658533869
 20
2200.6356741273
 30
0.0
 40
28.94999999999996
100
AcDbArc
 50
223.6746648299
 51
238.7927851619
  0
ARC
  5
1FA
330
1F
100
AcDbEntity
  8
0
  6
Continuous
 62
     7
370
    15
100
AcDbCircle
 10
-486.3341466131
 20
2200.6356741273
 30
0.0
 40
28.95000000000042
100
AcDbArc
 50
301.2072148381
 51
223.6746648299
  0
ARC
  5
1FB
330
1F
100
AcDbEntity
  8
0
  6
Continuous
 62
     7
370
    15
100
AcDbCircle
 10
-486.3341466131
 20
2200.6356741273
 30
0.0
 40
28.95000000000027
100
AcDbArc
 50
223.6746648299
 51
238.7927851619
  0
CIRCLE
  5
1FC
330
1F
100
AcDbEntity
  8
0
  6
Continuous
 62
     7
370
    15
100
AcDbCircle
 10
-486.3341466131
 20
2140.6356741273
 30
0.0
 40
13.00000000000045
  0
CIRCLE
  5
1FD
330
1F
100
AcDbEntity
  8
0
  6
Continuous
 62
     7
370
    15
100
AcDbCircle
 10
-493.0841466131
 20
2140.6356741273
 30
0.0
 40
1.249999999999545
  0
CIRCLE
  5
1FE
330
1F
100
AcDbEntity
  8
0
  6
Continuous
 62
     7
370
    15
100
AcDbCircle
 10
-486.3341466131
 20
2133.8856741273
 30
0.0
 40
1.25
  0
CIRCLE
  5
1FF
330
1F
100
AcDbEntity
  8
0
  6
Continuous
 62
     7
370
    15
100
AcDbCircle
 10
-479.5841466131
 20
2140.6356741273
 30
0.0
 40
1.249999999999545
  0
CIRCLE
  5
200
330
1F
100
AcDbEntity
  8
0
  6
Continuous
 62
     7
370
    15
100
AcDbCircle
 10
-486.3341466131
 20
2147.3856741273
 30
0.0
 40
1.250000000000455
  0
CIRCLE
  5
201
330
1F
100
AcDbEntity
  8
0
  6
Continuous
 62
     7
370
    15
100
AcDbCircle
 10
-486.3341466131
 20
2140.6356741273
 30
0.0
 40
15.00000000000045
  0
CIRCLE
  5
202
330
1F
100
AcDbEntity
  8
0
  6
Continuous
 62
     7
370
    15
100
AcDbCircle
 10
213.6658533869
 20
2140.6356741273
 30
0.0
 40
15.00000000000045
  0
CIRCLE
  5
203
330
1F
100
AcDbEntity
  8
0
  6
Continuous
 62
     7
370
    15
100
AcDbCircle
 10
213.6658533869
 20
2140.6356741273
 30
0.0
 40
13.00000000000045
  0
CIRCLE
  5
204
330
1F
100
AcDbEntity
  8
0
  6
Continuous
 62
     7
370
    15
100
AcDbCircle
 10
220.4158533869
 20
2140.6356741273
 30
0.0
 40
1.249999999999545
  0
CIRCLE
  5
205
330
1F
100
AcDbEntity
  8
0
  6
Continuous
 62
     7
370
    15
100
AcDbCircle
 10
206.9158533869
 20
2140.6356741273
 30
0.0
 40
1.249999999999545
  0
CIRCLE
  5
206
330
1F
100
AcDbEntity
  8
0
  6
Continuous
 62
     7
370
    15
100
AcDbCircle
 10
213.6658533869
 20
2133.8856741273
 30
0.0
 40
1.249999999999545
  0
CIRCLE
  5
207
330
1F
100
AcDbEntity
  8
0
  6
Continuous
 62
     7
370
    15
100
AcDbCircle
 10
213.6658533869
 20
2147.3856741273
 30
0.0
 40
1.250000000000455
  0
LINE
  5
208
330
1F
100
AcDbEntity
  8
0
  6
Continuous
 62
     7
370
    15
100
AcDbLine
 10
-586.2841465586
 20
75.6357663217
 30
0.0
 11
313.7158817536
 21
75.6357663217
 31
0.0
  0
LINE
  5
209
330
1F
100
AcDbEntity
  8
0
  6
Continuous
 62
     7
370
    15
100
AcDbLine
 10
-586.2841465586
 20
2125.6356925609
 30
0.0
 11
-586.2841465586
 21
75.6357663217
 31
0.0
  0
LINE
  5
20A
330
1F
100
AcDbEntity
  8
0
  6
Continuous
 62
     7
370
    15
100
AcDbLine
 10
313.7158817536
 20
2125.6356925609
 30
0.0
 11
228.6658353097
 21
2125.6356925609
 31
0.0
  0
LINE
  5
20B
330
1F
100
AcDbEntity
  8
0
  6
Continuous
 62
     7
370
    15
100
AcDbLine
 10
198.6658639199
 20
2125.6356925609
 30
0.0
 11
-471.3341453188
 21
2125.6356925609
 31
0.0
  0
LINE
  5
20C
330
1F
100
AcDbEntity
  8
0
  6
Continuous
 62
     7
370
    15
100
AcDbLine
 10
-501.3341465109
 20
2125.6356925609
 30
0.0
 11
-586.2841465586
 21
2125.6356925609
 31
0.0
  0
LINE
  5
20D
330
1F
100
AcDbEntity
  8
0
  6
Continuous
 62
     7
370
    15
100
AcDbLine
 10
313.7158817536
 20
75.6357663217
 30
0.0
 11
313.7158817536
 21
2125.6356925609
 31
0.0
  0
CIRCLE
  5
20E
330
1F
100
AcDbEntity
  8
0
  6
Continuous
 62
     7
370
    15
100
AcDbCircle
 10
-486.3341466131
 20
2200.6356741273
 30
0.0
 40
15.00000000000045
  0
CIRCLE
  5
20F
330
1F
100
AcDbEntity
  8
0
  6
Continuous
 62
     7
370
    15
100
AcDbCircle
 10
-486.3341466131
 20
2200.6356741273
 30
0.0
 40
13.0
  0
CIRCLE
  5
210
330
1F
100
AcDbEntity
  8
0
  6
Continuous
 62
     7
370
    15
100
AcDbCircle
 10
-486.3341466131
 20
2193.8856741273
 30
0.0
 40
1.25
  0
CIRCLE
  5
211
330
1F
100
AcDbEntity
  8
0
  6
Continuous
 62
     7
370
    15
100
AcDbCircle
 10
-493.0841466131
 20
2200.6356741273
 30
0.0
 40
1.249999999999545
  0
CIRCLE
  5
212
330
1F
100
AcDbEntity
  8
0
  6
Continuous
 62
     7
370
    15
100
AcDbCircle
 10
-479.5841466131
 20
2200.6356741273
 30
0.0
 40
1.249999999999545
  0
CIRCLE
  5
213
330
1F
100
AcDbEntity
  8
0
  6
Continuous
 62
     7
370
    15
100
AcDbCircle
 10
-486.3341466131
 20
2207.3856741273
 30
0.0
 40
1.250000000000455
  0
CIRCLE
  5
214
330
1F
100
AcDbEntity
  8
0
  6
Continuous
 62
     7
370
    15
100
AcDbCircle
 10
213.6658533869
 20
2200.6356741273
 30
0.0
 40
15.0
  0
CIRCLE
  5
215
330
1F
100
AcDbEntity
  8
0
  6
Continuous
 62
     7
370
    15
100
AcDbCircle
 10
213.6658533869
 20
2200.6356741273
 30
0.0
 40
13.0
  0
CIRCLE
  5
216
330
1F
100
AcDbEntity
  8
0
  6
Continuous
 62
     7
370
    15
100
AcDbCircle
 10
206.9158533869
 20
2200.6356741273
 30
0.0
 40
1.25
  0
CIRCLE
  5
217
330
1F
100
AcDbEntity
  8
0
  6
Continuous
 62
     7
370
    15
100
AcDbCircle
 10
213.6658533869
 20
2207.3856741273
 30
0.0
 40
1.25
  0
CIRCLE
  5
218
330
1F
100
AcDbEntity
  8
0
  6
Continuous
 62
     7
370
    15
100
AcDbCircle
 10
220.4158533869
 20
2200.6356741273
 30
0.0
 40
1.25
  0
CIRCLE
  5
219
330
1F
100
AcDbEntity
  8
0
  6
Continuous
 62
     7
370
    15
100
AcDbCircle
 10
213.6658533869
 20
2193.8856741273
 30
0.0
 40
1.250000000000455
  0
ARC
  5
21A
330
1F
100
AcDbEntity
  8
0
  6
Continuous
 62
     7
370
    15
100
AcDbCircle
 10
213.6658533869
 20
2200.6356741273
 30
0.0
 40
29.00000000000026
100
AcDbArc
 50
301.1473899215
 51
219.6984741355
  0
ARC
  5
21B
330
1F
100
AcDbEntity
  8
0
  6
Continuous
 62
     7
370
    15
100
AcDbCircle
 10
213.6658533869
 20
2200.6356741273
 30
0.0
 40
29.00000000000021
100
AcDbArc
 50
219.6984741355
 51
238.8526100785
  0
ARC
  5
21C
330
1F
100
AcDbEntity
  8
0
  6
Continuous
 62
     7
370
    15
100
AcDbCircle
 10
-486.3341466131
 20
2200.6356741273
 30
0.0
 40
29.00000000000034
100
AcDbArc
 50
301.1473899215
 51
219.6984741355
  0
ARC
  5
21D
330
1F
100
AcDbEntity
  8
0
  6
Continuous
 62
     7
370
    15
100
AcDbCircle
 10
-486.3341466131
 20
2200.6356741273
 30
0.0
 40
29.0000000000002
100
AcDbArc
 50
219.6984741355
 51
238.8526100785
  0
CIRCLE
  5
21E
330
1F
100
AcDbEntity
  8
0
  6
Continuous
 62
     7
370
    15
100
AcDbCircle
 10
213.7158533869
 20
2070.6356919845
 30
0.0
 40
12.99999999999998
  0
CIRCLE
  5
21F
330
1F
100
AcDbEntity
  8
0
  6
Continuous
 62
     7
370
    15
100
AcDbCircle
 10
212.2204029442
 20
2077.2179505614
 30
0.0
 40
1.250000000000001
  0
CIRCLE
  5
220
330
1F
100
AcDbEntity
  8
0
  6
Continuous
 62
     7
370
    15
100
AcDbCircle
 10
207.13359481
 20
2069.1402415418
 30
0.0
 40
1.249999999999901
  0
CIRCLE
  5
221
330
1F
100
AcDbEntity
  8
0
  6
Continuous
 62
     7
370
    15
100
AcDbCircle
 10
215.2113038295
 20
2064.0534334075
 30
0.0
 40
1.250000000000102
  0
CIRCLE
  5
222
330
1F
100
AcDbEntity
  8
0
  6
Continuous
 62
     7
370
    15
100
AcDbCircle
 10
220.2981119638
 20
2072.1311424271
 30
0.0
 40
1.249999999999963
  0
CIRCLE
  5
223
330
1F
100
AcDbEntity
  8
0
  6
Continuous
 62
     7
370
    15
100
AcDbCircle
 10
213.7158533869
 20
2070.6356919845
 30
0.0
 40
14.99999999999996
  0
CIRCLE
  5
224
330
1F
100
AcDbEntity
  8
0
  6
Continuous
 62
     7
370
    15
100
AcDbCircle
 10
-486.2841466131
 20
2015.6356919845
 30
0.0
 40
13.00000000000001
  0
CIRCLE
  5
225
330
1F
100
AcDbEntity
  8
0
  6
Continuous
 62
     7
370
    15
100
AcDbCircle
 10
-487.8355214166
 20
2022.2049945516
 30
0.0
 40
1.249999999999941
  0
CIRCLE
  5
226
330
1F
100
AcDbEntity
  8
0
  6
Continuous
 62
     7
370
    15
100
AcDbCircle
 10
-492.8534491803
 20
2014.0843171809
 30
0.0
 40
1.249999999999941
  0
CIRCLE
  5
227
330
1F
100
AcDbEntity
  8
0
  6
Continuous
 62
     7
370
    15
100
AcDbCircle
 10
-484.7327718096
 20
2009.0663894173
 30
0.0
 40
1.249999999999994
  0
CIRCLE
  5
228
330
1F
100
AcDbEntity
  8
0
  6
Continuous
 62
     7
370
    15
100
AcDbCircle
 10
-479.7148440459
 20
2017.187066788
 30
0.0
 40
1.250000000000104
  0
CIRCLE
  5
229
330
1F
100
AcDbEntity
  8
0
  6
Continuous
 62
     7
370
    15
100
AcDbCircle
 10
-486.2841466131
 20
2015.6356919845
 30
0.0
 40
15.00000000000004
  0
CIRCLE
  5
22A
330
1F
100
AcDbEntity
  8
0
  6
Continuous
 62
     7
370
    15
100
AcDbCircle
 10
-486.2841466131
 20
2070.6356919845
 30
0.0
 40
15.00000000000006
  0
CIRCLE
  5
22B
330
1F
100
AcDbEntity
  8
0
  6
Continuous
 62
     7
370
    15
100
AcDbCircle
 10
-486.2841466131
 20
2070.6356919845
 30
0.0
 40
13.00000000000019
  0
CIRCLE
  5
22C
330
1F
100
AcDbEntity
  8
0
  6
Continuous
 62
     7
370
    15
100
AcDbCircle
 10
-487.7795970558
 20
2077.2179505614
 30
0.0
 40
1.249999999999963
  0
CIRCLE
  5
22D
330
1F
100
AcDbEntity
  8
0
  6
Continuous
 62
     7
370
    15
100
AcDbCircle
 10
-484.7886961705
 20
2064.0534334075
 30
0.0
 40
1.250000000000074
  0
CIRCLE
  5
22E
330
1F
100
AcDbEntity
  8
0
  6
Continuous
 62
     7
370
    15
100
AcDbCircle
 10
-479.7018880362
 20
2072.1311424271
 30
0.0
 40
1.250000000000029
  0
CIRCLE
  5
22F
330
1F
100
AcDbEntity
  8
0
  6
Continuous
 62
     7
370
    15
100
AcDbCircle
 10
-492.86640519
 20
2069.1402415418
 30
0.0
 40
1.249999999999863
  0
CIRCLE
  5
230
330
1F
100
AcDbEntity
  8
0
  6
Continuous
 62
     7
370
    15
100
AcDbCircle
 10
213.7158533869
 20
2015.6356919845
 30
0.0
 40
12.99999999999998
  0
CIRCLE
  5
231
330
1F
100
AcDbEntity
  8
0
  6
Continuous
 62
     7
370
    15
100
AcDbCircle
 10
207.1465508197
 20
2014.0843171809
 30
0.0
 40
1.250000000000132
  0
CIRCLE
  5
232
330
1F
100
AcDbEntity
  8
0
  6
Continuous
 62
     7
370
    15
100
AcDbCircle
 10
215.2672281904
 20
2009.0663894173
 30
0.0
 40
1.250000000000052
  0
CIRCLE
  5
233
330
1F
100
AcDbEntity
  8
0
  6
Continuous
 62
     7
370
    15
100
AcDbCircle
 10
220.2851559541
 20
2017.187066788
 30
0.0
 40
1.249999999999889
  0
CIRCLE
  5
234
330
1F
100
AcDbEntity
  8
0
  6
Continuous
 62
     7
370
    15
100
AcDbCircle
 10
212.1644785834
 20
2022.2049945516
 30
0.0
 40
1.249999999999948
  0
CIRCLE
  5
235
330
1F
100
AcDbEntity
  8
0
  6
Continuous
 62
     7
370
    15
100
AcDbCircle
 10
213.7158533869
 20
2015.6356919845
 30
0.0
 40
15.00000000000006
  0
LINE
  5
236
330
1F
100
AcDbEntity
  8
0
  6
Continuous
 62
     7
370
    15
100
AcDbLine
 10
-471.3341453188
 20
2200.6356731894
 30
0.0
 11
-471.3341453188
 21
2071.8594171944
 31
0.0
  0
LINE
  5
237
330
1F
100
AcDbEntity
  8
0
  6
Continuous
 62
     7
370
    15
100
AcDbLine
 10
-471.3341453188
 20
2069.4119685235
 30
0.0
 11
-471.3341453188
 21
2016.8594174924
 31
0.0
  0
LINE
  5
238
330
1F
100
AcDbEntity
  8
0
  6
Continuous
 62
     7
370
    15
100
AcDbLine
 10
-471.3341453188
 20
2014.411961371
 30
0.0
 11
-471.3341453188
 21
2011.6356813255
 31
0.0
  0
ARC
  5
239
330
1F
100
AcDbEntity
  8
0
  6
Continuous
 62
     7
370
    15
100
AcDbCircle
 10
-486.3341466131
 20
2011.6356741273
 30
0.0
 40
15.00000000000006
100
AcDbArc
 50
180.0
 51
0.0
  0
LINE
  5
23A
330
1F
100
AcDbEntity
  8
0
  6
Continuous
 62
     7
370
    15
100
AcDbLine
 10
-501.3341465109
 20
2011.6356813255
 30
0.0
 11
-501.3341465109
 21
2200.6356731894
 31
0.0
  0
LINE
  5
23B
330
1F
100
AcDbEntity
  8
0
  6
Continuous
 62
     7
370
    15
100
AcDbLine
 10
228.6658353097
 20
2200.6356731894
 30
0.0
 11
228.6658353097
 21
2071.8594171944
 31
0.0
  0
LINE
  5
23C
330
1F
100
AcDbEntity
  8
0
  6
Continuous
 62
     7
370
    15
100
AcDbLine
 10
228.6658353097
 20
2069.4119685235
 30
0.0
 11
228.6658353097
 21
2016.8594174924
 31
0.0
  0
LINE
  5
23D
330
1F
100
AcDbEntity
  8
0
  6
Continuous
 62
     7
370
    15
100
AcDbLine
 10
228.6658353097
 20
2014.411961371
 30
0.0
 11
228.6658353097
 21
2011.6356813255
 31
0.0
  0
LINE
  5
23E
330
1F
100
AcDbEntity
  8
0
  6
Continuous
 62
     7
370
    15
100
AcDbLine
 10
198.6658639199
 20
2011.6356813255
 30
0.0
 11
198.6658639199
 21
2200.6356731894
 31
0.0
  0
ARC
  5
23F
330
1F
100
AcDbEntity
  8
0
  6
Continuous
 62
     7
370
    15
100
AcDbCircle
 10
213.6658533869
 20
2011.6356741273
 30
0.0
 40
15.00000000000003
100
AcDbArc
 50
180.0
 51
0.0
  0
LINE
  5
240
330
1F
100
AcDbEntity
  8
0
  6
Continuous
 62
     7
370
    15
100
AcDbLine
 10
209.1890043503
 20
71.6355794015
 30
0.0
 11
209.1890043503
 21
67.6356308999
 31
0.0
  0
LINE
  5
241
330
1F
100
AcDbEntity
  8
0
  6
Continuous
 62
     7
370
    15
100
AcDbLine
 10
209.1890043503
 20
67.6356308999
 30
0.0
 11
206.6890067345
 21
67.6356308999
 31
0.0
  0
LINE
  5
242
330
1F
100
AcDbEntity
  8
0
  6
Continuous
 62
     7
370
    15
100
AcDbLine
 10
206.6890067345
 20
67.6356308999
 30
0.0
 11
206.6890067345
 21
71.6355794015
 31
0.0
  0
LINE
  5
243
330
1F
100
AcDbEntity
  8
0
  6
Continuous
 62
     7
370
    15
100
AcDbLine
 10
206.6890067345
 20
71.6355794015
 30
0.0
 11
209.1890043503
 21
71.6355794015
 31
0.0
  0
LINE
  5
244
330
1F
100
AcDbEntity
  8
0
  6
Continuous
 62
     7
370
    15
100
AcDbLine
 10
268.6890429741
 20
67.6356308999
 30
0.0
 11
268.6890429741
 21
71.6355794015
 31
0.0
  0
LINE
  5
245
330
1F
100
AcDbEntity
  8
0
  6
Continuous
 62
     7
370
    15
100
AcDbLine
 10
209.1890043503
 20
71.6355794015
 30
0.0
 11
268.6890429741
 21
71.6355794015
 31
0.0
  0
LINE
  5
246
330
1F
100
AcDbEntity
  8
0
  6
Continuous
 62
     7
370
    15
100
AcDbLine
 10
209.1890043503
 20
67.6356308999
 30
0.0
 11
268.6890429741
 21
67.6356308999
 31
0.0
  0
LINE
  5
247
330
1F
100
AcDbEntity
  8
0
  6
Continuous
 62
     7
370
    15
100
AcDbLine
 10
271.18904059
 20
71.6355794015
 30
0.0
 11
271.18904059
 21
67.6356308999
 31
0.0
  0
LINE
  5
248
330
1F
100
AcDbEntity
  8
0
  6
Continuous
 62
     7
370
    15
100
AcDbLine
 10
268.6890429741
 20
71.6355794015
 30
0.0
 11
271.18904059
 21
71.6355794015
 31
0.0
  0
LINE
  5
249
330
1F
100
AcDbEntity
  8
0
  6
Continuous
 62
     7
370
    15
100
AcDbLine
 10
271.18904059
 20
67.6356308999
 30
0.0
 11
268.6890429741
 21
67.6356308999
 31
0.0
  0
ARC
  5
24A
330
1F
100
AcDbEntity
  8
0
  6
Continuous
 62
     7
370
    15
100
AcDbCircle
 10
218.6595084011
 20
72.7679802279
 30
0.0
 40
1.827150544183976
100
AcDbArc
 50
321.701149533
 51
10.772194645
  0
LINE
  5
24B
330
1F
100
AcDbEntity
  8
0
  6
Continuous
 62
     7
370
    15
100
AcDbLine
 10
220.4544610268
 20
73.1094830575
 30
0.0
 11
246.9235724694
 21
73.1094830575
 31
0.0
  0
ARC
  5
24C
330
1F
100
AcDbEntity
  8
0
  6
Continuous
 62
     7
370
    15
100
AcDbCircle
 10
248.7185250951
 20
72.7679802279
 30
0.0
 40
1.827150544183976
100
AcDbArc
 50
169.227805355
 51
218.298850467
  0
CIRCLE
  5
24D
330
1F
100
AcDbEntity
  8
0
  6
Continuous
 62
     7
370
    15
100
AcDbCircle
 10
92.0275337423
 20
2165.7051396666
 30
0.0
 40
1.250000000000111
  0
CIRCLE
  5
24E
330
1F
100
AcDbEntity
  8
0
  6
Continuous
 62
     7
370
    15
100
AcDbCircle
 10
97.9629554349
 20
2164.758688754
 30
0.0
 40
1.250000000000103
  0
CIRCLE
  5
24F
330
1F
100
AcDbEntity
  8
0
  6
Continuous
 62
     7
370
    15
100
AcDbCircle
 10
94.5220191323
 20
2162.2642033639
 30
0.0
 40
6.449999999999909
  0
CIRCLE
  5
250
330
1F
100
AcDbEntity
  8
0
  6
Continuous
 62
     7
370
    15
100
AcDbCircle
 10
91.0810828296
 20
2159.7697179739
 30
0.0
 40
1.250000000000044
  0
CIRCLE
  5
251
330
1F
100
AcDbEntity
  8
0
  6
Continuous
 62
     7
370
    15
100
AcDbCircle
 10
97.0165045223
 20
2158.8232670613
 30
0.0
 40
1.250000000000044
  0
CIRCLE
  5
252
330
1F
100
AcDbEntity
  8
0
  6
Continuous
 62
     7
370
    15
100
AcDbCircle
 10
94.5220191323
 20
2162.2642033639
 30
0.0
 40
7.449999999999893
  0
CIRCLE
  5
253
330
1F
100
AcDbEntity
  8
0
  6
Continuous
 62
     7
370
    15
100
AcDbCircle
 10
704.4140828296
 20
2159.7697179739
 30
0.0
 40
1.250000000000136
  0
CIRCLE
  5
254
330
1F
100
AcDbEntity
  8
0
  6
Continuous
 62
     7
370
    15
100
AcDbCircle
 10
711.2959554349
 20
2164.758688754
 30
0.0
 40
1.250000000000002
  0
CIRCLE
  5
255
330
1F
100
AcDbEntity
  8
0
  6
Continuous
 62
     7
370
    15
100
AcDbCircle
 10
707.8550191323
 20
2162.2642033639
 30
0.0
 40
6.44999999999986
  0
CIRCLE
  5
256
330
1F
100
AcDbEntity
  8
0
  6
Continuous
 62
     7
370
    15
100
AcDbCircle
 10
705.3605337423
 20
2165.7051396666
 30
0.0
 40
1.250000000000136
  0
CIRCLE
  5
257
330
1F
100
AcDbEntity
  8
0
  6
Continuous
 62
     7
370
    15
100
AcDbCircle
 10
710.3495045223
 20
2158.8232670613
 30
0.0
 40
1.250000000000002
  0
CIRCLE
  5
258
330
1F
100
AcDbEntity
  8
0
  6
Continuous
 62
     7
370
    15
100
AcDbCircle
 10
707.8550191323
 20
2162.2642033639
 30
0.0
 40
7.449999999999867
  0
CIRCLE
  5
259
330
1F
100
AcDbEntity
  8
0
  6
Continuous
 62
     7
370
    15
100
AcDbCircle
 10
1321.1880191323
 20
2162.2642033639
 30
0.0
 40
6.449999999999993
  0
CIRCLE
  5
25A
330
1F
100
AcDbEntity
  8
0
  6
Continuous
 62
     7
370
    15
100
AcDbCircle
 10
1321.1880191323
 20
2162.2642033639
 30
0.0
 40
7.450000000000001
  0
CIRCLE
  5
25B
330
1F
100
AcDbEntity
  8
0
  6
Continuous
 62
     7
370
    15
100
AcDbCircle
 10
1317.7470828296
 20
2159.7697179739
 30
0.0
 40
1.250000000000002
  0
CIRCLE
  5
25C
330
1F
100
AcDbEntity
  8
0
  6
Continuous
 62
     7
370
    15
100
AcDbCircle
 10
1318.6935337423
 20
2165.7051396666
 30
0.0
 40
1.250000000000002
  0
CIRCLE
  5
25D
330
1F
100
AcDbEntity
  8
0
  6
Continuous
 62
     7
370
    15
100
AcDbCircle
 10
1324.6289554349
 20
2164.758688754
 30
0.0
 40
1.250000000000002
  0
CIRCLE
  5
25E
330
1F
100
AcDbEntity
  8
0
  6
Continuous
 62
     7
370
    15
100
AcDbCircle
 10
1323.6825045223
 20
2158.8232670613
 30
0.0
 40
1.250000000000002
  0
CIRCLE
  5
25F
330
1F
100
AcDbEntity
  8
0
  6
Continuous
 62
     7
370
    15
100
AcDbCircle
 10
-515.3700445651
 20
2164.758688754
 30
0.0
 40
1.250000000000069
  0
CIRCLE
  5
260
330
1F
100
AcDbEntity
  8
0
  6
Continuous
 62
     7
370
    15
100
AcDbCircle
 10
-518.8109808677
 20
2162.2642033639
 30
0.0
 40
6.44999999999986
  0
CIRCLE
  5
261
330
1F
100
AcDbEntity
  8
0
  6
Continuous
 62
     7
370
    15
100
AcDbCircle
 10
-522.2519171704
 20
2159.7697179739
 30
0.0
 40
1.250000000000069
  0
CIRCLE
  5
262
330
1F
100
AcDbEntity
  8
0
  6
Continuous
 62
     7
370
    15
100
AcDbCircle
 10
-521.3054662577
 20
2165.7051396666
 30
0.0
 40
1.250000000000136
  0
CIRCLE
  5
263
330
1F
100
AcDbEntity
  8
0
  6
Continuous
 62
     7
370
    15
100
AcDbCircle
 10
-516.3164954777
 20
2158.8232670613
 30
0.0
 40
1.250000000000002
  0
CIRCLE
  5
264
330
1F
100
AcDbEntity
  8
0
  6
Continuous
 62
     7
370
    15
100
AcDbCircle
 10
-518.8109808677
 20
2162.2642033639
 30
0.0
 40
7.449999999999867
  0
ARC
  5
265
330
1F
100
AcDbEntity
  8
0
  6
Continuous
 62
     7
370
    15
100
AcDbCircle
 10
1321.1880191323
 20
2162.2642033639
 30
0.0
 40
14.99999999999962
100
AcDbArc
 50
236.4426902381
 51
303.5573097619
  0
ARC
  5
266
330
1F
100
AcDbEntity
  8
0
  6
Continuous
 62
     7
370
    15
100
AcDbCircle
 10
1321.1880191323
 20
2162.2642033639
 30
0.0
 40
14.99999999999962
100
AcDbArc
 50
56.4426902381
 51
123.5573097619
  0
ARC
  5
267
330
1F
100
AcDbEntity
  8
0
  6
Continuous
 62
     7
370
    15
100
AcDbCircle
 10
1321.1880191323
 20
2162.2642033639
 30
0.0
 40
30.00000000000003
100
AcDbArc
 50
24.6243183522
 51
155.3756816478
  0
LINE
  5
268
330
1F
100
AcDbEntity
  8
0
  6
Continuous
 62
     7
370
    15
100
AcDbLine
 10
1348.1890029198
 20
2149.1895715612
 30
0.0
 11
1347.9788369423
 21
2148.7642030138
 31
0.0
  0
ARC
  5
269
330
1F
100
AcDbEntity
  8
0
  6
Continuous
 62
     7
370
    15
100
AcDbCircle
 10
1321.1880191323
 20
2162.2642033639
 30
0.0
 40
30.00000000000003
100
AcDbArc
 50
204.6243183522
 51
326.4198561772
  0
ARC
  5
26A
330
1F
100
AcDbEntity
  8
0
  6
Continuous
 62
     7
370
    15
100
AcDbCircle
 10
-518.8109808677
 20
2162.2642033639
 30
0.0
 40
14.99999999999962
100
AcDbArc
 50
236.4426902381
 51
303.5573097619
  0
ARC
  5
26B
330
1F
100
AcDbEntity
  8
0
  6
Continuous
 62
     7
370
    15
100
AcDbCircle
 10
-518.8109808677
 20
2162.2642033639
 30
0.0
 40
14.99999999999962
100
AcDbArc
 50
56.4426902381
 51
123.5573097619
  0
ARC
  5
26C
330
1F
100
AcDbEntity
  8
0
  6
Continuous
 62
     7
370
    15
100
AcDbCircle
 10
-518.8109808677
 20
2162.2642033639
 30
0.0
 40
29.99999999999993
100
AcDbArc
 50
80.7300808779
 51
155.3756816478
  0
ARC
  5
26D
330
1F
100
AcDbEntity
  8
0
  6
Continuous
 62
     7
370
    15
100
AcDbCircle
 10
-518.8109808677
 20
2162.2642033639
 30
0.0
 40
30.00000000000041
100
AcDbArc
 50
213.5796566236
 51
305.630882068
  0
LWPOLYLINE
  5
26E
330
1F
100
AcDbEntity
  8
0
  6
Continuous
 62
     7
370
    15
100
AcDbPolyline
 90
        3
 70
   128
 43
0.0
 10
-545.6018381828
 20
2148.7642030138
 10
-546.0388016963
 20
2149.6687351632
 10
-546.0827619844
 20
2149.7642031777
  0
ARC
  5
26F
330
1F
100
AcDbEntity
  8
0
  6
Continuous
 62
     7
370
    15
100
AcDbCircle
 10
707.8550191323
 20
2162.2642033639
 30
0.0
 40
14.99999999999969
100
AcDbArc
 50
236.4426902381
 51
303.5573097619
  0
ARC
  5
270
330
1F
100
AcDbEntity
  8
0
  6
Continuous
 62
     7
370
    15
100
AcDbCircle
 10
707.8550191323
 20
2162.2642033639
 30
0.0
 40
14.99999999999969
100
AcDbArc
 50
56.4426902381
 51
123.5573097619
  0
ARC
  5
271
330
1F
100
AcDbEntity
  8
0
  6
Continuous
 62
     7
370
    15
100
AcDbCircle
 10
707.8550191323
 20
2162.2642033639
 30
0.0
 40
29.99999999999993
100
AcDbArc
 50
24.6243183522
 51
155.3756816478
  0
ARC
  5
272
330
1F
100
AcDbEntity
  8
0
  6
Continuous
 62
     7
370
    15
100
AcDbCircle
 10
707.8550191323
 20
2162.2642033639
 30
0.0
 40
29.99999999999993
100
AcDbArc
 50
204.6243183522
 51
335.3756816478
  0
ARC
  5
273
330
1F
100
AcDbEntity
  8
0
  6
Continuous
 62
     7
370
    15
100
AcDbCircle
 10
94.5220191323
 20
2162.2642033639
 30
0.0
 40
14.99999999999959
100
AcDbArc
 50
236.4426902381
 51
303.5573097619
  0
ARC
  5
274
330
1F
100
AcDbEntity
  8
0
  6
Continuous
 62
     7
370
    15
100
AcDbCircle
 10
94.5220191323
 20
2162.2642033639
 30
0.0
 40
14.99999999999959
100
AcDbArc
 50
56.4426902381
 51
123.5573097619
  0
ARC
  5
275
330
1F
100
AcDbEntity
  8
0
  6
Continuous
 62
     7
370
    15
100
AcDbCircle
 10
94.5220191323
 20
2162.2642033639
 30
0.0
 40
29.99999999999999
100
AcDbArc
 50
24.6243183522
 51
155.3756816478
  0
ARC
  5
276
330
1F
100
AcDbEntity
  8
0
  6
Continuous
 62
     7
370
    15
100
AcDbCircle
 10
94.5220191323
 20
2162.2642033639
 30
0.0
 40
29.99999999999999
100
AcDbArc
 50
204.6243183522
 51
335.3756816478
  0
LINE
  5
277
330
1F
100
AcDbEntity
  8
0
  6
Continuous
 62
     8
370
    15
100
AcDbLine
 10
-564.1109802836
 20
2142.3142027947
 30
0.0
 11
-564.1109802836
 21
2154.2142030689
 31
0.0
  0
LINE
  5
278
330
1F
100
AcDbEntity
  8
0
  6
Continuous
 62
     8
370
    15
100
AcDbLine
 10
1350.4890269524
 20
2154.2142030689
 30
0.0
 11
1350.4890269524
 21
2142.3142027947
 31
0.0
  0
LINE
  5
279
330
1F
100
AcDbEntity
  8
0
  6
Continuous
 62
     8
370
    15
100
AcDbLine
 10
-552.6439146214
 20
2146.0991945955
 30
0.0
 11
-552.6439146214
 21
2144.978489438
 31
0.0
  0
LINE
  5
27A
330
1F
100
AcDbEntity
  8
0
  6
Continuous
 62
     8
370
    15
100
AcDbLine
 10
-552.6439146214
 20
2149.5499179604
 30
0.0
 11
-552.6439146214
 21
2146.0991945955
 31
0.0
  0
LINE
  5
27B
330
1F
100
AcDbEntity
  8
0
  6
Continuous
 62
     8
370
    15
100
AcDbLine
 10
-555.2193083876
 20
2144.2642041388
 30
0.0
 11
-555.2193083876
 21
2150.2642032596
 31
0.0
  0
LINE
  5
27C
330
1F
100
AcDbEntity
  8
0
  6
Continuous
 62
     8
370
    15
100
AcDbLine
 10
-539.3264320755
 20
2145.8301057014
 30
0.0
 11
-539.3264320755
 21
2144.4505450222
 31
0.0
  0
LINE
  5
27D
330
1F
100
AcDbEntity
  8
0
  6
Continuous
 62
     8
370
    15
100
AcDbLine
 10
-539.3264320755
 20
2150.0778623763
 30
0.0
 11
-539.3264320755
 21
2145.8301057014
 31
0.0
  0
LINE
  5
27E
330
1F
100
AcDbEntity
  8
0
  6
Continuous
 62
     8
370
    15
100
AcDbLine
 10
-542.1340008342
 20
2145.0687606725
 30
0.0
 11
-542.1340008342
 21
2149.4596457946
 31
0.0
  0
LINE
  5
27F
330
1F
100
AcDbEntity
  8
0
  6
Continuous
 62
     8
370
    15
100
AcDbLine
 10
-532.7361905092
 20
2144.9448128137
 30
0.0
 11
-532.7361905092
 21
2149.5835936534
 31
0.0
  0
LINE
  5
280
330
1F
100
AcDbEntity
  8
0
  6
Continuous
 62
     8
370
    15
100
AcDbLine
 10
-549.8109803611
 20
2145.7642034533
 30
0.0
 11
-549.8109803611
 21
2148.7642030138
 31
0.0
  0
LINE
  5
281
330
1F
100
AcDbEntity
  8
0
  6
Continuous
 62
     8
370
    15
100
AcDbLine
 10
-544.8109814042
 20
2145.7642034533
 30
0.0
 11
-544.8109814042
 21
2148.7642030138
 31
0.0
  0
LINE
  5
282
330
1F
100
AcDbEntity
  8
0
  6
Continuous
 62
     8
370
    15
100
AcDbLine
 10
1341.7044944054
 20
2150.0153277907
 30
0.0
 11
1341.7044944054
 21
2150.0778623763
 31
0.0
  0
LINE
  5
283
330
1F
100
AcDbEntity
  8
0
  6
Continuous
 62
     8
370
    15
100
AcDbLine
 10
1341.7044944054
 20
2144.4505450222
 30
0.0
 11
1341.7044944054
 21
2150.0153277907
 31
0.0
  0
LINE
  5
284
330
1F
100
AcDbEntity
  8
0
  6
Continuous
 62
     8
370
    15
100
AcDbLine
 10
1344.5119923836
 20
2149.4596457946
 30
0.0
 11
1344.5119923836
 21
2145.0687606725
 31
0.0
  0
LINE
  5
285
330
1F
100
AcDbEntity
  8
0
  6
Continuous
 62
     8
370
    15
100
AcDbLine
 10
1335.1142472512
 20
2149.5835936534
 30
0.0
 11
1335.1142472512
 21
2144.9448128137
 31
0.0
  0
LINE
  5
286
330
1F
100
AcDbEntity
  8
0
  6
Continuous
 62
     8
370
    15
100
AcDbLine
 10
1347.1890753991
 20
2148.7642030138
 30
0.0
 11
1347.1890753991
 21
2145.7642034533
 31
0.0
  0
LINE
  5
287
330
1F
100
AcDbEntity
  8
0
  6
Continuous
 62
     8
370
    15
100
AcDbLine
 10
220.4650706536
 20
75.6357663217
 30
0.0
 11
220.4544610268
 21
73.1094830575
 31
0.0
  0
LINE
  5
288
330
1F
100
AcDbEntity
  8
0
  6
Continuous
 62
     8
370
    15
100
AcDbLine
 10
246.9129628426
 20
75.6357663217
 30
0.0
 11
246.9235724694
 21
73.1094830575
 31
0.0
  0
LINE
  5
289
330
1F
100
AcDbEntity
  8
0
  6
Continuous
 62
     8
370
    15
100
AcDbLine
 10
219.7147673852
 20
73.1094830575
 30
0.0
 11
220.4544610268
 21
73.1094830575
 31
0.0
  0
LINE
  5
28A
330
1F
100
AcDbEntity
  8
0
  6
Continuous
 62
     8
370
    15
100
AcDbLine
 10
246.9235724694
 20
73.1094830575
 30
0.0
 11
247.663266111
 21
73.1094830575
 31
0.0
  0
LINE
  5
28B
330
1F
100
AcDbEntity
  8
0
  6
Continuous
 62
     7
370
    15
100
AcDbLine
 10
-647.8109740728
 20
-108.8259455139
 30
0.0
 11
-648.8109760993
 21
-109.8259456778
 31
0.0
  0
LINE
  5
28C
330
1F
100
AcDbEntity
  8
0
  6
Continuous
 62
     7
370
    15
100
AcDbLine
 10
-648.8109760993
 20
-132.8259457225
 30
0.0
 11
-647.8109740728
 21
-133.8259440238
 31
0.0
  0
LINE
  5
28D
330
1F
100
AcDbEntity
  8
0
  6
Continuous
 62
     7
370
    15
100
AcDbLine
 10
1450.1890010125
 20
-133.8259440238
 30
0.0
 11
1451.1890477425
 21
-132.8259457225
 31
0.0
  0
LINE
  5
28E
330
1F
100
AcDbEntity
  8
0
  6
Continuous
 62
     7
370
    15
100
AcDbLine
 10
1451.1890477425
 20
-109.8259456778
 30
0.0
 11
1450.1890010125
 21
-108.8259455139
 31
0.0
  0
LINE
  5
28F
330
1F
100
AcDbEntity
  8
0
  6
Continuous
 62
     7
370
    15
100
AcDbLine
 10
1328.7390536553
 20
-133.8259440238
 30
0.0
 11
1381.7051715142
 21
-133.8259440238
 31
0.0
  0
LINE
  5
290
330
1F
100
AcDbEntity
  8
0
  6
Continuous
 62
     7
370
    15
100
AcDbLine
 10
1419.7579688317
 20
-133.8259440238
 30
0.0
 11
1450.1890010125
 21
-133.8259440238
 31
0.0
  0
LINE
  5
291
330
1F
100
AcDbEntity
  8
0
  6
Continuous
 62
     7
370
    15
100
AcDbLine
 10
715.7390183694
 20
-133.8259440238
 30
0.0
 11
1313.6709994561
 21
-133.8259440238
 31
0.0
  0
LINE
  5
292
330
1F
100
AcDbEntity
  8
0
  6
Continuous
 62
     7
370
    15
100
AcDbLine
 10
101.9719905144
 20
-133.8259440238
 30
0.0
 11
198.6658639199
 21
-133.8259440238
 31
0.0
  0
LINE
  5
293
330
1F
100
AcDbEntity
  8
0
  6
Continuous
 62
     7
370
    15
100
AcDbLine
 10
228.6658353097
 20
-133.8259440238
 30
0.0
 11
700.4050082451
 21
-133.8259440238
 31
0.0
  0
LINE
  5
294
330
1F
100
AcDbEntity
  8
0
  6
Continuous
 62
     7
370
    15
100
AcDbLine
 10
-511.2609806546
 20
-133.8259440238
 30
0.0
 11
-501.3341465109
 21
-133.8259440238
 31
0.0
  0
LINE
  5
295
330
1F
100
AcDbEntity
  8
0
  6
Continuous
 62
     7
370
    15
100
AcDbLine
 10
-471.3341453188
 20
-133.8259440238
 30
0.0
 11
86.6710013634
 21
-133.8259440238
 31
0.0
  0
LINE
  5
296
330
1F
100
AcDbEntity
  8
0
  6
Continuous
 62
     7
370
    15
100
AcDbLine
 10
-647.8109740728
 20
-133.8259440238
 30
0.0
 11
-617.2948637122
 21
-133.8259440238
 31
0.0
  0
LINE
  5
297
330
1F
100
AcDbEntity
  8
0
  6
Continuous
 62
     7
370
    15
100
AcDbLine
 10
-579.2420812958
 20
-133.8259440238
 30
0.0
 11
-526.329022281
 21
-133.8259440238
 31
0.0
  0
LINE
  5
298
330
1F
100
AcDbEntity
  8
0
  6
Continuous
 62
     7
370
    15
100
AcDbLine
 10
-526.3109807001
 20
-108.8259455139
 30
0.0
 11
-579.3122955674
 21
-108.8259455139
 31
0.0
  0
LINE
  5
299
330
1F
100
AcDbEntity
  8
0
  6
Continuous
 62
     7
370
    15
100
AcDbLine
 10
-617.3036255949
 20
-108.8259455139
 30
0.0
 11
-647.8109740728
 21
-108.8259455139
 31
0.0
  0
LINE
  5
29A
330
1F
100
AcDbEntity
  8
0
  6
Continuous
 62
     7
370
    15
100
AcDbLine
 10
87.0220131165
 20
-108.8259455139
 30
0.0
 11
-472.3341473454
 21
-108.8259455139
 31
0.0
  0
LINE
  5
29B
330
1F
100
AcDbEntity
  8
0
  6
Continuous
 62
     7
370
    15
100
AcDbLine
 10
-500.334146347
 20
-108.8259455139
 30
0.0
 11
-511.3109810353
 21
-108.8259455139
 31
0.0
  0
LINE
  5
29C
330
1F
100
AcDbEntity
  8
0
  6
Continuous
 62
     7
370
    15
100
AcDbLine
 10
700.3550595528
 20
-108.8259455139
 30
0.0
 11
227.6658481843
 21
-108.8259455139
 31
0.0
  0
LINE
  5
29D
330
1F
100
AcDbEntity
  8
0
  6
Continuous
 62
     7
370
    15
100
AcDbLine
 10
199.6658510453
 20
-108.8259455139
 30
0.0
 11
102.0219988114
 21
-108.8259455139
 31
0.0
  0
LINE
  5
29E
330
1F
100
AcDbEntity
  8
0
  6
Continuous
 62
     7
370
    15
100
AcDbLine
 10
1313.6880463845
 20
-108.8259455139
 30
0.0
 11
715.3550452477
 21
-108.8259455139
 31
0.0
  0
LINE
  5
29F
330
1F
100
AcDbEntity
  8
0
  6
Continuous
 62
     7
370
    15
100
AcDbLine
 10
1450.1890010125
 20
-108.8259455139
 30
0.0
 11
1419.6877545601
 21
-108.8259455139
 31
0.0
  0
LINE
  5
2A0
330
1F
100
AcDbEntity
  8
0
  6
Continuous
 62
     7
370
    15
100
AcDbLine
 10
1381.6963500268
 20
-108.8259455139
 30
0.0
 11
1328.6880320794
 21
-108.8259455139
 31
0.0
  0
LINE
  5
2A1
330
1F
100
AcDbEntity
  8
0
  6
Continuous
 62
     7
370
    15
100
AcDbLine
 10
1380.4889983422
 20
-134.2259470696
 30
0.0
 11
1375.3889865166
 21
-134.2259470696
 31
0.0
  0
LINE
  5
2A2
330
1F
100
AcDbEntity
  8
0
  6
Continuous
 62
     7
370
    15
100
AcDbLine
 10
1375.3889865166
 20
-152.425945955
 30
0.0
 11
1380.4889983422
 21
-152.425945955
 31
0.0
  0
LINE
  5
2A3
330
1F
100
AcDbEntity
  8
0
  6
Continuous
 62
     7
370
    15
100
AcDbLine
 10
1375.3889865166
 20
-134.2259470696
 30
0.0
 11
1375.1890725381
 21
-134.4259467298
 31
0.0
  0
LINE
  5
2A4
330
1F
100
AcDbEntity
  8
0
  6
Continuous
 62
     7
370
    15
100
AcDbLine
 10
1375.1890725381
 20
-152.2259425694
 30
0.0
 11
1375.3889865166
 21
-152.425945955
 31
0.0
  0
LINE
  5
2A5
330
1F
100
AcDbEntity
  8
0
  6
Continuous
 62
     7
370
    15
100
AcDbLine
 10
1380.4889983422
 20
-152.425945955
 30
0.0
 11
1380.6890315301
 21
-152.2259425694
 31
0.0
  0
LINE
  5
2A6
330
1F
100
AcDbEntity
  8
0
  6
Continuous
 62
     7
370
    15
100
AcDbLine
 10
1380.6890315301
 20
-134.4259467298
 30
0.0
 11
1380.4889983422
 21
-134.2259470696
 31
0.0
  0
LINE
  5
2A7
330
1F
100
AcDbEntity
  8
0
  6
Continuous
 62
     7
370
    15
100
AcDbLine
 10
-578.1109825784
 20
-152.425945955
 30
0.0
 11
-573.0109819287
 21
-152.425945955
 31
0.0
  0
LINE
  5
2A8
330
1F
100
AcDbEntity
  8
0
  6
Continuous
 62
     7
370
    15
100
AcDbLine
 10
-573.0109819287
 20
-134.2259470696
 30
0.0
 11
-578.1109825784
 21
-134.2259470696
 31
0.0
  0
LINE
  5
2A9
330
1F
100
AcDbEntity
  8
0
  6
Continuous
 62
     7
370
    15
100
AcDbLine
 10
-578.1109825784
 20
-134.2259470696
 30
0.0
 11
-578.3109822386
 21
-134.4259467298
 31
0.0
  0
LINE
  5
2AA
330
1F
100
AcDbEntity
  8
0
  6
Continuous
 62
     7
370
    15
100
AcDbLine
 10
-578.3109822386
 20
-152.2259425694
 30
0.0
 11
-578.1109825784
 21
-152.425945955
 31
0.0
  0
LINE
  5
2AB
330
1F
100
AcDbEntity
  8
0
  6
Continuous
 62
     7
370
    15
100
AcDbLine
 10
-573.0109819287
 20
-152.425945955
 30
0.0
 11
-572.8109822684
 21
-152.2259425694
 31
0.0
  0
LINE
  5
2AC
330
1F
100
AcDbEntity
  8
0
  6
Continuous
 62
     7
370
    15
100
AcDbLine
 10
-572.8109822684
 20
-134.4259467298
 30
0.0
 11
-573.0109819287
 21
-134.2259470696
 31
0.0
  0
ARC
  5
2AD
330
1F
100
AcDbEntity
  8
0
  6
Continuous
 62
     7
370
    15
100
AcDbCircle
 10
-564.1109808677
 20
-137.6759456331
 30
0.0
 40
0.3000000000000682
100
AcDbArc
 50
0.0
 51
90.0
  0
ARC
  5
2AE
330
1F
100
AcDbEntity
  8
0
  6
Continuous
 62
     7
370
    15
100
AcDbCircle
 10
-564.1109808677
 20
-148.9759456331
 30
0.0
 40
0.3000000000000682
100
AcDbArc
 50
270.0
 51
0.0
  0
LINE
  5
2AF
330
1F
100
AcDbEntity
  8
0
  6
Continuous
 62
     7
370
    15
100
AcDbLine
 10
-572.8109822684
 20
-149.2759447867
 30
0.0
 11
-564.1109802836
 21
-149.2759447867
 31
0.0
  0
LINE
  5
2B0
330
1F
100
AcDbEntity
  8
0
  6
Continuous
 62
     7
370
    15
100
AcDbLine
 10
-564.1109802836
 20
-137.3759445125
 30
0.0
 11
-572.8109822684
 21
-137.3759445125
 31
0.0
  0
LINE
  5
2B1
330
1F
100
AcDbEntity
  8
0
  6
Continuous
 62
     7
370
    15
100
AcDbLine
 10
1375.1890725381
 20
-137.3759445125
 30
0.0
 11
1350.4890269524
 21
-137.3759445125
 31
0.0
  0
LINE
  5
2B2
330
1F
100
AcDbEntity
  8
0
  6
Continuous
 62
     7
370
    15
100
AcDbLine
 10
1350.4890269524
 20
-149.2759447867
 30
0.0
 11
1375.1890725381
 21
-149.2759447867
 31
0.0
  0
ARC
  5
2B3
330
1F
100
AcDbEntity
  8
0
  6
Continuous
 62
     7
370
    15
100
AcDbCircle
 10
1350.4890191323
 20
-148.9759456331
 30
0.0
 40
0.3000000000001819
100
AcDbArc
 50
180.0
 51
270.0
  0
ARC
  5
2B4
330
1F
100
AcDbEntity
  8
0
  6
Continuous
 62
     7
370
    15
100
AcDbCircle
 10
1350.4890191323
 20
-137.6759456331
 30
0.0
 40
0.3000000000001819
100
AcDbArc
 50
90.0
 51
180.0
  0
LINE
  5
2B5
330
1F
100
AcDbEntity
  8
0
  6
Continuous
 62
     7
370
    15
100
AcDbLine
 10
1348.1890029198
 20
-148.3259473318
 30
0.0
 11
1350.1889771706
 21
-148.3259473318
 31
0.0
  0
LINE
  5
2B6
330
1F
100
AcDbEntity
  8
0
  6
Continuous
 62
     7
370
    15
100
AcDbLine
 10
1350.1889771706
 20
-138.3259456927
 30
0.0
 11
1348.1890029198
 21
-138.3259456927
 31
0.0
  0
LINE
  5
2B7
330
1F
100
AcDbEntity
  8
0
  6
Continuous
 62
     7
370
    15
100
AcDbLine
 10
-561.810982328
 20
-138.3259456927
 30
0.0
 11
-563.8109826558
 21
-138.3259456927
 31
0.0
  0
LINE
  5
2B8
330
1F
100
AcDbEntity
  8
0
  6
Continuous
 62
     7
370
    15
100
AcDbLine
 10
-563.8109826558
 20
-148.3259473318
 30
0.0
 11
-561.810982328
 21
-148.3259473318
 31
0.0
  0
LINE
  5
2B9
330
1F
100
AcDbEntity
  8
0
  6
Continuous
 62
     7
370
    15
100
AcDbLine
 10
-618.3109813445
 20
-134.8509464735
 30
0.0
 11
-618.5109772795
 21
-134.8509464735
 31
0.0
  0
LINE
  5
2BA
330
1F
100
AcDbEntity
  8
0
  6
Continuous
 62
     7
370
    15
100
AcDbLine
 10
-618.5109772795
 20
-151.800946551
 30
0.0
 11
-618.3109813445
 21
-151.800946551
 31
0.0
  0
LINE
  5
2BB
330
1F
100
AcDbEntity
  8
0
  6
Continuous
 62
     7
370
    15
100
AcDbLine
 10
-618.5109772795
 20
-134.8509464735
 30
0.0
 11
-618.8109823578
 21
-135.1509441013
 31
0.0
  0
LINE
  5
2BC
330
1F
100
AcDbEntity
  8
0
  6
Continuous
 62
     7
370
    15
100
AcDbLine
 10
-618.8109823578
 20
-151.5009489233
 30
0.0
 11
-618.5109772795
 21
-151.800946551
 31
0.0
  0
LINE
  5
2BD
330
1F
100
AcDbEntity
  8
0
  6
Continuous
 62
     7
370
    15
100
AcDbLine
 10
1420.8890265709
 20
-151.800946551
 30
0.0
 11
1421.1890763527
 21
-151.5009489233
 31
0.0
  0
LINE
  5
2BE
330
1F
100
AcDbEntity
  8
0
  6
Continuous
 62
     7
370
    15
100
AcDbLine
 10
1421.1890763527
 20
-135.1509441013
 30
0.0
 11
1420.8890265709
 21
-134.8509464735
 31
0.0
  0
LINE
  5
2BF
330
1F
100
AcDbEntity
  8
0
  6
Continuous
 62
     7
370
    15
100
AcDbLine
 10
1420.6889933831
 20
-151.800946551
 30
0.0
 11
1420.8890265709
 21
-151.800946551
 31
0.0
  0
LINE
  5
2C0
330
1F
100
AcDbEntity
  8
0
  6
Continuous
 62
     7
370
    15
100
AcDbLine
 10
1420.8890265709
 20
-134.8509464735
 30
0.0
 11
1420.6889933831
 21
-134.8509464735
 31
0.0
  0
LINE
  5
2C1
330
1F
100
AcDbEntity
  8
0
  6
Continuous
 62
     7
370
    15
100
AcDbLine
 10
-578.3109822386
 20
-154.025943237
 30
0.0
 11
-578.5109818989
 21
-153.825947302
 31
0.0
  0
LINE
  5
2C2
330
1F
100
AcDbEntity
  8
0
  6
Continuous
 62
     7
370
    15
100
AcDbLine
 10
-618.110977959
 20
-153.825947302
 30
0.0
 11
-618.3109813445
 21
-154.025943237
 31
0.0
  0
LINE
  5
2C3
330
1F
100
AcDbEntity
  8
0
  6
Continuous
 62
     7
370
    15
100
AcDbLine
 10
-618.3109813445
 20
-154.025943237
 30
0.0
 11
-618.3109813445
 21
-156.8259459311
 31
0.0
  0
LINE
  5
2C4
330
1F
100
AcDbEntity
  8
0
  6
Continuous
 62
     7
370
    15
100
AcDbLine
 10
-578.3109822386
 20
-156.8259459311
 30
0.0
 11
-578.3109822386
 21
-154.025943237
 31
0.0
  0
LINE
  5
2C5
330
1F
100
AcDbEntity
  8
0
  6
Continuous
 62
     7
370
    15
100
AcDbLine
 10
-618.3109813445
 20
-156.8259459311
 30
0.0
 11
-616.3109772914
 21
-158.8259425336
 31
0.0
  0
LINE
  5
2C6
330
1F
100
AcDbEntity
  8
0
  6
Continuous
 62
     7
370
    15
100
AcDbLine
 10
-580.3109825664
 20
-158.8259425336
 30
0.0
 11
-578.3109822386
 21
-156.8259459311
 31
0.0
  0
LINE
  5
2C7
330
1F
100
AcDbEntity
  8
0
  6
Continuous
 62
     7
370
    15
100
AcDbLine
 10
1420.6889933831
 20
-154.025943237
 30
0.0
 11
1420.4889601952
 21
-153.825947302
 31
0.0
  0
LINE
  5
2C8
330
1F
100
AcDbEntity
  8
0
  6
Continuous
 62
     7
370
    15
100
AcDbLine
 10
1380.8890647179
 20
-153.825947302
 30
0.0
 11
1380.6890315301
 21
-154.025943237
 31
0.0
  0
LINE
  5
2C9
330
1F
100
AcDbEntity
  8
0
  6
Continuous
 62
     7
370
    15
100
AcDbLine
 10
1380.6890315301
 20
-154.025943237
 30
0.0
 11
1380.6890315301
 21
-156.8259459311
 31
0.0
  0
LINE
  5
2CA
330
1F
100
AcDbEntity
  8
0
  6
Continuous
 62
     7
370
    15
100
AcDbLine
 10
1420.6889933831
 20
-156.8259459311
 30
0.0
 11
1420.6889933831
 21
-154.025943237
 31
0.0
  0
LINE
  5
2CB
330
1F
100
AcDbEntity
  8
0
  6
Continuous
 62
     7
370
    15
100
AcDbLine
 10
1380.6890315301
 20
-156.8259459311
 30
0.0
 11
1382.6890057808
 21
-158.8259425336
 31
0.0
  0
LINE
  5
2CC
330
1F
100
AcDbEntity
  8
0
  6
Continuous
 62
     7
370
    15
100
AcDbLine
 10
1418.6890191323
 20
-158.8259425336
 30
0.0
 11
1420.6889933831
 21
-156.8259459311
 31
0.0
  0
LINE
  5
2CD
330
1F
100
AcDbEntity
  8
0
  6
Continuous
 62
     7
370
    15
100
AcDbLine
 10
1420.6889933831
 20
-106.6259455258
 30
0.0
 11
1420.3890628106
 21
-106.3259460354
 31
0.0
  0
LINE
  5
2CE
330
1F
100
AcDbEntity
  8
0
  6
Continuous
 62
     7
370
    15
100
AcDbLine
 10
1380.9889621026
 20
-106.3259460354
 30
0.0
 11
1380.6890315301
 21
-106.6259455258
 31
0.0
  0
LINE
  5
2CF
330
1F
100
AcDbEntity
  8
0
  6
Continuous
 62
     7
370
    15
100
AcDbLine
 10
1380.6890315301
 20
-133.8259440238
 30
0.0
 11
1380.6890315301
 21
-153.5259422237
 31
0.0
  0
LINE
  5
2D0
330
1F
100
AcDbEntity
  8
0
  6
Continuous
 62
     7
370
    15
100
AcDbLine
 10
1380.6890315301
 20
-106.6259455258
 30
0.0
 11
1380.6890315301
 21
-108.8259455139
 31
0.0
  0
LINE
  5
2D1
330
1F
100
AcDbEntity
  8
0
  6
Continuous
 62
     7
370
    15
100
AcDbLine
 10
1420.6889933831
 20
-108.8259455139
 30
0.0
 11
1420.6889933831
 21
-106.6259455258
 31
0.0
  0
LINE
  5
2D2
330
1F
100
AcDbEntity
  8
0
  6
Continuous
 62
     7
370
    15
100
AcDbLine
 10
1420.6889933831
 20
-153.5259422237
 30
0.0
 11
1420.6889933831
 21
-133.8259440238
 31
0.0
  0
LINE
  5
2D3
330
1F
100
AcDbEntity
  8
0
  6
Continuous
 62
     7
370
    15
100
AcDbLine
 10
1380.6890315301
 20
-153.5259422237
 30
0.0
 11
1380.9889621026
 21
-153.825947302
 31
0.0
  0
LINE
  5
2D4
330
1F
100
AcDbEntity
  8
0
  6
Continuous
 62
     7
370
    15
100
AcDbLine
 10
1420.3890628106
 20
-153.825947302
 30
0.0
 11
1420.6889933831
 21
-153.5259422237
 31
0.0
  0
LINE
  5
2D5
330
1F
100
AcDbEntity
  8
0
  6
Continuous
 62
     7
370
    15
100
AcDbLine
 10
-578.3109822386
 20
-106.6259455258
 30
0.0
 11
-578.6109798664
 21
-106.3259460354
 31
0.0
  0
LINE
  5
2D6
330
1F
100
AcDbEntity
  8
0
  6
Continuous
 62
     7
370
    15
100
AcDbLine
 10
-618.0109837168
 20
-106.3259460354
 30
0.0
 11
-618.3109813445
 21
-106.6259455258
 31
0.0
  0
LINE
  5
2D7
330
1F
100
AcDbEntity
  8
0
  6
Continuous
 62
     7
370
    15
100
AcDbLine
 10
-618.3109813445
 20
-133.8259440238
 30
0.0
 11
-618.3109813445
 21
-153.5259422237
 31
0.0
  0
LINE
  5
2D8
330
1F
100
AcDbEntity
  8
0
  6
Continuous
 62
     7
370
    15
100
AcDbLine
 10
-618.3109813445
 20
-106.6259455258
 30
0.0
 11
-618.3109813445
 21
-108.8259455139
 31
0.0
  0
LINE
  5
2D9
330
1F
100
AcDbEntity
  8
0
  6
Continuous
 62
     7
370
    15
100
AcDbLine
 10
-578.3109822386
 20
-108.8259455139
 30
0.0
 11
-578.3109822386
 21
-106.6259455258
 31
0.0
  0
LINE
  5
2DA
330
1F
100
AcDbEntity
  8
0
  6
Continuous
 62
     7
370
    15
100
AcDbLine
 10
-578.3109822386
 20
-153.5259422237
 30
0.0
 11
-578.3109822386
 21
-133.8259440238
 31
0.0
  0
LINE
  5
2DB
330
1F
100
AcDbEntity
  8
0
  6
Continuous
 62
     7
370
    15
100
AcDbLine
 10
-618.3109813445
 20
-153.5259422237
 30
0.0
 11
-618.0109837168
 21
-153.825947302
 31
0.0
  0
LINE
  5
2DC
330
1F
100
AcDbEntity
  8
0
  6
Continuous
 62
     7
370
    15
100
AcDbLine
 10
-578.6109798664
 20
-153.825947302
 30
0.0
 11
-578.3109822386
 21
-153.5259422237
 31
0.0
  0
LINE
  5
2DD
330
1F
100
AcDbEntity
  8
0
  6
Continuous
 62
     7
370
    15
100
AcDbLine
 10
-501.3341465109
 20
-109.8259456778
 30
0.0
 11
-501.3341465109
 21
-110.8259458417
 31
0.0
  0
LINE
  5
2DE
330
1F
100
AcDbEntity
  8
0
  6
Continuous
 62
     7
370
    15
100
AcDbLine
 10
-471.3341453188
 20
-110.8259458417
 30
0.0
 11
-471.3341453188
 21
-109.8259456778
 31
0.0
  0
LINE
  5
2DF
330
1F
100
AcDbEntity
  8
0
  6
Continuous
 62
     7
370
    15
100
AcDbLine
 10
-471.3341453188
 20
-109.8259456778
 30
0.0
 11
-473.3341456467
 21
-107.82594535
 31
0.0
  0
LINE
  5
2E0
330
1F
100
AcDbEntity
  8
0
  6
Continuous
 62
     7
370
    15
100
AcDbLine
 10
-499.3341461831
 20
-107.82594535
 30
0.0
 11
-501.3341465109
 21
-109.8259456778
 31
0.0
  0
LINE
  5
2E1
330
1F
100
AcDbEntity
  8
0
  6
Continuous
 62
     7
370
    15
100
AcDbLine
 10
-496.0841470474
 20
-110.8259458417
 30
0.0
 11
-496.0841470474
 21
-111.1959453994
 31
0.0
  0
LINE
  5
2E2
330
1F
100
AcDbEntity
  8
0
  6
Continuous
 62
     7
370
    15
100
AcDbLine
 10
-476.5841447824
 20
-111.1959453994
 30
0.0
 11
-476.5841447824
 21
-110.8259458417
 31
0.0
  0
LINE
  5
2E3
330
1F
100
AcDbEntity
  8
0
  6
Continuous
 62
     7
370
    15
100
AcDbLine
 10
-495.9141471499
 20
-111.6959464127
 30
0.0
 11
-495.7841456943
 21
-111.8259460056
 31
0.0
  0
LINE
  5
2E4
330
1F
100
AcDbEntity
  8
0
  6
Continuous
 62
     7
370
    15
100
AcDbLine
 10
-476.8841461354
 20
-111.8259460056
 30
0.0
 11
-476.7541484052
 21
-111.6959464127
 31
0.0
  0
LINE
  5
2E5
330
1F
100
AcDbEntity
  8
0
  6
Continuous
 62
     7
370
    15
100
AcDbLine
 10
228.6658353097
 20
-109.8259456778
 30
0.0
 11
226.6658610589
 21
-107.82594535
 31
0.0
  0
LINE
  5
2E6
330
1F
100
AcDbEntity
  8
0
  6
Continuous
 62
     7
370
    15
100
AcDbLine
 10
200.6658381707
 20
-107.82594535
 30
0.0
 11
198.6658639199
 21
-109.8259456778
 31
0.0
  0
LINE
  5
2E7
330
1F
100
AcDbEntity
  8
0
  6
Continuous
 62
     7
370
    15
100
AcDbLine
 10
198.6658639199
 20
-109.8259456778
 30
0.0
 11
198.6658639199
 21
-110.8259458417
 31
0.0
  0
LINE
  5
2E8
330
1F
100
AcDbEntity
  8
0
  6
Continuous
 62
     7
370
    15
100
AcDbLine
 10
228.6658353097
 20
-110.8259458417
 30
0.0
 11
228.6658353097
 21
-109.8259456778
 31
0.0
  0
LINE
  5
2E9
330
1F
100
AcDbEntity
  8
0
  6
Continuous
 62
     7
370
    15
100
AcDbLine
 10
204.0858334786
 20
-111.6959464127
 30
0.0
 11
204.2158312089
 21
-111.8259460056
 31
0.0
  0
LINE
  5
2EA
330
1F
100
AcDbEntity
  8
0
  6
Continuous
 62
     7
370
    15
100
AcDbLine
 10
223.1158680207
 20
-111.8259460056
 30
0.0
 11
223.2458657509
 21
-111.6959464127
 31
0.0
  0
LINE
  5
2EB
330
1F
100
AcDbEntity
  8
0
  6
Continuous
 62
     7
370
    15
100
AcDbLine
 10
203.9158410317
 20
-110.8259458417
 30
0.0
 11
203.9158410317
 21
-111.1959453994
 31
0.0
  0
LINE
  5
2EC
330
1F
100
AcDbEntity
  8
0
  6
Continuous
 62
     7
370
    15
100
AcDbLine
 10
223.4158581978
 20
-111.1959453994
 30
0.0
 11
223.4158581978
 21
-110.8259458417
 31
0.0
  0
LINE
  5
2ED
330
1F
100
AcDbEntity
  8
0
  6
Continuous
 62
     7
370
    15
100
AcDbLine
 10
228.6658353097
 20
-137.5259470517
 30
0.0
 11
228.6658353097
 21
-131.1259467477
 31
0.0
  0
LINE
  5
2EE
330
1F
100
AcDbEntity
  8
0
  6
Continuous
 62
     7
370
    15
100
AcDbLine
 10
198.6658639199
 20
-131.1259467477
 30
0.0
 11
198.6658639199
 21
-137.5259470517
 31
0.0
  0
LINE
  5
2EF
330
1F
100
AcDbEntity
  8
0
  6
Continuous
 62
     7
370
    15
100
AcDbLine
 10
228.6658353097
 20
-131.1259467477
 30
0.0
 11
228.3658451325
 21
-130.8259453947
 31
0.0
  0
LINE
  5
2F0
330
1F
100
AcDbEntity
  8
0
  6
Continuous
 62
     7
370
    15
100
AcDbLine
 10
198.965854097
 20
-130.8259453947
 30
0.0
 11
198.6658639199
 21
-131.1259467477
 31
0.0
  0
LINE
  5
2F1
330
1F
100
AcDbEntity
  8
0
  6
Continuous
 62
     7
370
    15
100
AcDbLine
 10
198.6658639199
 20
-137.5259470517
 30
0.0
 11
198.965854097
 21
-137.8259446794
 31
0.0
  0
LINE
  5
2F2
330
1F
100
AcDbEntity
  8
0
  6
Continuous
 62
     7
370
    15
100
AcDbLine
 10
228.3658451325
 20
-137.8259446794
 30
0.0
 11
228.6658353097
 21
-137.5259470517
 31
0.0
  0
LINE
  5
2F3
330
1F
100
AcDbEntity
  8
0
  6
Continuous
 62
     7
370
    15
100
AcDbLine
 10
223.2458657509
 20
-129.9559448237
 30
0.0
 11
223.1158680207
 21
-129.8259470934
 31
0.0
  0
LINE
  5
2F4
330
1F
100
AcDbEntity
  8
0
  6
Continuous
 62
     7
370
    15
100
AcDbLine
 10
204.2158312089
 20
-129.8259470934
 30
0.0
 11
204.0858334786
 21
-129.9559448237
 31
0.0
  0
LINE
  5
2F5
330
1F
100
AcDbEntity
  8
0
  6
Continuous
 62
     7
370
    15
100
AcDbLine
 10
223.4158581978
 20
-130.8259453947
 30
0.0
 11
223.4158581978
 21
-130.4559458369
 31
0.0
  0
LINE
  5
2F6
330
1F
100
AcDbEntity
  8
0
  6
Continuous
 62
     7
370
    15
100
AcDbLine
 10
203.9158410317
 20
-130.4559458369
 30
0.0
 11
203.9158410317
 21
-130.8259453947
 31
0.0
  0
LINE
  5
2F7
330
1F
100
AcDbEntity
  8
0
  6
Continuous
 62
     7
370
    15
100
AcDbLine
 10
-471.3341453188
 20
-137.5259470517
 30
0.0
 11
-471.3341453188
 21
-131.1259467477
 31
0.0
  0
LINE
  5
2F8
330
1F
100
AcDbEntity
  8
0
  6
Continuous
 62
     7
370
    15
100
AcDbLine
 10
-501.3341465109
 20
-131.1259467477
 30
0.0
 11
-501.3341465109
 21
-137.5259470517
 31
0.0
  0
LINE
  5
2F9
330
1F
100
AcDbEntity
  8
0
  6
Continuous
 62
     7
370
    15
100
AcDbLine
 10
-471.3341453188
 20
-131.1259467477
 30
0.0
 11
-471.6341466719
 21
-130.8259453947
 31
0.0
  0
LINE
  5
2FA
330
1F
100
AcDbEntity
  8
0
  6
Continuous
 62
     7
370
    15
100
AcDbLine
 10
-501.0341470205
 20
-130.8259453947
 30
0.0
 11
-501.3341465109
 21
-131.1259467477
 31
0.0
  0
LINE
  5
2FB
330
1F
100
AcDbEntity
  8
0
  6
Continuous
 62
     7
370
    15
100
AcDbLine
 10
-501.3341465109
 20
-137.5259470517
 30
0.0
 11
-501.0341470205
 21
-137.8259446794
 31
0.0
  0
LINE
  5
2FC
330
1F
100
AcDbEntity
  8
0
  6
Continuous
 62
     7
370
    15
100
AcDbLine
 10
-471.6341466719
 20
-137.8259446794
 30
0.0
 11
-471.3341453188
 21
-137.5259470517
 31
0.0
  0
LINE
  5
2FD
330
1F
100
AcDbEntity
  8
0
  6
Continuous
 62
     7
370
    15
100
AcDbLine
 10
-476.7541484052
 20
-129.9559448237
 30
0.0
 11
-476.8841461354
 21
-129.8259470934
 31
0.0
  0
LINE
  5
2FE
330
1F
100
AcDbEntity
  8
0
  6
Continuous
 62
     7
370
    15
100
AcDbLine
 10
-495.7841456943
 20
-129.8259470934
 30
0.0
 11
-495.9141471499
 21
-129.9559448237
 31
0.0
  0
LINE
  5
2FF
330
1F
100
AcDbEntity
  8
0
  6
Continuous
 62
     7
370
    15
100
AcDbLine
 10
-476.5841447824
 20
-130.8259453947
 30
0.0
 11
-476.5841447824
 21
-130.4559458369
 31
0.0
  0
LINE
  5
300
330
1F
100
AcDbEntity
  8
0
  6
Continuous
 62
     7
370
    15
100
AcDbLine
 10
-496.0841470474
 20
-130.4559458369
 30
0.0
 11
-496.0841470474
 21
-130.8259453947
 31
0.0
  0
LINE
  5
301
330
1F
100
AcDbEntity
  8
0
  6
Continuous
 62
     7
370
    15
100
AcDbLine
 10
242.6158255822
 20
-130.4559458369
 30
0.0
 11
242.6158255822
 21
-129.9559448237
 31
0.0
  0
LINE
  5
302
330
1F
100
AcDbEntity
  8
0
  6
Continuous
 62
     7
370
    15
100
AcDbLine
 10
184.7158736474
 20
-129.9559448237
 30
0.0
 11
184.7158736474
 21
-130.4559458369
 31
0.0
  0
LINE
  5
303
330
1F
100
AcDbEntity
  8
0
  6
Continuous
 62
     7
370
    15
100
AcDbLine
 10
184.7158736474
 20
-111.1959453994
 30
0.0
 11
184.7158736474
 21
-111.6959464127
 31
0.0
  0
LINE
  5
304
330
1F
100
AcDbEntity
  8
0
  6
Continuous
 62
     7
370
    15
100
AcDbLine
 10
242.6158255822
 20
-111.6959464127
 30
0.0
 11
242.6158255822
 21
-111.1959453994
 31
0.0
  0
LINE
  5
305
330
1F
100
AcDbEntity
  8
0
  6
Continuous
 62
     7
370
    15
100
AcDbLine
 10
-457.3841475957
 20
-130.4559458369
 30
0.0
 11
-457.3841475957
 21
-129.9559448237
 31
0.0
  0
LINE
  5
306
330
1F
100
AcDbEntity
  8
0
  6
Continuous
 62
     7
370
    15
100
AcDbLine
 10
-515.2841465623
 20
-129.9559448237
 30
0.0
 11
-515.2841465623
 21
-130.4559458369
 31
0.0
  0
LINE
  5
307
330
1F
100
AcDbEntity
  8
0
  6
Continuous
 62
     7
370
    15
100
AcDbLine
 10
-515.2841465623
 20
-111.1959453994
 30
0.0
 11
-515.2841465623
 21
-111.6959464127
 31
0.0
  0
LINE
  5
308
330
1F
100
AcDbEntity
  8
0
  6
Continuous
 62
     7
370
    15
100
AcDbLine
 10
-457.3841475957
 20
-111.6959464127
 30
0.0
 11
-457.3841475957
 21
-111.1959453994
 31
0.0
  0
LINE
  5
309
330
1F
100
AcDbEntity
  8
0
  6
Continuous
 62
     7
370
    15
100
AcDbLine
 10
-471.3341453188
 20
-149.8259466464
 30
0.0
 11
-471.3341453188
 21
-147.8259463185
 31
0.0
  0
LINE
  5
30A
330
1F
100
AcDbEntity
  8
0
  6
Continuous
 62
     7
370
    15
100
AcDbLine
 10
-501.3341465109
 20
-147.8259463185
 30
0.0
 11
-501.3341465109
 21
-149.8259466464
 31
0.0
  0
LINE
  5
30B
330
1F
100
AcDbEntity
  8
0
  6
Continuous
 62
     7
370
    15
100
AcDbLine
 10
-501.3341465109
 20
-149.8259466464
 30
0.0
 11
-499.3341461831
 21
-151.8259432489
 31
0.0
  0
LINE
  5
30C
330
1F
100
AcDbEntity
  8
0
  6
Continuous
 62
     7
370
    15
100
AcDbLine
 10
-473.3341456467
 20
-151.8259432489
 30
0.0
 11
-471.3341453188
 21
-149.8259466464
 31
0.0
  0
LINE
  5
30D
330
1F
100
AcDbEntity
  8
0
  6
Continuous
 62
     7
370
    15
100
AcDbLine
 10
228.6658353097
 20
-149.8259466464
 30
0.0
 11
228.6658353097
 21
-147.8259463185
 31
0.0
  0
LINE
  5
30E
330
1F
100
AcDbEntity
  8
0
  6
Continuous
 62
     7
370
    15
100
AcDbLine
 10
198.6658639199
 20
-147.8259463185
 30
0.0
 11
198.6658639199
 21
-149.8259466464
 31
0.0
  0
LINE
  5
30F
330
1F
100
AcDbEntity
  8
0
  6
Continuous
 62
     7
370
    15
100
AcDbLine
 10
198.6658639199
 20
-149.8259466464
 30
0.0
 11
200.6658381707
 21
-151.8259432489
 31
0.0
  0
LINE
  5
310
330
1F
100
AcDbEntity
  8
0
  6
Continuous
 62
     7
370
    15
100
AcDbLine
 10
226.6658610589
 20
-151.8259432489
 30
0.0
 11
228.6658353097
 21
-149.8259466464
 31
0.0
  0
LINE
  5
311
330
1F
100
AcDbEntity
  8
0
  6
Continuous
 62
     7
370
    15
100
AcDbLine
 10
228.6658353097
 20
-138.0259443397
 30
0.0
 11
228.4658617264
 21
-137.8259446794
 31
0.0
  0
LINE
  5
312
330
1F
100
AcDbEntity
  8
0
  6
Continuous
 62
     7
370
    15
100
AcDbLine
 10
198.8658375031
 20
-137.8259446794
 30
0.0
 11
198.6658639199
 21
-138.0259443397
 31
0.0
  0
LINE
  5
313
330
1F
100
AcDbEntity
  8
0
  6
Continuous
 62
     7
370
    15
100
AcDbLine
 10
198.6658639199
 20
-138.0259443397
 30
0.0
 11
198.6658639199
 21
-141.6259456748
 31
0.0
  0
LINE
  5
314
330
1F
100
AcDbEntity
  8
0
  6
Continuous
 62
     7
370
    15
100
AcDbLine
 10
228.6658353097
 20
-141.6259456748
 30
0.0
 11
228.6658353097
 21
-138.0259443397
 31
0.0
  0
LINE
  5
315
330
1F
100
AcDbEntity
  8
0
  6
Continuous
 62
     7
370
    15
100
AcDbLine
 10
198.6658639199
 20
-141.6259456748
 30
0.0
 11
198.8658375031
 21
-141.8259453351
 31
0.0
  0
LINE
  5
316
330
1F
100
AcDbEntity
  8
0
  6
Continuous
 62
     7
370
    15
100
AcDbLine
 10
228.4658617264
 20
-141.8259453351
 30
0.0
 11
228.6658353097
 21
-141.6259456748
 31
0.0
  0
LINE
  5
317
330
1F
100
AcDbEntity
  8
0
  6
Continuous
 62
     7
370
    15
100
AcDbLine
 10
-471.3341453188
 20
-138.0259443397
 30
0.0
 11
-471.5341449791
 21
-137.8259446794
 31
0.0
  0
LINE
  5
318
330
1F
100
AcDbEntity
  8
0
  6
Continuous
 62
     7
370
    15
100
AcDbLine
 10
-501.1341468507
 20
-137.8259446794
 30
0.0
 11
-501.3341465109
 21
-138.0259443397
 31
0.0
  0
LINE
  5
319
330
1F
100
AcDbEntity
  8
0
  6
Continuous
 62
     7
370
    15
100
AcDbLine
 10
-501.3341465109
 20
-138.0259443397
 30
0.0
 11
-501.3341465109
 21
-141.6259456748
 31
0.0
  0
LINE
  5
31A
330
1F
100
AcDbEntity
  8
0
  6
Continuous
 62
     7
370
    15
100
AcDbLine
 10
-471.3341453188
 20
-141.6259456748
 30
0.0
 11
-471.3341453188
 21
-138.0259443397
 31
0.0
  0
LINE
  5
31B
330
1F
100
AcDbEntity
  8
0
  6
Continuous
 62
     7
370
    15
100
AcDbLine
 10
-501.3341465109
 20
-141.6259456748
 30
0.0
 11
-501.1341468507
 21
-141.8259453351
 31
0.0
  0
LINE
  5
31C
330
1F
100
AcDbEntity
  8
0
  6
Continuous
 62
     7
370
    15
100
AcDbLine
 10
-471.5341449791
 20
-141.8259453351
 30
0.0
 11
-471.3341453188
 21
-141.6259456748
 31
0.0
  0
LINE
  5
31D
330
1F
100
AcDbEntity
  8
0
  6
Continuous
 62
     7
370
    15
100
AcDbLine
 10
242.6658338791
 20
-112.8463737989
 30
0.0
 11
242.6658338791
 21
-111.8259460056
 31
0.0
  0
LINE
  5
31E
330
1F
100
AcDbEntity
  8
0
  6
Continuous
 62
     7
370
    15
100
AcDbLine
 10
184.6658653504
 20
-111.8259460056
 30
0.0
 11
184.6658653504
 21
-112.8463737989
 31
0.0
  0
ARC
  5
31F
330
1F
100
AcDbEntity
  8
0
  6
Continuous
 62
     7
370
    15
100
AcDbCircle
 10
252.2658533869
 20
-120.8519970563
 30
0.0
 40
12.49999999999995
100
AcDbArc
 50
140.1746287392
 51
219.8253712608
  0
ARC
  5
320
330
1F
100
AcDbEntity
  8
0
  6
Continuous
 62
     7
370
    15
100
AcDbCircle
 10
175.0658533869
 20
-120.8519970563
 30
0.0
 40
12.49999999999996
100
AcDbArc
 50
320.1746287392
 51
39.8253712608
  0
LINE
  5
321
330
1F
100
AcDbEntity
  8
0
  6
Continuous
 62
     7
370
    15
100
AcDbLine
 10
242.6658338791
 20
-129.8259470934
 30
0.0
 11
242.6658338791
 21
-128.8576212103
 31
0.0
  0
LINE
  5
322
330
1F
100
AcDbEntity
  8
0
  6
Continuous
 62
     7
370
    15
100
AcDbLine
 10
184.6658653504
 20
-128.8576212103
 30
0.0
 11
184.6658653504
 21
-129.8259470934
 31
0.0
  0
LINE
  5
323
330
1F
100
AcDbEntity
  8
0
  6
Continuous
 62
     7
370
    15
100
AcDbLine
 10
-457.3341467493
 20
-112.8463737989
 30
0.0
 11
-457.3341467493
 21
-111.8259460056
 31
0.0
  0
LINE
  5
324
330
1F
100
AcDbEntity
  8
0
  6
Continuous
 62
     7
370
    15
100
AcDbLine
 10
-515.3341467102
 20
-111.8259460056
 30
0.0
 11
-515.3341467102
 21
-112.8463737989
 31
0.0
  0
ARC
  5
325
330
1F
100
AcDbEntity
  8
0
  6
Continuous
 62
     7
370
    15
100
AcDbCircle
 10
-447.7341466131
 20
-120.8519970563
 30
0.0
 40
12.49999999999994
100
AcDbArc
 50
140.1746287392
 51
219.8253712608
  0
ARC
  5
326
330
1F
100
AcDbEntity
  8
0
  6
Continuous
 62
     7
370
    15
100
AcDbCircle
 10
-524.9341466131
 20
-120.8519970563
 30
0.0
 40
12.49999999999994
100
AcDbArc
 50
320.1746287392
 51
39.8253712608
  0
LINE
  5
327
330
1F
100
AcDbEntity
  8
0
  6
Continuous
 62
     7
370
    15
100
AcDbLine
 10
-457.3341467493
 20
-129.8259470934
 30
0.0
 11
-457.3341467493
 21
-128.8576212103
 31
0.0
  0
LINE
  5
328
330
1F
100
AcDbEntity
  8
0
  6
Continuous
 62
     7
370
    15
100
AcDbLine
 10
-515.3341467102
 20
-128.8576212103
 30
0.0
 11
-515.3341467102
 21
-129.8259470934
 31
0.0
  0
LINE
  5
329
330
1F
100
AcDbEntity
  8
0
  6
Continuous
 62
     7
370
    15
100
AcDbLine
 10
228.7158436066
 20
-149.8259466464
 30
0.0
 11
228.7158436066
 21
-147.8259463185
 31
0.0
  0
LINE
  5
32A
330
1F
100
AcDbEntity
  8
0
  6
Continuous
 62
     7
370
    15
100
AcDbLine
 10
226.7158693558
 20
-151.8259432489
 30
0.0
 11
228.7158436066
 21
-149.8259466464
 31
0.0
  0
LINE
  5
32B
330
1F
100
AcDbEntity
  8
0
  6
Continuous
 62
     7
370
    15
100
AcDbLine
 10
-471.2841481977
 20
-149.8259466464
 30
0.0
 11
-471.2841481977
 21
-147.8259463185
 31
0.0
  0
LINE
  5
32C
330
1F
100
AcDbEntity
  8
0
  6
Continuous
 62
     7
370
    15
100
AcDbLine
 10
-473.2841448003
 20
-151.8259432489
 30
0.0
 11
-471.2841481977
 21
-149.8259466464
 31
0.0
  0
LINE
  5
32D
330
1F
100
AcDbEntity
  8
0
  6
Continuous
 62
     7
370
    15
100
AcDbLine
 10
228.7158436066
 20
-99.8259459013
 30
0.0
 11
226.7158693558
 21
-97.8259455735
 31
0.0
  0
LINE
  5
32E
330
1F
100
AcDbEntity
  8
0
  6
Continuous
 62
     7
370
    15
100
AcDbLine
 10
200.7158464676
 20
-97.8259455735
 30
0.0
 11
198.7158722169
 21
-99.8259459013
 31
0.0
  0
LINE
  5
32F
330
1F
100
AcDbEntity
  8
0
  6
Continuous
 62
     7
370
    15
100
AcDbLine
 10
198.7158722169
 20
-99.8259459013
 30
0.0
 11
198.7158722169
 21
-101.8259452978
 31
0.0
  0
LINE
  5
330
330
1F
100
AcDbEntity
  8
0
  6
Continuous
 62
     7
370
    15
100
AcDbLine
 10
228.7158436066
 20
-101.8259452978
 30
0.0
 11
228.7158436066
 21
-99.8259459013
 31
0.0
  0
LINE
  5
331
330
1F
100
AcDbEntity
  8
0
  6
Continuous
 62
     7
370
    15
100
AcDbLine
 10
-471.2841481977
 20
-99.8259459013
 30
0.0
 11
-473.2841448003
 21
-97.8259455735
 31
0.0
  0
LINE
  5
332
330
1F
100
AcDbEntity
  8
0
  6
Continuous
 62
     7
370
    15
100
AcDbLine
 10
-499.2841471994
 20
-97.8259455735
 30
0.0
 11
-501.2841475272
 21
-99.8259459013
 31
0.0
  0
LINE
  5
333
330
1F
100
AcDbEntity
  8
0
  6
Continuous
 62
     7
370
    15
100
AcDbLine
 10
-501.2841475272
 20
-99.8259459013
 30
0.0
 11
-501.2841475272
 21
-101.8259452978
 31
0.0
  0
LINE
  5
334
330
1F
100
AcDbEntity
  8
0
  6
Continuous
 62
     7
370
    15
100
AcDbLine
 10
-471.2841481977
 20
-101.8259452978
 30
0.0
 11
-471.2841481977
 21
-99.8259459013
 31
0.0
  0
LINE
  5
335
330
1F
100
AcDbEntity
  8
0
  6
Continuous
 62
     7
370
    15
100
AcDbLine
 10
87.0720214135
 20
-133.5724231178
 30
0.0
 11
87.0720214135
 21
-133.8259440238
 31
0.0
  0
LINE
  5
336
330
1F
100
AcDbEntity
  8
0
  6
Continuous
 62
     7
370
    15
100
AcDbLine
 10
87.0720214135
 20
-133.8259440238
 30
0.0
 11
88.0720085389
 21
-134.8259460503
 31
0.0
  0
LINE
  5
337
330
1F
100
AcDbEntity
  8
0
  6
Continuous
 62
     7
370
    15
100
AcDbLine
 10
100.972003389
 20
-134.8259460503
 30
0.0
 11
101.9719905144
 21
-133.8259440238
 31
0.0
  0
LINE
  5
338
330
1F
100
AcDbEntity
  8
0
  6
Continuous
 62
     7
370
    15
100
AcDbLine
 10
715.3049773461
 20
-133.8259440238
 30
0.0
 11
715.3049773461
 21
-133.5719015772
 31
0.0
  0
LINE
  5
339
330
1F
100
AcDbEntity
  8
0
  6
Continuous
 62
     7
370
    15
100
AcDbLine
 10
700.4050082451
 20
-133.8259440238
 30
0.0
 11
701.4050549752
 21
-134.8259460503
 31
0.0
  0
LINE
  5
33A
330
1F
100
AcDbEntity
  8
0
  6
Continuous
 62
     7
370
    15
100
AcDbLine
 10
714.3050498253
 20
-134.8259460503
 30
0.0
 11
715.3049773461
 21
-133.8259440238
 31
0.0
  0
LINE
  5
33B
330
1F
100
AcDbEntity
  8
0
  6
Continuous
 62
     7
370
    15
100
AcDbLine
 10
1313.7379950768
 20
-133.8259440238
 30
0.0
 11
1314.7380418069
 21
-134.8259460503
 31
0.0
  0
LINE
  5
33C
330
1F
100
AcDbEntity
  8
0
  6
Continuous
 62
     7
370
    15
100
AcDbLine
 10
1327.638036657
 20
-134.8259460503
 30
0.0
 11
1328.6379641778
 21
-133.8259440238
 31
0.0
  0
LINE
  5
33D
330
1F
100
AcDbEntity
  8
0
  6
Continuous
 62
     7
370
    15
100
AcDbLine
 10
-526.260980785
 20
-133.8259440238
 30
0.0
 11
-525.2609810868
 21
-134.8259460503
 31
0.0
  0
LINE
  5
33E
330
1F
100
AcDbEntity
  8
0
  6
Continuous
 62
     7
370
    15
100
AcDbLine
 10
-512.3609806487
 20
-134.8259460503
 30
0.0
 11
-511.3609809504
 21
-133.8259440238
 31
0.0
  0
LINE
  5
33F
330
1F
100
AcDbEntity
  8
0
  6
Continuous
 62
     7
370
    15
100
AcDbLine
 10
700.3550595528
 20
-90.8259458231
 30
0.0
 11
700.3550595528
 21
-108.8259455139
 31
0.0
  0
LINE
  5
340
330
1F
100
AcDbEntity
  8
0
  6
Continuous
 62
     7
370
    15
100
AcDbLine
 10
715.3550452477
 20
-108.8259455139
 30
0.0
 11
715.3550452477
 21
-90.8259458231
 31
0.0
  0
LINE
  5
341
330
1F
100
AcDbEntity
  8
0
  6
Continuous
 62
     7
370
    15
100
AcDbLine
 10
87.0220131165
 20
-90.8259458231
 30
0.0
 11
87.0220131165
 21
-108.8259455139
 31
0.0
  0
LINE
  5
342
330
1F
100
AcDbEntity
  8
0
  6
Continuous
 62
     7
370
    15
100
AcDbLine
 10
102.0219988114
 20
-108.8259455139
 30
0.0
 11
102.0219988114
 21
-90.8259458231
 31
0.0
  0
LINE
  5
343
330
1F
100
AcDbEntity
  8
0
  6
Continuous
 62
     7
370
    15
100
AcDbLine
 10
-526.3109807001
 20
-90.8259458231
 30
0.0
 11
-526.3109807001
 21
-108.8259455139
 31
0.0
  0
LINE
  5
344
330
1F
100
AcDbEntity
  8
0
  6
Continuous
 62
     7
370
    15
100
AcDbLine
 10
-511.3109810353
 20
-108.8259455139
 30
0.0
 11
-511.3109810353
 21
-90.8259458231
 31
0.0
  0
LINE
  5
345
330
1F
100
AcDbEntity
  8
0
  6
Continuous
 62
     7
370
    15
100
AcDbLine
 10
1313.6880463845
 20
-90.8259458231
 30
0.0
 11
1313.6880463845
 21
-108.8259455139
 31
0.0
  0
LINE
  5
346
330
1F
100
AcDbEntity
  8
0
  6
Continuous
 62
     7
370
    15
100
AcDbLine
 10
1328.6880320794
 20
-108.8259455139
 30
0.0
 11
1328.6880320794
 21
-90.8259458231
 31
0.0
  0
LINE
  5
347
330
1F
100
AcDbEntity
  8
0
  6
Continuous
 62
     7
370
    15
100
AcDbLine
 10
1291.1880082375
 20
-86.8259456331
 30
0.0
 11
1291.1880082375
 21
-88.8259457281
 31
0.0
  0
LINE
  5
348
330
1F
100
AcDbEntity
  8
0
  6
Continuous
 62
     7
370
    15
100
AcDbLine
 10
1351.1880702263
 20
-88.8259457281
 30
0.0
 11
1351.1880702263
 21
-86.8259456331
 31
0.0
  0
LINE
  5
349
330
1F
100
AcDbEntity
  8
0
  6
Continuous
 62
     7
370
    15
100
AcDbLine
 10
1291.1880082375
 20
-88.8259457281
 30
0.0
 11
1306.1879939324
 21
-90.8259458231
 31
0.0
  0
LINE
  5
34A
330
1F
100
AcDbEntity
  8
0
  6
Continuous
 62
     7
370
    15
100
AcDbLine
 10
1336.1879653222
 20
-90.8259458231
 30
0.0
 11
1351.1880702263
 21
-88.8259457281
 31
0.0
  0
LINE
  5
34B
330
1F
100
AcDbEntity
  8
0
  6
Continuous
 62
     7
370
    15
100
AcDbLine
 10
-548.8109801972
 20
-86.8259456331
 30
0.0
 11
-548.8109801972
 21
-88.8259457281
 31
0.0
  0
LINE
  5
34C
330
1F
100
AcDbEntity
  8
0
  6
Continuous
 62
     7
370
    15
100
AcDbLine
 10
-488.8109815383
 20
-88.8259457281
 30
0.0
 11
-488.8109815383
 21
-86.8259456331
 31
0.0
  0
LINE
  5
34D
330
1F
100
AcDbEntity
  8
0
  6
Continuous
 62
     7
370
    15
100
AcDbLine
 10
-548.8109801972
 20
-88.8259457281
 30
0.0
 11
-533.8109805324
 21
-90.8259458231
 31
0.0
  0
LINE
  5
34E
330
1F
100
AcDbEntity
  8
0
  6
Continuous
 62
     7
370
    15
100
AcDbLine
 10
-503.810981203
 20
-90.8259458231
 30
0.0
 11
-488.8109815383
 21
-88.8259457281
 31
0.0
  0
LINE
  5
34F
330
1F
100
AcDbEntity
  8
0
  6
Continuous
 62
     7
370
    15
100
AcDbLine
 10
677.8550214058
 20
-86.8259456331
 30
0.0
 11
677.8550214058
 21
-88.8259457281
 31
0.0
  0
LINE
  5
350
330
1F
100
AcDbEntity
  8
0
  6
Continuous
 62
     7
370
    15
100
AcDbLine
 10
737.8549641854
 20
-88.8259457281
 30
0.0
 11
737.8549641854
 21
-86.8259456331
 31
0.0
  0
LINE
  5
351
330
1F
100
AcDbEntity
  8
0
  6
Continuous
 62
     7
370
    15
100
AcDbLine
 10
677.8550214058
 20
-88.8259457281
 30
0.0
 11
692.8550071007
 21
-90.8259458231
 31
0.0
  0
LINE
  5
352
330
1F
100
AcDbEntity
  8
0
  6
Continuous
 62
     7
370
    15
100
AcDbLine
 10
722.8549784905
 20
-90.8259458231
 30
0.0
 11
737.8549641854
 21
-88.8259457281
 31
0.0
  0
LINE
  5
353
330
1F
100
AcDbEntity
  8
0
  6
Continuous
 62
     7
370
    15
100
AcDbLine
 10
64.5220345742
 20
-86.8259456331
 30
0.0
 11
64.5220345742
 21
-88.8259457281
 31
0.0
  0
LINE
  5
354
330
1F
100
AcDbEntity
  8
0
  6
Continuous
 62
     7
370
    15
100
AcDbLine
 10
124.5220369584
 20
-88.8259457281
 30
0.0
 11
124.5220369584
 21
-86.8259456331
 31
0.0
  0
LINE
  5
355
330
1F
100
AcDbEntity
  8
0
  6
Continuous
 62
     7
370
    15
100
AcDbLine
 10
64.5220345742
 20
-88.8259457281
 30
0.0
 11
79.5220202691
 21
-90.8259458231
 31
0.0
  0
LINE
  5
356
330
1F
100
AcDbEntity
  8
0
  6
Continuous
 62
     7
370
    15
100
AcDbLine
 10
109.5219916588
 20
-90.8259458231
 30
0.0
 11
124.5220369584
 21
-88.8259457281
 31
0.0
  0
LINE
  5
357
330
1F
100
AcDbEntity
  8
0
  6
Continuous
 62
     7
370
    15
100
AcDbLine
 10
-647.8109740728
 20
-108.8259455139
 30
0.0
 11
-647.8109740728
 21
-133.8259440238
 31
0.0
  0
LINE
  5
358
330
1F
100
AcDbEntity
  8
0
  6
Continuous
 62
     7
370
    15
100
AcDbLine
 10
-648.8109760993
 20
-132.8259457225
 30
0.0
 11
-648.8109760993
 21
-109.8259456778
 31
0.0
  0
LINE
  5
359
330
1F
100
AcDbEntity
  8
0
  6
Continuous
 62
     7
370
    15
100
AcDbLine
 10
1451.1890477425
 20
-109.8259456778
 30
0.0
 11
1451.1890477425
 21
-132.8259457225
 31
0.0
  0
LINE
  5
35A
330
1F
100
AcDbEntity
  8
0
  6
Continuous
 62
     7
370
    15
100
AcDbLine
 10
1450.1890010125
 20
-133.8259440238
 30
0.0
 11
1450.1890010125
 21
-108.8259455139
 31
0.0
  0
LWPOLYLINE
  5
35B
330
1F
100
AcDbEntity
  8
0
  6
Continuous
 62
     7
370
    15
100
AcDbPolyline
 90
       13
 70
   128
 43
0.0
 10
700.6709641701
 20
-133.8068407351
 10
700.9083098656
 20
-133.6651716704
 10
701.7649478203
 20
-133.1799302572
 10
703.2680577523
 20
-132.4373644168
 10
705.5320805794
 20
-131.6364717061
 10
707.6116866356
 20
-131.3049618477
 10
709.7665137536
 20
-131.4123768682
 10
711.6490668542
 20
-131.8720218116
 10
713.4732074029
 20
-132.6029386694
 10
715.0096959359
 20
-133.3994504387
 10
715.7085007912
 20
-133.807570892
 10
715.7390183694
 20
-133.8259440238
 10
715.7390183694
 20
-133.8259440238
  0
LWPOLYLINE
  5
35C
330
1F
100
AcDbEntity
  8
0
  6
Continuous
 62
     7
370
    15
100
AcDbPolyline
 90
       13
 70
   128
 43
0.0
 10
86.6710013634
 20
-133.8068407351
 10
86.9082874543
 20
-133.6651716704
 10
87.7648658043
 20
-133.1799302572
 10
89.2680353409
 20
-132.4373644168
 10
91.5320581681
 20
-131.6364717061
 10
93.6117238289
 20
-131.3049618477
 10
95.7665509469
 20
-131.4123768682
 10
97.6491040475
 20
-131.8720218116
 10
99.4732445962
 20
-132.6029386694
 10
101.0097331292
 20
-133.3994504387
 10
101.7085379845
 20
-133.807570892
 10
101.738995958
 20
-133.8259440238
 10
101.738995958
 20
-133.8259440238
  0
LWPOLYLINE
  5
35D
330
1F
100
AcDbEntity
  8
0
  6
Continuous
 62
     7
370
    15
100
AcDbPolyline
 90
       13
 70
   128
 43
0.0
 10
1313.6709994561
 20
-133.8068407351
 10
1313.9083451516
 20
-133.6651716704
 10
1314.764863897
 20
-133.1799302572
 10
1316.2679738289
 20
-132.4373644168
 10
1318.5319966561
 20
-131.6364717061
 10
1320.6117219216
 20
-131.3049618477
 10
1322.7665490395
 20
-131.4123768682
 10
1324.6491021401
 20
-131.8720218116
 10
1326.4732426888
 20
-132.6029386694
 10
1328.0097312218
 20
-133.3994504387
 10
1328.7085360772
 20
-133.807570892
 10
1328.7390536553
 20
-133.8259440238
 10
1328.7390536553
 20
-133.8259440238
  0
LWPOLYLINE
  5
35E
330
1F
100
AcDbEntity
  8
0
  6
Continuous
 62
     7
370
    15
100
AcDbPolyline
 90
       13
 70
   128
 43
0.0
 10
-526.329022281
 20
-133.8068407351
 10
-526.0917115101
 20
-133.6651716704
 10
-525.2351089456
 20
-133.1799302572
 10
-523.7319668831
 20
-132.4373644168
 10
-521.4679454529
 20
-131.6364717061
 10
-519.3882905022
 20
-131.3049618477
 10
-517.2334509279
 20
-131.4123768682
 10
-515.3508958482
 20
-131.8720218116
 10
-513.5267487803
 20
-132.6029386694
 10
-511.9902737514
 20
-133.3994504387
 10
-511.2914404907
 20
-133.807570892
 10
-511.2609806546
 20
-133.8259440238
 10
-511.2609806546
 20
-133.8259440238
  0
LINE
  5
35F
330
1F
100
AcDbEntity
  8
0
  6
Continuous
 62
     7
370
    15
100
AcDbLine
 10
1375.3889865166
 20
-134.2259470696
 30
0.0
 11
1375.3889865166
 21
-152.425945955
 31
0.0
  0
LINE
  5
360
330
1F
100
AcDbEntity
  8
0
  6
Continuous
 62
     7
370
    15
100
AcDbLine
 10
1380.4889983422
 20
-152.425945955
 30
0.0
 11
1380.4889983422
 21
-134.2259470696
 31
0.0
  0
LINE
  5
361
330
1F
100
AcDbEntity
  8
0
  6
Continuous
 62
     7
370
    15
100
AcDbLine
 10
1375.1890725381
 20
-152.2259425694
 30
0.0
 11
1375.1890725381
 21
-134.4259467298
 31
0.0
  0
LINE
  5
362
330
1F
100
AcDbEntity
  8
0
  6
Continuous
 62
     7
370
    15
100
AcDbLine
 10
-573.0109819287
 20
-149.04268946
 30
0.0
 11
-573.0109819287
 21
-134.2259470696
 31
0.0
  0
LINE
  5
363
330
1F
100
AcDbEntity
  8
0
  6
Continuous
 62
     7
370
    15
100
AcDbLine
 10
-573.0109819287
 20
-152.425945955
 30
0.0
 11
-573.0109819287
 21
-149.04268946
 31
0.0
  0
LINE
  5
364
330
1F
100
AcDbEntity
  8
0
  6
Continuous
 62
     7
370
    15
100
AcDbLine
 10
-578.1109825784
 20
-149.04268946
 30
0.0
 11
-578.1109825784
 21
-152.425945955
 31
0.0
  0
LINE
  5
365
330
1F
100
AcDbEntity
  8
0
  6
Continuous
 62
     7
370
    15
100
AcDbLine
 10
-578.1109825784
 20
-134.2259470696
 30
0.0
 11
-578.1109825784
 21
-149.04268946
 31
0.0
  0
LINE
  5
366
330
1F
100
AcDbEntity
  8
0
  6
Continuous
 62
     7
370
    15
100
AcDbLine
 10
-572.8109822684
 20
-148.9170465941
 30
0.0
 11
-572.8109822684
 21
-152.2259425694
 31
0.0
  0
LINE
  5
367
330
1F
100
AcDbEntity
  8
0
  6
Continuous
 62
     7
370
    15
100
AcDbLine
 10
-572.8109822684
 20
-134.4259467298
 30
0.0
 11
-572.8109822684
 21
-148.9170465941
 31
0.0
  0
LINE
  5
368
330
1F
100
AcDbEntity
  8
0
  6
Continuous
 62
     7
370
    15
100
AcDbLine
 10
-563.8109826558
 20
-138.7324940735
 30
0.0
 11
-563.8109826558
 21
-148.975947159
 31
0.0
  0
LINE
  5
369
330
1F
100
AcDbEntity
  8
0
  6
Continuous
 62
     7
370
    15
100
AcDbLine
 10
-563.8109826558
 20
-137.6759458655
 30
0.0
 11
-563.8109826558
 21
-138.7324940735
 31
0.0
  0
LINE
  5
36A
330
1F
100
AcDbEntity
  8
0
  6
Continuous
 62
     7
370
    15
100
AcDbLine
 10
1350.1889771706
 20
-137.9224334234
 30
0.0
 11
1350.1889771706
 21
-137.6759458655
 31
0.0
  0
LINE
  5
36B
330
1F
100
AcDbEntity
  8
0
  6
Continuous
 62
     7
370
    15
100
AcDbLine
 10
1350.1889771706
 20
-148.975947159
 30
0.0
 11
1350.1889771706
 21
-137.9224334234
 31
0.0
  0
LINE
  5
36C
330
1F
100
AcDbEntity
  8
0
  6
Continuous
 62
     7
370
    15
100
AcDbLine
 10
1348.1890029198
 20
-138.3259456927
 30
0.0
 11
1348.1890029198
 21
-148.3259473318
 31
0.0
  0
LINE
  5
36D
330
1F
100
AcDbEntity
  8
0
  6
Continuous
 62
     7
370
    15
100
AcDbLine
 10
-561.810982328
 20
-148.3259473318
 30
0.0
 11
-561.810982328
 21
-138.3259456927
 31
0.0
  0
LINE
  5
36E
330
1F
100
AcDbEntity
  8
0
  6
Continuous
 62
     7
370
    15
100
AcDbLine
 10
-618.5109772795
 20
-134.8509464735
 30
0.0
 11
-618.5109772795
 21
-151.800946551
 31
0.0
  0
LINE
  5
36F
330
1F
100
AcDbEntity
  8
0
  6
Continuous
 62
     7
370
    15
100
AcDbLine
 10
-618.8109823578
 20
-151.5009489233
 30
0.0
 11
-618.8109823578
 21
-135.1509441013
 31
0.0
  0
LINE
  5
370
330
1F
100
AcDbEntity
  8
0
  6
Continuous
 62
     7
370
    15
100
AcDbLine
 10
1420.8890265709
 20
-138.1780069644
 30
0.0
 11
1420.8890265709
 21
-134.8509464735
 31
0.0
  0
LINE
  5
371
330
1F
100
AcDbEntity
  8
0
  6
Continuous
 62
     7
370
    15
100
AcDbLine
 10
1420.8890265709
 20
-151.800946551
 30
0.0
 11
1420.8890265709
 21
-138.1780069644
 31
0.0
  0
LINE
  5
372
330
1F
100
AcDbEntity
  8
0
  6
Continuous
 62
     7
370
    15
100
AcDbLine
 10
1421.1890763527
 20
-138.3602369899
 30
0.0
 11
1421.1890763527
 21
-151.5009489233
 31
0.0
  0
LINE
  5
373
330
1F
100
AcDbEntity
  8
0
  6
Continuous
 62
     7
370
    15
100
AcDbLine
 10
1421.1890763527
 20
-135.1509441013
 30
0.0
 11
1421.1890763527
 21
-138.3602369899
 31
0.0
  0
LINE
  5
374
330
1F
100
AcDbEntity
  8
0
  6
Continuous
 62
     7
370
    15
100
AcDbLine
 10
-578.3109822386
 20
-154.025943237
 30
0.0
 11
-618.3109813445
 21
-154.025943237
 31
0.0
  0
LINE
  5
375
330
1F
100
AcDbEntity
  8
0
  6
Continuous
 62
     7
370
    15
100
AcDbLine
 10
-578.5357811564
 20
-153.825947302
 30
0.0
 11
-578.5109818989
 21
-153.825947302
 31
0.0
  0
LINE
  5
376
330
1F
100
AcDbEntity
  8
0
  6
Continuous
 62
     7
370
    15
100
AcDbLine
 10
-618.110977959
 20
-153.825947302
 30
0.0
 11
-578.5357811564
 21
-153.825947302
 31
0.0
  0
LINE
  5
377
330
1F
100
AcDbEntity
  8
0
  6
Continuous
 62
     7
370
    15
100
AcDbLine
 10
-578.3360310906
 20
-156.8259459311
 30
0.0
 11
-578.3109822386
 21
-156.8259459311
 31
0.0
  0
LINE
  5
378
330
1F
100
AcDbEntity
  8
0
  6
Continuous
 62
     7
370
    15
100
AcDbLine
 10
-618.3109813445
 20
-156.8259459311
 30
0.0
 11
-578.3360310906
 21
-156.8259459311
 31
0.0
  0
LINE
  5
379
330
1F
100
AcDbEntity
  8
0
  6
Continuous
 62
     7
370
    15
100
AcDbLine
 10
-580.3109825664
 20
-158.8259425336
 30
0.0
 11
-616.3109772914
 21
-158.8259425336
 31
0.0
  0
LINE
  5
37A
330
1F
100
AcDbEntity
  8
0
  6
Continuous
 62
     7
370
    15
100
AcDbLine
 10
1418.7451667077
 20
-154.025943237
 30
0.0
 11
1380.6890315301
 21
-154.025943237
 31
0.0
  0
LINE
  5
37B
330
1F
100
AcDbEntity
  8
0
  6
Continuous
 62
     7
370
    15
100
AcDbLine
 10
1420.6889933831
 20
-154.025943237
 30
0.0
 11
1418.7451667077
 21
-154.025943237
 31
0.0
  0
LINE
  5
37C
330
1F
100
AcDbEntity
  8
0
  6
Continuous
 62
     7
370
    15
100
AcDbLine
 10
1418.564564634
 20
-153.825947302
 30
0.0
 11
1420.4889601952
 21
-153.825947302
 31
0.0
  0
LINE
  5
37D
330
1F
100
AcDbEntity
  8
0
  6
Continuous
 62
     7
370
    15
100
AcDbLine
 10
1380.8890647179
 20
-153.825947302
 30
0.0
 11
1418.564564634
 21
-153.825947302
 31
0.0
  0
LINE
  5
37E
330
1F
100
AcDbEntity
  8
0
  6
Continuous
 62
     7
370
    15
100
AcDbLine
 10
1418.7451667077
 20
-156.8259459311
 30
0.0
 11
1420.6889933831
 21
-156.8259459311
 31
0.0
  0
LINE
  5
37F
330
1F
100
AcDbEntity
  8
0
  6
Continuous
 62
     7
370
    15
100
AcDbLine
 10
1380.6890315301
 20
-156.8259459311
 30
0.0
 11
1418.7451667077
 21
-156.8259459311
 31
0.0
  0
LINE
  5
380
330
1F
100
AcDbEntity
  8
0
  6
Continuous
 62
     7
370
    15
100
AcDbLine
 10
1416.9395035988
 20
-158.8259425336
 30
0.0
 11
1382.6890057808
 21
-158.8259425336
 31
0.0
  0
LINE
  5
381
330
1F
100
AcDbEntity
  8
0
  6
Continuous
 62
     7
370
    15
100
AcDbLine
 10
1418.6890191323
 20
-158.8259425336
 30
0.0
 11
1416.9395035988
 21
-158.8259425336
 31
0.0
  0
LINE
  5
382
330
1F
100
AcDbEntity
  8
0
  6
Continuous
 62
     7
370
    15
100
AcDbLine
 10
1420.6889933831
 20
-106.6259455258
 30
0.0
 11
1380.6890315301
 21
-106.6259455258
 31
0.0
  0
LINE
  5
383
330
1F
100
AcDbEntity
  8
0
  6
Continuous
 62
     7
370
    15
100
AcDbLine
 10
1380.9889621026
 20
-106.3259460354
 30
0.0
 11
1420.3890628106
 21
-106.3259460354
 31
0.0
  0
LINE
  5
384
330
1F
100
AcDbEntity
  8
0
  6
Continuous
 62
     7
370
    15
100
AcDbLine
 10
1380.6890315301
 20
-153.5259422237
 30
0.0
 11
1420.6889933831
 21
-153.5259422237
 31
0.0
  0
SPLINE
  5
385
330
1F
100
AcDbEntity
  8
0
  6
Continuous
 62
     7
370
    15
100
AcDbSpline
210
0.0
220
0.0
230
1.0
 70
     8
 71
     3
 72
    25
 73
    21
 74
     0
 42
0.000000001
 43
0.00000001
 40
0.0
 40
0.0
 40
0.0
 40
0.0
 40
0.0640695359323838
 40
0.1453734176752969
 40
0.2036612128741218
 40
0.2636278070113376
 40
0.3230554678104994
 40
0.3839674195748465
 40
0.4406020871112513
 40
0.488388888712929
 40
0.5363967268583492
 40
0.5990985764297656
 40
0.6541419335159016
 40
0.7106126433616655
 40
0.7696598222358361
 40
0.8302139438903375
 40
0.8768506061728197
 40
0.9246914182485547
 40
0.9714004268761977
 40
1.0
 40
1.0
 40
1.0
 40
1.0
 10
1381.186134267483
 20
-108.8259455138803
 30
0.0
 10
1381.420172522874
 20
-108.8014061743484
 30
0.0
 10
1381.951204011675
 20
-108.7457265505877
 30
0.0
 10
1383.368583128434
 20
-109.7161659543021
 30
0.0
 10
1384.958655083643
 20
-111.0598345667134
 30
0.0
 10
1386.507870150663
 20
-112.5763640627084
 30
0.0
 10
1388.113239925113
 20
-114.3785705131838
 30
0.0
 10
1389.619274643431
 20
-116.4189835884175
 30
0.0
 10
1390.779821023456
 20
-118.6296284166398
 30
0.0
 10
1391.309883629705
 20
-120.967882696278
 30
0.0
 10
1391.005258808033
 20
-123.4633517536577
 30
0.0
 10
1389.91342506162
 20
-125.7581404518439
 30
0.0
 10
1388.470005113883
 20
-127.8214053130244
 30
0.0
 10
1386.95752732285
 20
-129.5949856411577
 30
0.0
 10
1385.405602180613
 20
-131.1746751145718
 30
0.0
 10
1384.030168065466
 20
-132.3960619064733
 30
0.0
 10
1382.887097615736
 20
-133.2632674322253
 30
0.0
 10
1382.013390694533
 20
-133.770147408725
 30
0.0
 10
1381.391532126496
 20
-133.9902872055932
 30
0.0
 10
1381.176141110938
 20
-133.8711776712268
 30
0.0
 10
1381.094343114529
 20
-133.8259440237642
 30
0.0
  0
LWPOLYLINE
  5
386
330
1F
100
AcDbEntity
  8
0
  6
Continuous
 62
     7
370
    15
100
AcDbPolyline
 90
       19
 70
   128
 43
0.0
 10
1420.374400068
 20
-133.8259440238
 10
1419.988638807
 20
-133.9235354537
 10
1418.7308615929
 20
-133.3914671415
 10
1416.8067044503
 20
-131.9067489678
 10
1415.1889151818
 20
-130.3679358536
 10
1413.4637183434
 20
-128.4560609931
 10
1412.3027390725
 20
-126.9353080863
 10
1411.2426108605
 20
-125.2024595017
 10
1410.3777474648
 20
-122.9373824174
 10
1410.2040595299
 20
-120.8664600128
 10
1410.6316632516
 20
-118.8457917744
 10
1412.1239251381
 20
-115.9778118456
 10
1413.7048787362
 20
-113.9081541771
 10
1415.382511068
 20
-112.0878208751
 10
1416.9886178261
 20
-110.5865884894
 10
1418.4644288308
 20
-109.434918719
 10
1419.3524188286
 20
-108.917488935
 10
1420.0539654976
 20
-108.7259456838
 10
1420.0539654976
 20
-108.7259456838
  0
LINE
  5
387
330
1F
100
AcDbEntity
  8
0
  6
Continuous
 62
     7
370
    15
100
AcDbLine
 10
-578.3109822386
 20
-106.6259455258
 30
0.0
 11
-618.3109813445
 21
-106.6259455258
 31
0.0
  0
LINE
  5
388
330
1F
100
AcDbEntity
  8
0
  6
Continuous
 62
     7
370
    15
100
AcDbLine
 10
-618.0109837168
 20
-106.3259460354
 30
0.0
 11
-578.6109798664
 21
-106.3259460354
 31
0.0
  0
LINE
  5
389
330
1F
100
AcDbEntity
  8
0
  6
Continuous
 62
     7
370
    15
100
AcDbLine
 10
-618.3109813445
 20
-153.5259422237
 30
0.0
 11
-578.3109822386
 21
-153.5259422237
 31
0.0
  0
SPLINE
  5
38A
330
1F
100
AcDbEntity
  8
0
  6
Continuous
 62
     7
370
    15
100
AcDbSpline
210
0.0
220
0.0
230
1.0
 70
     8
 71
     3
 72
    25
 73
    21
 74
     0
 42
0.000000001
 43
0.00000001
 40
0.0
 40
0.0
 40
0.0
 40
0.0
 40
0.0640693238081237
 40
0.1453733009234221
 40
0.2036615112321249
 40
0.2636277599840239
 40
0.3230560689631676
 40
0.3839675977668063
 40
0.4406024637565368
 40
0.4883891704296036
 40
0.5363970502930363
 40
0.5990988174976616
 40
0.6541419349768064
 40
0.7106123900624499
 40
0.7696597614289377
 40
0.830213296754474
 40
0.8768508770605946
 40
0.9246914985713095
 40
0.9714005937735561
 40
1.0
 40
1.0
 40
1.0
 40
1.0
 10
-617.8138935082817
 20
-108.8259455138803
 30
0.0
 10
-617.579864384246
 20
-108.8014061147689
 30
0.0
 10
-617.0488522828044
 20
-108.7457262161922
 30
0.0
 10
-615.6314573661566
 20
-109.716173983581
 30
0.0
 10
-614.041313944225
 20
-111.0598203026059
 30
0.0
 10
-612.4921526628607
 20
-112.576386045858
 30
0.0
 10
-610.8866873681449
 20
-114.3785441772231
 30
0.0
 10
-609.3807172850643
 20
-116.4190023881692
 30
0.0
 10
-608.220118097085
 20
-118.6296181542892
 30
0.0
 10
-607.6900590651261
 20
-120.9678880432699
 30
0.0
 10
-607.9947579849568
 20
-123.4633476139292
 30
0.0
 10
-609.0865691679819
 20
-125.7581373848275
 30
0.0
 10
-610.5299816547168
 20
-127.8214041087512
 30
0.0
 10
-612.0424304363895
 20
-129.5949956363166
 30
0.0
 10
-613.5944117660649
 20
-131.1746592555345
 30
0.0
 10
-614.9697398466744
 20
-132.3960832455357
 30
0.0
 10
-616.1129753532049
 20
-133.2632552840163
 30
0.0
 10
-616.9866138833662
 20
-133.7701507662595
 30
0.0
 10
-617.6085358096474
 20
-133.9902869977628
 30
0.0
 10
-617.8238926013228
 20
-133.8711774576762
 30
0.0
 10
-617.9056772106552
 20
-133.8259440237642
 30
0.0
  0
LWPOLYLINE
  5
38B
330
1F
100
AcDbEntity
  8
0
  6
Continuous
 62
     7
370
    15
100
AcDbPolyline
 90
       19
 70
   128
 43
0.0
 10
-578.6255606526
 20
-133.8259440238
 10
-579.0113964194
 20
-133.9235354537
 10
-580.2691401058
 20
-133.3914671415
 10
-582.1933531278
 20
-131.9067489678
 10
-583.8110976928
 20
-130.3679358536
 10
-585.5362721795
 20
-128.4560609931
 10
-586.6971992963
 20
-126.9353080863
 10
-587.7573647612
 20
-125.2024595017
 10
-588.6222505086
 20
-122.9373824174
 10
-588.7959980482
 20
-120.8664600128
 10
-588.3683347219
 20
-118.8457917744
 10
-586.8761249894
 20
-115.9778118456
 10
-585.2951192373
 20
-113.9081541771
 10
-583.6174720043
 20
-112.0878208751
 10
-582.0114323014
 20
-110.5865884894
 10
-580.5355207139
 20
-109.434918719
 10
-579.6475605184
 20
-108.917488935
 10
-578.9460622781
 20
-108.7259456838
 10
-578.9460622781
 20
-108.7259456838
  0
LINE
  5
38C
330
1F
100
AcDbEntity
  8
0
  6
Continuous
 62
     7
370
    15
100
AcDbLine
 10
-471.5961263591
 20
-110.8259458417
 30
0.0
 11
-471.3341453188
 21
-110.8259458417
 31
0.0
  0
LINE
  5
38D
330
1F
100
AcDbEntity
  8
0
  6
Continuous
 62
     7
370
    15
100
AcDbLine
 10
-501.3341465109
 20
-110.8259458417
 30
0.0
 11
-471.5961263591
 21
-110.8259458417
 31
0.0
  0
LINE
  5
38E
330
1F
100
AcDbEntity
  8
0
  6
Continuous
 62
     7
370
    15
100
AcDbLine
 10
-471.3341453188
 20
-109.8259456778
 30
0.0
 11
-501.3341465109
 21
-109.8259456778
 31
0.0
  0
LINE
  5
38F
330
1F
100
AcDbEntity
  8
0
  6
Continuous
 62
     7
370
    15
100
AcDbLine
 10
-499.3341461831
 20
-107.82594535
 30
0.0
 11
-473.3341456467
 21
-107.82594535
 31
0.0
  0
LINE
  5
390
330
1F
100
AcDbEntity
  8
0
  6
Continuous
 62
     7
370
    15
100
AcDbLine
 10
200.6658381707
 20
-107.82594535
 30
0.0
 11
226.6658610589
 21
-107.82594535
 31
0.0
  0
LINE
  5
391
330
1F
100
AcDbEntity
  8
0
  6
Continuous
 62
     7
370
    15
100
AcDbLine
 10
228.6658353097
 20
-109.8259456778
 30
0.0
 11
198.6658639199
 21
-109.8259456778
 31
0.0
  0
LINE
  5
392
330
1F
100
AcDbEntity
  8
0
  6
Continuous
 62
     7
370
    15
100
AcDbLine
 10
228.4038728959
 20
-110.8259458417
 30
0.0
 11
228.6658353097
 21
-110.8259458417
 31
0.0
  0
LINE
  5
393
330
1F
100
AcDbEntity
  8
0
  6
Continuous
 62
     7
370
    15
100
AcDbLine
 10
198.6658639199
 20
-110.8259458417
 30
0.0
 11
228.4038728959
 21
-110.8259458417
 31
0.0
  0
LINE
  5
394
330
1F
100
AcDbEntity
  8
0
  6
Continuous
 62
     7
370
    15
100
AcDbLine
 10
212.8278083092
 20
-131.1259467477
 30
0.0
 11
198.6658639199
 21
-131.1259467477
 31
0.0
  0
LINE
  5
395
330
1F
100
AcDbEntity
  8
0
  6
Continuous
 62
     7
370
    15
100
AcDbLine
 10
228.6658353097
 20
-131.1259467477
 30
0.0
 11
212.8278083092
 21
-131.1259467477
 31
0.0
  0
LINE
  5
396
330
1F
100
AcDbEntity
  8
0
  6
Continuous
 62
     7
370
    15
100
AcDbLine
 10
212.8278083092
 20
-137.5259470517
 30
0.0
 11
228.6658353097
 21
-137.5259470517
 31
0.0
  0
LINE
  5
397
330
1F
100
AcDbEntity
  8
0
  6
Continuous
 62
     7
370
    15
100
AcDbLine
 10
198.6658639199
 20
-137.5259470517
 30
0.0
 11
212.8278083092
 21
-137.5259470517
 31
0.0
  0
LINE
  5
398
330
1F
100
AcDbEntity
  8
0
  6
Continuous
 62
     7
370
    15
100
AcDbLine
 10
212.8445572144
 20
-130.8259453947
 30
0.0
 11
228.3658451325
 21
-130.8259453947
 31
0.0
  0
LINE
  5
399
330
1F
100
AcDbEntity
  8
0
  6
Continuous
 62
     7
370
    15
100
AcDbLine
 10
198.965854097
 20
-130.8259453947
 30
0.0
 11
212.8445572144
 21
-130.8259453947
 31
0.0
  0
LINE
  5
39A
330
1F
100
AcDbEntity
  8
0
  6
Continuous
 62
     7
370
    15
100
AcDbLine
 10
-487.1721872204
 20
-131.1259467477
 30
0.0
 11
-501.3341465109
 21
-131.1259467477
 31
0.0
  0
LINE
  5
39B
330
1F
100
AcDbEntity
  8
0
  6
Continuous
 62
     7
370
    15
100
AcDbLine
 10
-471.3341453188
 20
-131.1259467477
 30
0.0
 11
-487.1721872204
 21
-131.1259467477
 31
0.0
  0
LINE
  5
39C
330
1F
100
AcDbEntity
  8
0
  6
Continuous
 62
     7
370
    15
100
AcDbLine
 10
-487.1721872204
 20
-137.5259470517
 30
0.0
 11
-471.3341453188
 21
-137.5259470517
 31
0.0
  0
LINE
  5
39D
330
1F
100
AcDbEntity
  8
0
  6
Continuous
 62
     7
370
    15
100
AcDbLine
 10
-501.3341465109
 20
-137.5259470517
 30
0.0
 11
-487.1721872204
 21
-137.5259470517
 31
0.0
  0
LINE
  5
39E
330
1F
100
AcDbEntity
  8
0
  6
Continuous
 62
     7
370
    15
100
AcDbLine
 10
-487.1554271394
 20
-130.8259453947
 30
0.0
 11
-471.6341466719
 21
-130.8259453947
 31
0.0
  0
LINE
  5
39F
330
1F
100
AcDbEntity
  8
0
  6
Continuous
 62
     7
370
    15
100
AcDbLine
 10
-501.0341470205
 20
-130.8259453947
 30
0.0
 11
-487.1554271394
 21
-130.8259453947
 31
0.0
  0
LINE
  5
3A0
330
1F
100
AcDbEntity
  8
0
  6
Continuous
 62
     7
370
    15
100
AcDbLine
 10
184.7158736474
 20
-130.4559458369
 30
0.0
 11
242.6158255822
 21
-130.4559458369
 31
0.0
  0
LINE
  5
3A1
330
1F
100
AcDbEntity
  8
0
  6
Continuous
 62
     7
370
    15
100
AcDbLine
 10
184.7158736474
 20
-129.9559448237
 30
0.0
 11
242.6158255822
 21
-129.9559448237
 31
0.0
  0
LINE
  5
3A2
330
1F
100
AcDbEntity
  8
0
  6
Continuous
 62
     7
370
    15
100
AcDbLine
 10
242.6158255822
 20
-111.6959464127
 30
0.0
 11
184.7158736474
 21
-111.6959464127
 31
0.0
  0
LINE
  5
3A3
330
1F
100
AcDbEntity
  8
0
  6
Continuous
 62
     7
370
    15
100
AcDbLine
 10
242.6158255822
 20
-111.1959453994
 30
0.0
 11
184.7158736474
 21
-111.1959453994
 31
0.0
  0
LINE
  5
3A4
330
1F
100
AcDbEntity
  8
0
  6
Continuous
 62
     7
370
    15
100
AcDbLine
 10
-515.2841465623
 20
-130.4559458369
 30
0.0
 11
-457.3841475957
 21
-130.4559458369
 31
0.0
  0
LINE
  5
3A5
330
1F
100
AcDbEntity
  8
0
  6
Continuous
 62
     7
370
    15
100
AcDbLine
 10
-515.2841465623
 20
-129.9559448237
 30
0.0
 11
-457.3841475957
 21
-129.9559448237
 31
0.0
  0
LINE
  5
3A6
330
1F
100
AcDbEntity
  8
0
  6
Continuous
 62
     7
370
    15
100
AcDbLine
 10
-457.3841475957
 20
-111.1959453994
 30
0.0
 11
-515.2841465623
 21
-111.1959453994
 31
0.0
  0
LINE
  5
3A7
330
1F
100
AcDbEntity
  8
0
  6
Continuous
 62
     7
370
    15
100
AcDbLine
 10
-457.3841475957
 20
-111.6959464127
 30
0.0
 11
-515.2841465623
 21
-111.6959464127
 31
0.0
  0
LINE
  5
3A8
330
1F
100
AcDbEntity
  8
0
  6
Continuous
 62
     7
370
    15
100
AcDbLine
 10
313.7158817536
 20
-141.8259453351
 30
0.0
 11
313.7158817536
 21
-133.8259440238
 31
0.0
  0
LINE
  5
3A9
330
1F
100
AcDbEntity
  8
0
  6
Continuous
 62
     7
370
    15
100
AcDbLine
 10
313.7158817536
 20
-108.8259455139
 30
0.0
 11
313.7158817536
 21
-101.8259452978
 31
0.0
  0
LINE
  5
3AA
330
1F
100
AcDbEntity
  8
0
  6
Continuous
 62
     7
370
    15
100
AcDbLine
 10
313.7158817536
 20
-141.8259453351
 30
0.0
 11
228.6658353097
 21
-141.8259453351
 31
0.0
  0
LINE
  5
3AB
330
1F
100
AcDbEntity
  8
0
  6
Continuous
 62
     7
370
    15
100
AcDbLine
 10
198.6658639199
 20
-141.8259453351
 30
0.0
 11
-471.3341453188
 21
-141.8259453351
 31
0.0
  0
LINE
  5
3AC
330
1F
100
AcDbEntity
  8
0
  6
Continuous
 62
     7
370
    15
100
AcDbLine
 10
-501.3341465109
 20
-141.8259453351
 30
0.0
 11
-561.810982328
 21
-141.8259453351
 31
0.0
  0
LINE
  5
3AD
330
1F
100
AcDbEntity
  8
0
  6
Continuous
 62
     7
370
    15
100
AcDbLine
 10
313.7158817536
 20
-101.8259452978
 30
0.0
 11
102.0219988114
 21
-101.8259452978
 31
0.0
  0
LINE
  5
3AE
330
1F
100
AcDbEntity
  8
0
  6
Continuous
 62
     7
370
    15
100
AcDbLine
 10
87.0220131165
 20
-101.8259452978
 30
0.0
 11
-511.3109810353
 21
-101.8259452978
 31
0.0
  0
LINE
  5
3AF
330
1F
100
AcDbEntity
  8
0
  6
Continuous
 62
     7
370
    15
100
AcDbLine
 10
-526.3109807001
 20
-101.8259452978
 30
0.0
 11
-586.2841465586
 21
-101.8259452978
 31
0.0
  0
LINE
  5
3B0
330
1F
100
AcDbEntity
  8
0
  6
Continuous
 62
     7
370
    15
100
AcDbLine
 10
-586.2841465586
 20
-106.3259460354
 30
0.0
 11
-586.2841465586
 21
-101.8259452978
 31
0.0
  0
LINE
  5
3B1
330
1F
100
AcDbEntity
  8
0
  6
Continuous
 62
     7
370
    15
100
AcDbLine
 10
-501.3341465109
 20
-147.8259463185
 30
0.0
 11
-471.3341453188
 21
-147.8259463185
 31
0.0
  0
LINE
  5
3B2
330
1F
100
AcDbEntity
  8
0
  6
Continuous
 62
     7
370
    15
100
AcDbLine
 10
-501.3341465109
 20
-149.8259466464
 30
0.0
 11
-471.3341453188
 21
-149.8259466464
 31
0.0
  0
LINE
  5
3B3
330
1F
100
AcDbEntity
  8
0
  6
Continuous
 62
     7
370
    15
100
AcDbLine
 10
-473.3341456467
 20
-151.8259432489
 30
0.0
 11
-499.3341461831
 21
-151.8259432489
 31
0.0
  0
LINE
  5
3B4
330
1F
100
AcDbEntity
  8
0
  6
Continuous
 62
     7
370
    15
100
AcDbLine
 10
198.6658639199
 20
-147.8259463185
 30
0.0
 11
228.6658353097
 21
-147.8259463185
 31
0.0
  0
LINE
  5
3B5
330
1F
100
AcDbEntity
  8
0
  6
Continuous
 62
     7
370
    15
100
AcDbLine
 10
198.6658639199
 20
-149.8259466464
 30
0.0
 11
228.6658353097
 21
-149.8259466464
 31
0.0
  0
LINE
  5
3B6
330
1F
100
AcDbEntity
  8
0
  6
Continuous
 62
     7
370
    15
100
AcDbLine
 10
226.6658610589
 20
-151.8259432489
 30
0.0
 11
200.6658381707
 21
-151.8259432489
 31
0.0
  0
LINE
  5
3B7
330
1F
100
AcDbEntity
  8
0
  6
Continuous
 62
     7
370
    15
100
AcDbLine
 10
228.6658353097
 20
-138.0259443397
 30
0.0
 11
198.6658639199
 21
-138.0259443397
 31
0.0
  0
LINE
  5
3B8
330
1F
100
AcDbEntity
  8
0
  6
Continuous
 62
     7
370
    15
100
AcDbLine
 10
198.8658375031
 20
-137.8259446794
 30
0.0
 11
228.4658617264
 21
-137.8259446794
 31
0.0
  0
LINE
  5
3B9
330
1F
100
AcDbEntity
  8
0
  6
Continuous
 62
     7
370
    15
100
AcDbLine
 10
198.6658639199
 20
-141.6259456748
 30
0.0
 11
228.6658353097
 21
-141.6259456748
 31
0.0
  0
LINE
  5
3BA
330
1F
100
AcDbEntity
  8
0
  6
Continuous
 62
     7
370
    15
100
AcDbLine
 10
-471.3341453188
 20
-138.0259443397
 30
0.0
 11
-501.3341465109
 21
-138.0259443397
 31
0.0
  0
LINE
  5
3BB
330
1F
100
AcDbEntity
  8
0
  6
Continuous
 62
     7
370
    15
100
AcDbLine
 10
-501.1341468507
 20
-137.8259446794
 30
0.0
 11
-471.5341449791
 21
-137.8259446794
 31
0.0
  0
LINE
  5
3BC
330
1F
100
AcDbEntity
  8
0
  6
Continuous
 62
     7
370
    15
100
AcDbLine
 10
-501.3341465109
 20
-141.6259456748
 30
0.0
 11
-471.3341453188
 21
-141.6259456748
 31
0.0
  0
LINE
  5
3BD
330
1F
100
AcDbEntity
  8
0
  6
Continuous
 62
     7
370
    15
100
AcDbLine
 10
184.6658653504
 20
-111.8259460056
 30
0.0
 11
242.6658338791
 21
-111.8259460056
 31
0.0
  0
LINE
  5
3BE
330
1F
100
AcDbEntity
  8
0
  6
Continuous
 62
     7
370
    15
100
AcDbLine
 10
235.9789079911
 20
-112.8463737989
 30
0.0
 11
242.6658338791
 21
-112.8463737989
 31
0.0
  0
LINE
  5
3BF
330
1F
100
AcDbEntity
  8
0
  6
Continuous
 62
     7
370
    15
100
AcDbLine
 10
184.6658653504
 20
-112.8463737989
 30
0.0
 11
235.9789079911
 21
-112.8463737989
 31
0.0
  0
LINE
  5
3C0
330
1F
100
AcDbEntity
  8
0
  6
Continuous
 62
     7
370
    15
100
AcDbLine
 10
242.6658338791
 20
-128.8576212103
 30
0.0
 11
184.6658653504
 21
-128.8576212103
 31
0.0
  0
LINE
  5
3C1
330
1F
100
AcDbEntity
  8
0
  6
Continuous
 62
     7
370
    15
100
AcDbLine
 10
184.6658653504
 20
-129.8259470934
 30
0.0
 11
242.6658338791
 21
-129.8259470934
 31
0.0
  0
LINE
  5
3C2
330
1F
100
AcDbEntity
  8
0
  6
Continuous
 62
     7
370
    15
100
AcDbLine
 10
-464.0210651868
 20
-112.8463737989
 30
0.0
 11
-457.3341467493
 21
-112.8463737989
 31
0.0
  0
LINE
  5
3C3
330
1F
100
AcDbEntity
  8
0
  6
Continuous
 62
     7
370
    15
100
AcDbLine
 10
-515.3341467102
 20
-112.8463737989
 30
0.0
 11
-464.0210651868
 21
-112.8463737989
 31
0.0
  0
LINE
  5
3C4
330
1F
100
AcDbEntity
  8
0
  6
Continuous
 62
     7
370
    15
100
AcDbLine
 10
-515.3341467102
 20
-111.8259460056
 30
0.0
 11
-457.3341467493
 21
-111.8259460056
 31
0.0
  0
LINE
  5
3C5
330
1F
100
AcDbEntity
  8
0
  6
Continuous
 62
     7
370
    15
100
AcDbLine
 10
-457.3341467493
 20
-128.8576212103
 30
0.0
 11
-515.3341467102
 21
-128.8576212103
 31
0.0
  0
LINE
  5
3C6
330
1F
100
AcDbEntity
  8
0
  6
Continuous
 62
     7
370
    15
100
AcDbLine
 10
-515.3341467102
 20
-129.8259470934
 30
0.0
 11
-457.3341467493
 21
-129.8259470934
 31
0.0
  0
LINE
  5
3C7
330
1F
100
AcDbEntity
  8
0
  6
Continuous
 62
     7
370
    15
100
AcDbLine
 10
228.6658353097
 20
-147.8259463185
 30
0.0
 11
228.7158436066
 21
-147.8259463185
 31
0.0
  0
LINE
  5
3C8
330
1F
100
AcDbEntity
  8
0
  6
Continuous
 62
     7
370
    15
100
AcDbLine
 10
228.6658353097
 20
-149.8259466464
 30
0.0
 11
228.7158436066
 21
-149.8259466464
 31
0.0
  0
LINE
  5
3C9
330
1F
100
AcDbEntity
  8
0
  6
Continuous
 62
     7
370
    15
100
AcDbLine
 10
226.7158693558
 20
-151.8259432489
 30
0.0
 11
226.6658610589
 21
-151.8259432489
 31
0.0
  0
LINE
  5
3CA
330
1F
100
AcDbEntity
  8
0
  6
Continuous
 62
     7
370
    15
100
AcDbLine
 10
-471.3341453188
 20
-149.8259466464
 30
0.0
 11
-471.2841481977
 21
-149.8259466464
 31
0.0
  0
LINE
  5
3CB
330
1F
100
AcDbEntity
  8
0
  6
Continuous
 62
     7
370
    15
100
AcDbLine
 10
-471.3341453188
 20
-147.8259463185
 30
0.0
 11
-471.2841481977
 21
-147.8259463185
 31
0.0
  0
LINE
  5
3CC
330
1F
100
AcDbEntity
  8
0
  6
Continuous
 62
     7
370
    15
100
AcDbLine
 10
-473.2841448003
 20
-151.8259432489
 30
0.0
 11
-473.3341456467
 21
-151.8259432489
 31
0.0
  0
LINE
  5
3CD
330
1F
100
AcDbEntity
  8
0
  6
Continuous
 62
     7
370
    15
100
AcDbLine
 10
-501.3341465109
 20
-141.8259453351
 30
0.0
 11
-501.3341465109
 21
-147.8259463185
 31
0.0
  0
LINE
  5
3CE
330
1F
100
AcDbEntity
  8
0
  6
Continuous
 62
     7
370
    15
100
AcDbLine
 10
-471.3341453188
 20
-141.8259453351
 30
0.0
 11
-471.3341453188
 21
-147.8259463185
 31
0.0
  0
LINE
  5
3CF
330
1F
100
AcDbEntity
  8
0
  6
Continuous
 62
     7
370
    15
100
AcDbLine
 10
-501.3341465109
 20
-141.8259453351
 30
0.0
 11
-471.3341453188
 21
-141.8259453351
 31
0.0
  0
LINE
  5
3D0
330
1F
100
AcDbEntity
  8
0
  6
Continuous
 62
     7
370
    15
100
AcDbLine
 10
198.6658639199
 20
-141.8259453351
 30
0.0
 11
198.6658639199
 21
-147.8259463185
 31
0.0
  0
LINE
  5
3D1
330
1F
100
AcDbEntity
  8
0
  6
Continuous
 62
     7
370
    15
100
AcDbLine
 10
228.6658353097
 20
-141.8259453351
 30
0.0
 11
228.6658353097
 21
-147.8259463185
 31
0.0
  0
LINE
  5
3D2
330
1F
100
AcDbEntity
  8
0
  6
Continuous
 62
     7
370
    15
100
AcDbLine
 10
198.6658639199
 20
-141.8259453351
 30
0.0
 11
228.6658353097
 21
-141.8259453351
 31
0.0
  0
LINE
  5
3D3
330
1F
100
AcDbEntity
  8
0
  6
Continuous
 62
     7
370
    15
100
AcDbLine
 10
206.7239350564
 20
-99.8259459013
 30
0.0
 11
198.7158722169
 21
-99.8259459013
 31
0.0
  0
LINE
  5
3D4
330
1F
100
AcDbEntity
  8
0
  6
Continuous
 62
     7
370
    15
100
AcDbLine
 10
228.7158436066
 20
-99.8259459013
 30
0.0
 11
206.7239350564
 21
-99.8259459013
 31
0.0
  0
LINE
  5
3D5
330
1F
100
AcDbEntity
  8
0
  6
Continuous
 62
     7
370
    15
100
AcDbLine
 10
207.6562113053
 20
-97.8259455735
 30
0.0
 11
226.7158693558
 21
-97.8259455735
 31
0.0
  0
LINE
  5
3D6
330
1F
100
AcDbEntity
  8
0
  6
Continuous
 62
     7
370
    15
100
AcDbLine
 10
200.7158464676
 20
-97.8259455735
 30
0.0
 11
207.6562113053
 21
-97.8259455735
 31
0.0
  0
LINE
  5
3D7
330
1F
100
AcDbEntity
  8
0
  6
Continuous
 62
     7
370
    15
100
AcDbLine
 10
-493.2760455721
 20
-99.8259459013
 30
0.0
 11
-501.2841475272
 21
-99.8259459013
 31
0.0
  0
LINE
  5
3D8
330
1F
100
AcDbEntity
  8
0
  6
Continuous
 62
     7
370
    15
100
AcDbLine
 10
-471.2841481977
 20
-99.8259459013
 30
0.0
 11
-493.2760455721
 21
-99.8259459013
 31
0.0
  0
LINE
  5
3D9
330
1F
100
AcDbEntity
  8
0
  6
Continuous
 62
     7
370
    15
100
AcDbLine
 10
-492.3437935376
 20
-97.8259455735
 30
0.0
 11
-473.2841448003
 21
-97.8259455735
 31
0.0
  0
LINE
  5
3DA
330
1F
100
AcDbEntity
  8
0
  6
Continuous
 62
     7
370
    15
100
AcDbLine
 10
-499.2841471994
 20
-97.8259455735
 30
0.0
 11
-492.3437935376
 21
-97.8259455735
 31
0.0
  0
LINE
  5
3DB
330
1F
100
AcDbEntity
  8
0
  6
Continuous
 62
     7
370
    15
100
AcDbLine
 10
90.1493496186
 20
-133.8259440238
 30
0.0
 11
101.9719905144
 21
-133.8259440238
 31
0.0
  0
LINE
  5
3DC
330
1F
100
AcDbEntity
  8
0
  6
Continuous
 62
     7
370
    15
100
AcDbLine
 10
87.0720214135
 20
-133.8259440238
 30
0.0
 11
90.1493496186
 21
-133.8259440238
 31
0.0
  0
LINE
  5
3DD
330
1F
100
AcDbEntity
  8
0
  6
Continuous
 62
     7
370
    15
100
AcDbLine
 10
90.7362765557
 20
-134.8259460503
 30
0.0
 11
88.0720085389
 21
-134.8259460503
 31
0.0
  0
LINE
  5
3DE
330
1F
100
AcDbEntity
  8
0
  6
Continuous
 62
     7
370
    15
100
AcDbLine
 10
100.972003389
 20
-134.8259460503
 30
0.0
 11
90.7362765557
 21
-134.8259460503
 31
0.0
  0
LINE
  5
3DF
330
1F
100
AcDbEntity
  8
0
  6
Continuous
 62
     7
370
    15
100
AcDbLine
 10
703.4822768456
 20
-133.8259440238
 30
0.0
 11
715.3049773461
 21
-133.8259440238
 31
0.0
  0
LINE
  5
3E0
330
1F
100
AcDbEntity
  8
0
  6
Continuous
 62
     7
370
    15
100
AcDbLine
 10
700.4050082451
 20
-133.8259440238
 30
0.0
 11
703.4822768456
 21
-133.8259440238
 31
0.0
  0
LINE
  5
3E1
330
1F
100
AcDbEntity
  8
0
  6
Continuous
 62
     7
370
    15
100
AcDbLine
 10
704.0692633874
 20
-134.8259460503
 30
0.0
 11
701.4050549752
 21
-134.8259460503
 31
0.0
  0
LINE
  5
3E2
330
1F
100
AcDbEntity
  8
0
  6
Continuous
 62
     7
370
    15
100
AcDbLine
 10
714.3050498253
 20
-134.8259460503
 30
0.0
 11
704.0692633874
 21
-134.8259460503
 31
0.0
  0
LINE
  5
3E3
330
1F
100
AcDbEntity
  8
0
  6
Continuous
 62
     7
370
    15
100
AcDbLine
 10
1316.8153828866
 20
-133.8259440238
 30
0.0
 11
1328.6379641778
 21
-133.8259440238
 31
0.0
  0
LINE
  5
3E4
330
1F
100
AcDbEntity
  8
0
  6
Continuous
 62
     7
370
    15
100
AcDbLine
 10
1313.7379950768
 20
-133.8259440238
 30
0.0
 11
1316.8153828866
 21
-133.8259440238
 31
0.0
  0
LINE
  5
3E5
330
1F
100
AcDbEntity
  8
0
  6
Continuous
 62
     7
370
    15
100
AcDbLine
 10
1317.402250219
 20
-134.8259460503
 30
0.0
 11
1314.7380418069
 21
-134.8259460503
 31
0.0
  0
LINE
  5
3E6
330
1F
100
AcDbEntity
  8
0
  6
Continuous
 62
     7
370
    15
100
AcDbLine
 10
1327.638036657
 20
-134.8259460503
 30
0.0
 11
1317.402250219
 21
-134.8259460503
 31
0.0
  0
LINE
  5
3E7
330
1F
100
AcDbEntity
  8
0
  6
Continuous
 62
     7
370
    15
100
AcDbLine
 10
-523.1836670154
 20
-133.8259440238
 30
0.0
 11
-511.3609809504
 21
-133.8259440238
 31
0.0
  0
LINE
  5
3E8
330
1F
100
AcDbEntity
  8
0
  6
Continuous
 62
     7
370
    15
100
AcDbLine
 10
-526.260980785
 20
-133.8259440238
 30
0.0
 11
-523.1836670154
 21
-133.8259440238
 31
0.0
  0
LINE
  5
3E9
330
1F
100
AcDbEntity
  8
0
  6
Continuous
 62
     7
370
    15
100
AcDbLine
 10
-522.5967293681
 20
-134.8259460503
 30
0.0
 11
-525.2609810868
 21
-134.8259460503
 31
0.0
  0
LINE
  5
3EA
330
1F
100
AcDbEntity
  8
0
  6
Continuous
 62
     7
370
    15
100
AcDbLine
 10
-512.3609806487
 20
-134.8259460503
 30
0.0
 11
-522.5967293681
 21
-134.8259460503
 31
0.0
  0
SPLINE
  5
3EB
330
1F
100
AcDbEntity
  8
0
  6
Continuous
 62
     7
370
    15
100
AcDbSpline
210
0.0
220
0.0
230
1.0
 70
     8
 71
     3
 72
    18
 73
    14
 74
     0
 42
0.000000001
 43
0.00000001
 40
0.0
 40
0.0
 40
0.0
 40
0.0
 40
0.0952734199594532
 40
0.1902610937468166
 40
0.2925897501323377
 40
0.4072975357958623
 40
0.4942301976800053
 40
0.5812994328806114
 40
0.6673911415179253
 40
0.7685804301947385
 40
0.8837369546884432
 40
0.9914588836370659
 40
0.9999999999999999
 40
0.9999999999999999
 40
0.9999999999999999
 40
0.9999999999999999
 10
715.3550452477074
 20
-108.8259455138803
 30
0.0
 10
715.2853778989635
 20
-108.8683747313572
 30
0.0
 10
715.1462521493457
 20
-108.9531059116529
 30
0.0
 10
714.0778189801714
 20
-109.5650758904162
 30
0.0
 10
712.4310582300986
 20
-110.3759796162221
 30
0.0
 10
710.3124257545984
 20
-111.1132308694202
 30
0.0
 10
707.9987278535776
 20
-111.4025892500567
 30
0.0
 10
705.8915710977468
 20
-111.1991578793416
 30
0.0
 10
703.9093130468447
 20
-110.6238178968228
 30
0.0
 10
702.0909705690094
 20
-109.8126529119105
 30
0.0
 10
700.8075739212637
 20
-109.1004822501165
 30
0.0
 10
700.2509001768676
 20
-108.7639244145966
 30
0.0
 10
700.3738061841916
 20
-108.8371058934907
 30
0.0
 10
700.3828353172875
 20
-108.8424820775152
 30
0.0
  0
SPLINE
  5
3EC
330
1F
100
AcDbEntity
  8
0
  6
Continuous
 62
     7
370
    15
100
AcDbSpline
210
0.0
220
0.0
230
1.0
 70
     8
 71
     3
 72
    18
 73
    14
 74
     0
 42
0.000000001
 43
0.00000001
 40
0.0
 40
0.0
 40
0.0
 40
0.0
 40
0.0952730267235383
 40
0.1902606828580442
 40
0.2925893202264326
 40
0.4072970845722417
 40
0.4942297303005
 40
0.5813013961688159
 40
0.6673908747600306
 40
0.7685801446314554
 40
0.8837353976475825
 40
0.9914582845258856
 40
1.0
 40
1.0
 40
1.0
 40
1.0
 10
102.0219988113977
 20
-108.8259455138803
 30
0.0
 10
101.9523562625423
 20
-108.8683749463064
 30
0.0
 10
101.8132797646406
 20
-108.9531067225948
 30
0.0
 10
100.7448274991619
 20
-109.5650759812358
 30
0.0
 10
99.09807314332863
 20
-110.3759791681655
 30
0.0
 10
96.9794375017753
 20
-111.1132325846336
 30
0.0
 10
94.66572455252708
 20
-111.4025870089042
 30
0.0
 10
92.55855091087817
 20
-111.1991712451833
 30
0.0
 10
90.57633465274728
 20
-110.6238059365207
 30
0.0
 10
88.75790701086717
 20
-109.8126613262815
 30
0.0
 10
87.4749373345558
 20
-109.1004710788516
 30
0.0
 10
86.91737153226464
 20
-108.7639280839812
 30
0.0
 10
87.04083731894652
 20
-108.8371058603989
 30
0.0
 10
87.04990809026725
 20
-108.8424820775152
 30
0.0
  0
SPLINE
  5
3ED
330
1F
100
AcDbEntity
  8
0
  6
Continuous
 62
     7
370
    15
100
AcDbSpline
210
0.0
220
0.0
230
1.0
 70
     8
 71
     3
 72
    18
 73
    14
 74
     0
 42
0.000000001
 43
0.00000001
 40
0.0
 40
0.0
 40
0.0
 40
0.0
 40
0.0952733050524234
 40
0.190261076533165
 40
0.2925893362938125
 40
0.4072973669743449
 40
0.494230435444289
 40
0.5813014888387522
 40
0.6673906402670401
 40
0.7685793579120582
 40
0.8837357548043406
 40
0.9914584493202396
 40
1.0
 40
1.0
 40
1.0
 40
1.0
 10
-511.3109810353481
 20
-108.8259455138803
 30
0.0
 10
-511.3806381349765
 20
-108.8683749598075
 30
0.0
 10
-511.5197435722883
 20
-108.9531066908457
 30
0.0
 10
-512.5881917742813
 20
-109.5650735778651
 30
0.0
 10
-514.2349310919626
 20
-110.3759825680699
 30
0.0
 10
-516.3535743164709
 20
-111.1132325920701
 30
0.0
 10
-518.6672867184179
 20
-111.402586979727
 30
0.0
 10
-520.7744523874928
 20
-111.1991704989139
 30
0.0
 10
-522.7566653137816
 20
-110.6238073227318
 30
0.0
 10
-524.5750400579217
 20
-109.8126529854233
 30
0.0
 10
-525.8581762440725
 20
-109.1004774523676
 30
0.0
 10
-526.4154875560803
 20
-108.763927005348
 30
0.0
 10
-526.2921792405498
 20
-108.8371058678179
 30
0.0
 10
-526.2831201852524
 20
-108.8424820775152
 30
0.0
  0
SPLINE
  5
3EE
330
1F
100
AcDbEntity
  8
0
  6
Continuous
 62
     7
370
    15
100
AcDbSpline
210
0.0
220
0.0
230
1.0
 70
     8
 71
     3
 72
    18
 73
    14
 74
     0
 42
0.000000001
 43
0.00000001
 40
0.0
 40
0.0
 40
0.0
 40
0.0
 40
0.0952735649814915
 40
0.1902613833559399
 40
0.2925901955027461
 40
0.4072981557706554
 40
0.4942309499808115
 40
0.5813003177153182
 40
0.6673921573985742
 40
0.7685816001023646
 40
0.8837357997659048
 40
0.9914588706360621
 40
1.0
 40
1.0
 40
1.0
 40
1.0
 10
1328.688032079373
 20
-108.8259455138803
 30
0.0
 10
1328.618364731768
 20
-108.8683747312226
 30
0.0
 10
1328.479238984426
 20
-108.9531059112495
 30
0.0
 10
1327.410805797786
 20
-109.5650758920761
 30
0.0
 10
1325.764045121976
 20
-110.3759796091087
 30
0.0
 10
1323.645412358021
 20
-111.1132308963839
 30
0.0
 10
1321.331715309475
 20
-111.4025891763122
 30
0.0
 10
1319.224555585829
 20
-111.1991581562039
 30
0.0
 10
1317.242309160419
 20
-110.6238168002915
 30
0.0
 10
1315.423928486817
 20
-109.8126648089793
 30
0.0
 10
1314.1407572187
 20
-109.1004688566623
 30
0.0
 10
1313.58388330654
 20
-108.7639239996742
 30
0.0
 10
1313.706792833259
 20
-108.837105907222
 30
0.0
 10
1313.715822148953
 20
-108.8424820775152
 30
0.0
  0
LINE
  5
3EF
330
1F
100
AcDbEntity
  8
0
  6
Continuous
 62
     7
370
    15
100
AcDbLine
 10
1351.1880702263
 20
-86.8259456331
 30
0.0
 11
1291.1880082375
 21
-86.8259456331
 31
0.0
  0
LINE
  5
3F0
330
1F
100
AcDbEntity
  8
0
  6
Continuous
 62
     7
370
    15
100
AcDbLine
 10
1291.1880082375
 20
-88.8259457281
 30
0.0
 11
1351.1880702263
 21
-88.8259457281
 31
0.0
  0
LINE
  5
3F1
330
1F
100
AcDbEntity
  8
0
  6
Continuous
 62
     7
370
    15
100
AcDbLine
 10
1336.1879653222
 20
-90.8259458231
 30
0.0
 11
1306.1879939324
 21
-90.8259458231
 31
0.0
  0
LINE
  5
3F2
330
1F
100
AcDbEntity
  8
0
  6
Continuous
 62
     7
370
    15
100
AcDbLine
 10
-548.8109801972
 20
-88.8259457281
 30
0.0
 11
-488.8109815383
 21
-88.8259457281
 31
0.0
  0
LINE
  5
3F3
330
1F
100
AcDbEntity
  8
0
  6
Continuous
 62
     7
370
    15
100
AcDbLine
 10
-488.8109815383
 20
-86.8259456331
 30
0.0
 11
-548.8109801972
 21
-86.8259456331
 31
0.0
  0
LINE
  5
3F4
330
1F
100
AcDbEntity
  8
0
  6
Continuous
 62
     7
370
    15
100
AcDbLine
 10
-503.810981203
 20
-90.8259458231
 30
0.0
 11
-533.8109805324
 21
-90.8259458231
 31
0.0
  0
LINE
  5
3F5
330
1F
100
AcDbEntity
  8
0
  6
Continuous
 62
     7
370
    15
100
AcDbLine
 10
737.8549641854
 20
-86.8259456331
 30
0.0
 11
677.8550214058
 21
-86.8259456331
 31
0.0
  0
LINE
  5
3F6
330
1F
100
AcDbEntity
  8
0
  6
Continuous
 62
     7
370
    15
100
AcDbLine
 10
677.8550214058
 20
-88.8259457281
 30
0.0
 11
737.8549641854
 21
-88.8259457281
 31
0.0
  0
LINE
  5
3F7
330
1F
100
AcDbEntity
  8
0
  6
Continuous
 62
     7
370
    15
100
AcDbLine
 10
722.8549784905
 20
-90.8259458231
 30
0.0
 11
692.8550071007
 21
-90.8259458231
 31
0.0
  0
LINE
  5
3F8
330
1F
100
AcDbEntity
  8
0
  6
Continuous
 62
     7
370
    15
100
AcDbLine
 10
124.5220369584
 20
-86.8259456331
 30
0.0
 11
64.5220345742
 21
-86.8259456331
 31
0.0
  0
LINE
  5
3F9
330
1F
100
AcDbEntity
  8
0
  6
Continuous
 62
     7
370
    15
100
AcDbLine
 10
64.5220345742
 20
-88.8259457281
 30
0.0
 11
124.5220369584
 21
-88.8259457281
 31
0.0
  0
LINE
  5
3FA
330
1F
100
AcDbEntity
  8
0
  6
Continuous
 62
     7
370
    15
100
AcDbLine
 10
109.5219916588
 20
-90.8259458231
 30
0.0
 11
79.5220202691
 21
-90.8259458231
 31
0.0
  0
LINE
  5
3FB
330
1F
100
AcDbEntity
  8
0
  6
Continuous
 62
     8
370
    15
100
AcDbLine
 10
-564.1109802836
 20
-138.4885918671
 30
0.0
 11
-564.1109802836
 21
-137.3759445125
 31
0.0
  0
LINE
  5
3FC
330
1F
100
AcDbEntity
  8
0
  6
Continuous
 62
     8
370
    15
100
AcDbLine
 10
-564.1109802836
 20
-149.2759447867
 30
0.0
 11
-564.1109802836
 21
-138.4885918671
 31
0.0
  0
LINE
  5
3FD
330
1F
100
AcDbEntity
  8
0
  6
Continuous
 62
     8
370
    15
100
AcDbLine
 10
1350.4890269524
 20
-137.6355227405
 30
0.0
 11
1350.4890269524
 21
-149.2759447867
 31
0.0
  0
LINE
  5
3FE
330
1F
100
AcDbEntity
  8
0
  6
Continuous
 62
     8
370
    15
100
AcDbLine
 10
1350.4890269524
 20
-137.3759445125
 30
0.0
 11
1350.4890269524
 21
-137.6355227405
 31
0.0
  0
LINE
  5
3FF
330
1F
100
AcDbEntity
  8
0
  6
Continuous
 62
     7
370
    15
100
AcDbLine
 10
-1174.6983671165
 20
2145.903894389
 30
0.0
 11
-1174.70867872
 21
2145.9142041299
 31
0.0
  0
LINE
  5
400
330
1F
100
AcDbEntity
  8
0
  6
Continuous
 62
     7
370
    15
100
AcDbLine
 10
-1177.2586771822
 20
2177.2642030287
 30
0.0
 11
-1180.0586798763
 21
2177.2642030287
 31
0.0
  0
LINE
  5
401
330
1F
100
AcDbEntity
  8
0
  6
Continuous
 62
     7
370
    15
100
AcDbLine
 10
-1180.0586798763
 20
2137.2642029914
 30
0.0
 11
-1177.2586771822
 21
2137.2642029914
 31
0.0
  0
LINE
  5
402
330
1F
100
AcDbEntity
  8
0
  6
Continuous
 62
     7
370
    15
100
AcDbLine
 10
-1180.0586798763
 20
2177.2642030287
 30
0.0
 11
-1182.0586764789
 21
2175.2642036322
 31
0.0
  0
LINE
  5
403
330
1F
100
AcDbEntity
  8
0
  6
Continuous
 62
     7
370
    15
100
AcDbLine
 10
-1182.0586764789
 20
2139.2642033192
 30
0.0
 11
-1180.0586798763
 21
2137.2642029914
 31
0.0
  0
LINE
  5
404
330
1F
100
AcDbEntity
  8
0
  6
Continuous
 62
     7
370
    15
100
AcDbLine
 10
-1177.2586771822
 20
2137.2642029914
 30
0.0
 11
-1177.0586812472
 21
2137.4642026517
 31
0.0
  0
LINE
  5
405
330
1F
100
AcDbEntity
  8
0
  6
Continuous
 62
     7
370
    15
100
AcDbLine
 10
-1177.0586812472
 20
2177.0642033684
 30
0.0
 11
-1177.2586771822
 21
2177.2642030287
 31
0.0
  0
LINE
  5
406
330
1F
100
AcDbEntity
  8
0
  6
Continuous
 62
     7
370
    15
100
AcDbLine
 10
-1129.858679471
 20
2177.2642030287
 30
0.0
 11
-1176.7586761689
 21
2177.2642030287
 31
0.0
  0
LINE
  5
407
330
1F
100
AcDbEntity
  8
0
  6
Continuous
 62
     7
370
    15
100
AcDbLine
 10
-1176.7586761689
 20
2137.2642029914
 30
0.0
 11
-1129.858679471
 21
2137.2642029914
 31
0.0
  0
LINE
  5
408
330
1F
100
AcDbEntity
  8
0
  6
Continuous
 62
     7
370
    15
100
AcDbLine
 10
-1129.858679471
 20
2137.2642029914
 30
0.0
 11
-1129.5586799806
 21
2137.5642024818
 31
0.0
  0
LINE
  5
409
330
1F
100
AcDbEntity
  8
0
  6
Continuous
 62
     7
370
    15
100
AcDbLine
 10
-1129.5586799806
 20
2176.9642035383
 30
0.0
 11
-1129.858679471
 21
2177.2642030287
 31
0.0
  0
LINE
  5
40A
330
1F
100
AcDbEntity
  8
0
  6
Continuous
 62
     7
370
    15
100
AcDbLine
 10
-1176.7586761689
 20
2177.2642030287
 30
0.0
 11
-1177.0586812472
 21
2176.9642035383
 31
0.0
  0
LINE
  5
40B
330
1F
100
AcDbEntity
  8
0
  6
Continuous
 62
     7
370
    15
100
AcDbLine
 10
-1177.0586812472
 20
2137.5642024818
 30
0.0
 11
-1176.7586761689
 21
2137.2642029914
 31
0.0
  0
LINE
  5
40C
330
1F
100
AcDbEntity
  8
0
  6
Continuous
 62
     7
370
    15
100
AcDbLine
 10
-1133.058679623
 20
2185.635674456
 30
0.0
 11
-1131.0586792952
 21
2187.6356747839
 31
0.0
  0
LINE
  5
40D
330
1F
100
AcDbEntity
  8
0
  6
Continuous
 62
     7
370
    15
100
AcDbLine
 10
-1131.0586792952
 20
2213.6356734577
 30
0.0
 11
-1133.058679623
 21
2215.6356737855
 31
0.0
  0
LINE
  5
40E
330
1F
100
AcDbEntity
  8
0
  6
Continuous
 62
     7
370
    15
100
AcDbLine
 10
-1133.058679623
 20
2215.6356737855
 30
0.0
 11
-1134.0586797869
 21
2215.6356737855
 31
0.0
  0
LINE
  5
40F
330
1F
100
AcDbEntity
  8
0
  6
Continuous
 62
     7
370
    15
100
AcDbLine
 10
-1134.0586797869
 20
2185.635674456
 30
0.0
 11
-1133.058679623
 21
2185.635674456
 31
0.0
  0
LINE
  5
410
330
1F
100
AcDbEntity
  8
0
  6
Continuous
 62
     7
370
    15
100
AcDbLine
 10
-1134.9286803579
 20
2210.2156744244
 30
0.0
 11
-1135.0586799508
 21
2210.0856729689
 31
0.0
  0
LINE
  5
411
330
1F
100
AcDbEntity
  8
0
  6
Continuous
 62
     7
370
    15
100
AcDbLine
 10
-1135.0586799508
 20
2191.18567341
 30
0.0
 11
-1134.9286803579
 21
2191.0556738171
 31
0.0
  0
LINE
  5
412
330
1F
100
AcDbEntity
  8
0
  6
Continuous
 62
     7
370
    15
100
AcDbLine
 10
-1134.0586797869
 20
2210.3856743219
 30
0.0
 11
-1134.4286793447
 21
2210.3856743219
 31
0.0
  0
LINE
  5
413
330
1F
100
AcDbEntity
  8
0
  6
Continuous
 62
     7
370
    15
100
AcDbLine
 10
-1134.4286793447
 20
2190.8856739196
 30
0.0
 11
-1134.0586797869
 21
2190.8856739196
 31
0.0
  0
LINE
  5
414
330
1F
100
AcDbEntity
  8
0
  6
Continuous
 62
     7
370
    15
100
AcDbLine
 10
-1154.3586806929
 20
2185.635674456
 30
0.0
 11
-1154.0586793399
 21
2185.9356739464
 31
0.0
  0
LINE
  5
415
330
1F
100
AcDbEntity
  8
0
  6
Continuous
 62
     7
370
    15
100
AcDbLine
 10
-1154.0586793399
 20
2215.3356724325
 30
0.0
 11
-1154.3586806929
 21
2215.6356737855
 31
0.0
  0
LINE
  5
416
330
1F
100
AcDbEntity
  8
0
  6
Continuous
 62
     7
370
    15
100
AcDbLine
 10
-1160.7586809969
 20
2185.635674456
 30
0.0
 11
-1154.3586806929
 21
2185.635674456
 31
0.0
  0
LINE
  5
417
330
1F
100
AcDbEntity
  8
0
  6
Continuous
 62
     7
370
    15
100
AcDbLine
 10
-1154.3586806929
 20
2215.6356737855
 30
0.0
 11
-1160.7586809969
 21
2215.6356737855
 31
0.0
  0
LINE
  5
418
330
1F
100
AcDbEntity
  8
0
  6
Continuous
 62
     7
370
    15
100
AcDbLine
 10
-1160.7586809969
 20
2215.6356737855
 30
0.0
 11
-1161.0586786246
 21
2215.3356724325
 31
0.0
  0
LINE
  5
419
330
1F
100
AcDbEntity
  8
0
  6
Continuous
 62
     7
370
    15
100
AcDbLine
 10
-1161.0586786246
 20
2185.9356739464
 30
0.0
 11
-1160.7586809969
 21
2185.635674456
 31
0.0
  0
LINE
  5
41A
330
1F
100
AcDbEntity
  8
0
  6
Continuous
 62
     7
370
    15
100
AcDbLine
 10
-1154.0586793399
 20
2190.8856739196
 30
0.0
 11
-1153.6886797822
 21
2190.8856739196
 31
0.0
  0
LINE
  5
41B
330
1F
100
AcDbEntity
  8
0
  6
Continuous
 62
     7
370
    15
100
AcDbLine
 10
-1153.6886797822
 20
2210.3856743219
 30
0.0
 11
-1154.0586793399
 21
2210.3856743219
 31
0.0
  0
LINE
  5
41C
330
1F
100
AcDbEntity
  8
0
  6
Continuous
 62
     7
370
    15
100
AcDbLine
 10
-1153.1886787689
 20
2191.0556738171
 30
0.0
 11
-1153.0586810386
 21
2191.18567341
 31
0.0
  0
LINE
  5
41D
330
1F
100
AcDbEntity
  8
0
  6
Continuous
 62
     7
370
    15
100
AcDbLine
 10
-1153.0586810386
 20
2210.0856729689
 30
0.0
 11
-1153.1886787689
 21
2210.2156744244
 31
0.0
  0
LINE
  5
41E
330
1F
100
AcDbEntity
  8
0
  6
Continuous
 62
     7
370
    15
100
AcDbLine
 10
-1153.1886787689
 20
2229.5856752339
 30
0.0
 11
-1153.6886797822
 21
2229.5856752339
 31
0.0
  0
LINE
  5
41F
330
1F
100
AcDbEntity
  8
0
  6
Continuous
 62
     7
370
    15
100
AcDbLine
 10
-1134.4286793447
 20
2229.5856752339
 30
0.0
 11
-1134.9286803579
 21
2229.5856752339
 31
0.0
  0
LINE
  5
420
330
1F
100
AcDbEntity
  8
0
  6
Continuous
 62
     7
370
    15
100
AcDbLine
 10
-1147.0586800551
 20
2132.6356732192
 30
0.0
 11
-1137.0586802787
 21
2132.6356732192
 31
0.0
  0
ARC
  5
421
330
1F
100
AcDbEntity
  8
0
  6
Continuous
 62
     7
370
    15
100
AcDbCircle
 10
-1137.0586795783
 20
2133.6356741273
 30
0.0
 40
1.000000000000227
100
AcDbArc
 50
270.0
 51
0.0
  0
ARC
  5
422
330
1F
100
AcDbEntity
  8
0
  6
Continuous
 62
     7
370
    15
100
AcDbCircle
 10
-1147.0586795783
 20
2133.6356741273
 30
0.0
 40
0.9999999999997726
100
AcDbArc
 50
180.0
 51
270.0
  0
LINE
  5
423
330
1F
100
AcDbEntity
  8
0
  6
Continuous
 62
     7
370
    15
100
AcDbLine
 10
-1158.5586810088
 20
2135.5356738809
 30
0.0
 11
-1148.5586793697
 21
2135.5356738809
 31
0.0
  0
ARC
  5
424
330
1F
100
AcDbEntity
  8
0
  6
Continuous
 62
     7
370
    15
100
AcDbCircle
 10
-1160.0586795783
 20
2133.6356741273
 30
0.0
 40
0.9999999999997726
100
AcDbArc
 50
270.0
 51
0.0
  0
LINE
  5
425
330
1F
100
AcDbEntity
  8
0
  6
Continuous
 62
     7
370
    15
100
AcDbLine
 10
-1165.0586792803
 20
2132.6356732192
 30
0.0
 11
-1160.0586803234
 21
2132.6356732192
 31
0.0
  0
ARC
  5
426
330
1F
100
AcDbEntity
  8
0
  6
Continuous
 62
     7
370
    15
100
AcDbCircle
 10
-1158.0586795783
 20
2135.8856741273
 30
0.0
 40
1.00000000000059
100
AcDbArc
 50
120.0
 51
180.0
  0
LINE
  5
427
330
1F
100
AcDbEntity
  8
0
  6
Continuous
 62
     7
370
    15
100
AcDbLine
 10
-1148.5586793697
 20
2136.8856743815
 30
0.0
 11
-1148.0586783564
 21
2136.8856743815
 31
0.0
  0
LINE
  5
428
330
1F
100
AcDbEntity
  8
0
  6
Continuous
 62
     7
370
    15
100
AcDbLine
 10
-1175.0586771941
 20
2127.6356742623
 30
0.0
 11
-1173.0586805916
 21
2125.6356739345
 31
0.0
  0
LINE
  5
429
330
1F
100
AcDbEntity
  8
0
  6
Continuous
 62
     7
370
    15
100
AcDbLine
 10
-1173.0586805916
 20
2125.6356739345
 30
0.0
 11
-1171.0586802638
 21
2125.6356739345
 31
0.0
  0
LINE
  5
42A
330
1F
100
AcDbEntity
  8
0
  6
Continuous
 62
     7
370
    15
100
AcDbLine
 10
-1173.0586805916
 20
2215.6356737855
 30
0.0
 11
-1175.0586771941
 21
2213.6356734577
 31
0.0
  0
LINE
  5
42B
330
1F
100
AcDbEntity
  8
0
  6
Continuous
 62
     7
370
    15
100
AcDbLine
 10
-1175.0586771941
 20
2187.6356747839
 30
0.0
 11
-1173.0586805916
 21
2185.635674456
 31
0.0
  0
LINE
  5
42C
330
1F
100
AcDbEntity
  8
0
  6
Continuous
 62
     7
370
    15
100
AcDbLine
 10
-1173.0586805916
 20
2185.635674456
 30
0.0
 11
-1171.0586802638
 21
2185.635674456
 31
0.0
  0
LINE
  5
42D
330
1F
100
AcDbEntity
  8
0
  6
Continuous
 62
     7
370
    15
100
AcDbLine
 10
-1171.0586802638
 20
2215.6356737855
 30
0.0
 11
-1173.0586805916
 21
2215.6356737855
 31
0.0
  0
LINE
  5
42E
330
1F
100
AcDbEntity
  8
0
  6
Continuous
 62
     7
370
    15
100
AcDbLine
 10
-1164.85867962
 20
2215.6356737855
 30
0.0
 11
-1165.0586792803
 21
2215.4356741252
 31
0.0
  0
LINE
  5
42F
330
1F
100
AcDbEntity
  8
0
  6
Continuous
 62
     7
370
    15
100
AcDbLine
 10
-1165.0586792803
 20
2185.8356741163
 30
0.0
 11
-1164.85867962
 21
2185.635674456
 31
0.0
  0
LINE
  5
430
330
1F
100
AcDbEntity
  8
0
  6
Continuous
 62
     7
370
    15
100
AcDbLine
 10
-1161.2586782849
 20
2185.635674456
 30
0.0
 11
-1161.0586786246
 21
2185.8356741163
 31
0.0
  0
LINE
  5
431
330
1F
100
AcDbEntity
  8
0
  6
Continuous
 62
     7
370
    15
100
AcDbLine
 10
-1161.0586786246
 20
2215.4356741252
 30
0.0
 11
-1161.2586782849
 21
2215.6356737855
 31
0.0
  0
LINE
  5
432
330
1F
100
AcDbEntity
  8
0
  6
Continuous
 62
     7
370
    15
100
AcDbLine
 10
-1161.2586782849
 20
2215.6356737855
 30
0.0
 11
-1164.85867962
 21
2215.6356737855
 31
0.0
  0
LINE
  5
433
330
1F
100
AcDbEntity
  8
0
  6
Continuous
 62
     7
370
    15
100
AcDbLine
 10
-1164.85867962
 20
2185.635674456
 30
0.0
 11
-1161.2586782849
 21
2185.635674456
 31
0.0
  0
LWPOLYLINE
  5
434
330
1F
100
AcDbEntity
  8
0
  6
Continuous
 62
     7
370
    15
100
AcDbPolyline
 90
        3
 70
   128
 43
0.0
 10
-1138.893814159
 20
2173.4068828541
 10
-1137.8594928956
 20
2172.8752504009
 10
-1136.0791077441
 20
2171.6356740239
  0
ARC
  5
435
330
1F
100
AcDbEntity
  8
0
  6
Continuous
 62
     7
370
    15
100
AcDbCircle
 10
-1144.0847310016
 20
2239.2356741273
 30
0.0
 40
12.50000000000006
100
AcDbArc
 50
230.1746287392
 51
309.8253712608
  0
LINE
  5
436
330
1F
100
AcDbEntity
  8
0
  6
Continuous
 62
     7
370
    15
100
AcDbLine
 10
-1135.0586799508
 20
2229.6356760803
 30
0.0
 11
-1136.0791077441
 21
2229.6356760803
 31
0.0
  0
LINE
  5
437
330
1F
100
AcDbEntity
  8
0
  6
Continuous
 62
     7
370
    15
100
AcDbLine
 10
-1153.0586810386
 20
2171.6356740239
 30
0.0
 11
-1152.8306522942
 21
2171.6356740239
 31
0.0
  0
LINE
  5
438
330
1F
100
AcDbEntity
  8
0
  6
Continuous
 62
     7
370
    15
100
AcDbLine
 10
-1152.0903551555
 20
2229.6356760803
 30
0.0
 11
-1153.0586810386
 21
2229.6356760803
 31
0.0
  0
LINE
  5
439
330
1F
100
AcDbEntity
  8
0
  6
Continuous
 62
     7
370
    15
100
AcDbLine
 10
-1173.0586805916
 20
2055.6356885376
 30
0.0
 11
-1171.0586802638
 21
2055.6356885376
 31
0.0
  0
LINE
  5
43A
330
1F
100
AcDbEntity
  8
0
  6
Continuous
 62
     7
370
    15
100
AcDbLine
 10
-1171.0586802638
 20
2085.6356897297
 30
0.0
 11
-1173.0586805916
 21
2085.6356897297
 31
0.0
  0
LINE
  5
43B
330
1F
100
AcDbEntity
  8
0
  6
Continuous
 62
     7
370
    15
100
AcDbLine
 10
-1173.0586805916
 20
2085.6356897297
 30
0.0
 11
-1175.0586771941
 21
2083.6356931272
 31
0.0
  0
LINE
  5
43C
330
1F
100
AcDbEntity
  8
0
  6
Continuous
 62
     7
370
    15
100
AcDbLine
 10
-1175.0586771941
 20
2057.6356925908
 30
0.0
 11
-1173.0586805916
 21
2055.6356885376
 31
0.0
  0
LINE
  5
43D
330
1F
100
AcDbEntity
  8
0
  6
Continuous
 62
     7
370
    15
100
AcDbLine
 10
-1173.0586805916
 20
2000.6356888357
 30
0.0
 11
-1171.0586802638
 21
2000.6356888357
 31
0.0
  0
LINE
  5
43E
330
1F
100
AcDbEntity
  8
0
  6
Continuous
 62
     7
370
    15
100
AcDbLine
 10
-1171.0586802638
 20
2030.6356900278
 30
0.0
 11
-1173.0586805916
 21
2030.6356900278
 31
0.0
  0
LINE
  5
43F
330
1F
100
AcDbEntity
  8
0
  6
Continuous
 62
     7
370
    15
100
AcDbLine
 10
-1173.0586805916
 20
2030.6356900278
 30
0.0
 11
-1175.0586771941
 21
2028.6356859746
 31
0.0
  0
LINE
  5
440
330
1F
100
AcDbEntity
  8
0
  6
Continuous
 62
     7
370
    15
100
AcDbLine
 10
-1175.0586771941
 20
2002.6356928888
 30
0.0
 11
-1173.0586805916
 21
2000.6356888357
 31
0.0
  0
LINE
  5
441
330
1F
100
AcDbEntity
  8
0
  6
Continuous
 62
     7
370
    15
100
AcDbLine
 10
-1165.0586792803
 20
2215.6356737855
 30
0.0
 11
-1171.0586802638
 21
2215.6356737855
 31
0.0
  0
LINE
  5
442
330
1F
100
AcDbEntity
  8
0
  6
Continuous
 62
     7
370
    15
100
AcDbLine
 10
-1166.4293029881
 20
1996.6356807294
 30
0.0
 11
-1165.0586792803
 21
1996.6356807294
 31
0.0
  0
LINE
  5
443
330
1F
100
AcDbEntity
  8
0
  6
Continuous
 62
     7
370
    15
100
AcDbLine
 10
-1171.0586802638
 20
1996.6356807294
 30
0.0
 11
-1169.7086797631
 21
1996.6356807294
 31
0.0
  0
ARC
  5
444
330
1F
100
AcDbEntity
  8
0
  6
Continuous
 62
     7
370
    15
100
AcDbCircle
 10
-1140.9964644091
 20
73.1356919845
 30
0.0
 40
1.500000000000256
100
AcDbArc
 50
181.0
 51
270.0
  0
ARC
  5
445
330
1F
100
AcDbEntity
  8
0
  6
Continuous
 62
     7
370
    15
100
AcDbCircle
 10
-1149.1208947475
 20
73.1356919845
 30
0.0
 40
1.500000000000249
100
AcDbArc
 50
270.0
 51
359.0
  0
LINE
  5
446
330
1F
100
AcDbEntity
  8
0
  6
Continuous
 62
     7
370
    15
100
AcDbLine
 10
-1147.3932930803
 20
86.161946589
 30
0.0
 11
-1147.6211243844
 21
73.1094830575
 31
0.0
  0
LINE
  5
447
330
1F
100
AcDbEntity
  8
0
  6
Continuous
 62
     7
370
    15
100
AcDbLine
 10
-1142.4962350702
 20
73.1094830575
 30
0.0
 11
-1142.7240663743
 21
86.161946589
 31
0.0
  0
ARC
  5
448
330
1F
100
AcDbEntity
  8
0
  6
Continuous
 62
     7
370
    15
100
AcDbCircle
 10
-1145.8935219193
 20
86.1356919845
 30
0.0
 40
1.500000000000249
100
AcDbArc
 50
90.0
 51
179.0
  0
ARC
  5
449
330
1F
100
AcDbEntity
  8
0
  6
Continuous
 62
     7
370
    15
100
AcDbCircle
 10
-1144.2238372373
 20
86.1356919845
 30
0.0
 40
1.500000000000057
100
AcDbArc
 50
1.0
 51
90.0
  0
LINE
  5
44A
330
1F
100
AcDbEntity
  8
0
  6
Continuous
 62
     7
370
    15
100
AcDbLine
 10
-1123.0586798465
 20
2085.6356897297
 30
0.0
 11
-1125.058679243
 21
2085.6356897297
 31
0.0
  0
LINE
  5
44B
330
1F
100
AcDbEntity
  8
0
  6
Continuous
 62
     7
370
    15
100
AcDbLine
 10
-1125.058679243
 20
2055.6356885376
 30
0.0
 11
-1123.0586798465
 21
2055.6356885376
 31
0.0
  0
LINE
  5
44C
330
1F
100
AcDbEntity
  8
0
  6
Continuous
 62
     7
370
    15
100
AcDbLine
 10
-1123.0586798465
 20
2055.6356885376
 30
0.0
 11
-1121.0586795187
 21
2057.6356925908
 31
0.0
  0
LINE
  5
44D
330
1F
100
AcDbEntity
  8
0
  6
Continuous
 62
     7
370
    15
100
AcDbLine
 10
-1121.0586795187
 20
2083.6356931272
 30
0.0
 11
-1123.0586798465
 21
2085.6356897297
 31
0.0
  0
LINE
  5
44E
330
1F
100
AcDbEntity
  8
0
  6
Continuous
 62
     7
370
    15
100
AcDbLine
 10
-1123.0586798465
 20
2000.6356888357
 30
0.0
 11
-1121.0586795187
 21
2002.6356928888
 31
0.0
  0
LINE
  5
44F
330
1F
100
AcDbEntity
  8
0
  6
Continuous
 62
     7
370
    15
100
AcDbLine
 10
-1121.0586795187
 20
2028.6356859746
 30
0.0
 11
-1123.0586798465
 21
2030.6356900278
 31
0.0
  0
LINE
  5
450
330
1F
100
AcDbEntity
  8
0
  6
Continuous
 62
     7
370
    15
100
AcDbLine
 10
-1123.0586798465
 20
2030.6356900278
 30
0.0
 11
-1125.058679243
 21
2030.6356900278
 31
0.0
  0
LINE
  5
451
330
1F
100
AcDbEntity
  8
0
  6
Continuous
 62
     7
370
    15
100
AcDbLine
 10
-1125.058679243
 20
2000.6356888357
 30
0.0
 11
-1123.0586798465
 21
2000.6356888357
 31
0.0
  0
LINE
  5
452
330
1F
100
AcDbEntity
  8
0
  6
Continuous
 62
     7
370
    15
100
AcDbLine
 10
-1154.5959854102
 20
2169.7142032812
 30
0.0
 11
-1154.6541446424
 21
2169.7142032812
 31
0.0
  0
LINE
  5
453
330
1F
100
AcDbEntity
  8
0
  6
Continuous
 62
     7
370
    15
100
AcDbLine
 10
-1154.7007442987
 20
2154.8142034466
 30
0.0
 11
-1154.5959854102
 21
2154.8142034466
 31
0.0
  0
LINE
  5
454
330
1F
100
AcDbEntity
  8
0
  6
Continuous
 62
     7
370
    15
100
AcDbLine
 10
-1114.0586797683
 20
2169.7642031963
 30
0.0
 11
-1129.5586799806
 21
2169.7642031963
 31
0.0
  0
LINE
  5
455
330
1F
100
AcDbEntity
  8
0
  6
Continuous
 62
     7
370
    15
100
AcDbLine
 10
-1129.5586799806
 20
2154.7642035316
 30
0.0
 11
-1114.0586797683
 21
2154.7642035316
 31
0.0
  0
LINE
  5
456
330
1F
100
AcDbEntity
  8
0
  6
Continuous
 62
     7
370
    15
100
AcDbLine
 10
-1110.0586795783
 20
2192.2642026934
 30
0.0
 11
-1112.0586796733
 21
2192.2642026934
 31
0.0
  0
LINE
  5
457
330
1F
100
AcDbEntity
  8
0
  6
Continuous
 62
     7
370
    15
100
AcDbLine
 10
-1112.0586796733
 20
2132.2642040345
 30
0.0
 11
-1110.0586795783
 21
2132.2642040345
 31
0.0
  0
LINE
  5
458
330
1F
100
AcDbEntity
  8
0
  6
Continuous
 62
     7
370
    15
100
AcDbLine
 10
-1112.0586796733
 20
2192.2642026934
 30
0.0
 11
-1114.0586797683
 21
2177.2642030287
 31
0.0
  0
LINE
  5
459
330
1F
100
AcDbEntity
  8
0
  6
Continuous
 62
     7
370
    15
100
AcDbLine
 10
-1114.0586797683
 20
2147.2642036992
 30
0.0
 11
-1112.0586796733
 21
2132.2642040345
 31
0.0
  0
CIRCLE
  5
45A
330
1F
100
AcDbEntity
  8
0
  6
Continuous
 62
     7
370
    15
100
AcDbCircle
 10
-1144.5586795783
 20
2162.2642033639
 30
0.0
 40
11.49999999999977
  0
CIRCLE
  5
45B
330
1F
100
AcDbEntity
  8
0
  6
Continuous
 62
     7
370
    15
100
AcDbCircle
 10
-1144.5586795783
 20
2162.2642033639
 30
0.0
 40
12.5
  0
CIRCLE
  5
45C
330
1F
100
AcDbEntity
  8
0
  6
Continuous
 62
     7
370
    15
100
AcDbCircle
 10
-1166.5586795783
 20
2148.2642033639
 30
0.0
 40
8.475000000000119
  0
CIRCLE
  5
45D
330
1F
100
AcDbEntity
  8
0
  6
Continuous
 62
     7
370
    15
100
AcDbCircle
 10
-1166.5586795783
 20
2148.2642033639
 30
0.0
 40
8.174999999999862
  0
CIRCLE
  5
45E
330
1F
100
AcDbEntity
  8
0
  6
Continuous
 62
     7
370
    15
100
AcDbCircle
 10
-1166.5586795783
 20
2148.2642033639
 30
0.0
 40
1.000000000000045
  0
LINE
  5
45F
330
1F
100
AcDbEntity
  8
0
  6
Continuous
 62
     7
370
    15
100
AcDbLine
 10
-1180.0586798763
 20
2165.8650938793
 30
0.0
 11
-1180.0586798763
 21
2137.2642029914
 31
0.0
  0
LINE
  5
460
330
1F
100
AcDbEntity
  8
0
  6
Continuous
 62
     7
370
    15
100
AcDbLine
 10
-1180.0586798763
 20
2177.2642030287
 30
0.0
 11
-1180.0586798763
 21
2165.8650938793
 31
0.0
  0
LINE
  5
461
330
1F
100
AcDbEntity
  8
0
  6
Continuous
 62
     7
370
    15
100
AcDbLine
 10
-1177.2586771822
 20
2165.8650938793
 30
0.0
 11
-1177.2586771822
 21
2177.2642030287
 31
0.0
  0
LINE
  5
462
330
1F
100
AcDbEntity
  8
0
  6
Continuous
 62
     7
370
    15
100
AcDbLine
 10
-1177.2586771822
 20
2137.2642029914
 30
0.0
 11
-1177.2586771822
 21
2165.8650938793
 31
0.0
  0
LINE
  5
463
330
1F
100
AcDbEntity
  8
0
  6
Continuous
 62
     7
370
    15
100
AcDbLine
 10
-1182.0586764789
 20
2165.0050049088
 30
0.0
 11
-1182.0586764789
 21
2175.2642036322
 31
0.0
  0
LINE
  5
464
330
1F
100
AcDbEntity
  8
0
  6
Continuous
 62
     7
370
    15
100
AcDbLine
 10
-1182.0586764789
 20
2139.2642033192
 30
0.0
 11
-1182.0586764789
 21
2165.0050049088
 31
0.0
  0
LINE
  5
465
330
1F
100
AcDbEntity
  8
0
  6
Continuous
 62
     7
370
    15
100
AcDbLine
 10
-1177.0586812472
 20
2165.7790850754
 30
0.0
 11
-1177.0586812472
 21
2137.4642026517
 31
0.0
  0
LINE
  5
466
330
1F
100
AcDbEntity
  8
0
  6
Continuous
 62
     7
370
    15
100
AcDbLine
 10
-1177.0586812472
 20
2177.0642033684
 30
0.0
 11
-1177.0586812472
 21
2165.7790850754
 31
0.0
  0
SPLINE
  5
467
330
1F
100
AcDbEntity
  8
0
  6
Continuous
 62
     7
370
    15
100
AcDbSpline
210
0.0
220
0.0
230
1.0
 70
    11
 71
     3
 72
    26
 73
    22
 74
     0
 42
0.000000001
 43
0.00000001
 40
0.0
 40
0.0
 40
0.0
 40
0.0
 40
0.0751736728850269
 40
0.1425818107827843
 40
0.1925174943024445
 40
0.2339905974779408
 40
0.2756139312271111
 40
0.3140657281568945
 40
0.3554834273409654
 40
0.4049589716408427
 40
0.4648633563034559
 40
0.5321629418325228
 40
0.5983291562229152
 40
0.6571672764792412
 40
0.7090965639976794
 40
0.7570947031939086
 40
0.8035152241730243
 40
0.8499265888651342
 40
0.897719491384735
 40
0.9485263744544529
 40
1.0
 40
1.0
 40
1.0
 40
1.0
 10
-1149.308680889609
 20
2147.26420369921
 30
0.0
 10
-1149.360053954932
 20
2146.862937884895
 30
0.0
 10
-1149.457493183296
 20
2146.101857519729
 30
0.0
 10
-1150.103141083642
 20
2145.252359897469
 30
0.0
 10
-1150.863622320861
 20
2144.742057260631
 30
0.0
 10
-1151.649367422462
 20
2144.507473898214
 30
0.0
 10
-1152.421817908949
 20
2144.503630366288
 30
0.0
 10
-1153.143611351265
 20
2144.703451641931
 30
0.0
 10
-1153.79483785646
 20
2145.085267903301
 30
0.0
 10
-1154.370501817154
 20
2145.689132787719
 30
0.0
 10
-1154.777646542499
 20
2146.546341415323
 30
0.0
 10
-1154.862300991464
 20
2147.595908653543
 30
0.0
 10
-1154.521375937563
 20
2148.64273474584
 30
0.0
 10
-1153.825260132257
 20
2149.452312426472
 30
0.0
 10
-1152.952711133164
 20
2149.920898121663
 30
0.0
 10
-1152.037689216411
 20
2150.062093695298
 30
0.0
 10
-1151.161407771708
 20
2149.911822083716
 30
0.0
 10
-1150.387457694703
 20
2149.504721410895
 30
0.0
 10
-1149.77997833491
 20
2148.880176992551
 30
0.0
 10
-1149.381178080528
 20
2148.100728991571
 30
0.0
 10
-1149.332951412667
 20
2147.544254638285
 30
0.0
 10
-1149.308680889609
 20
2147.26420369921
 30
0.0
  0
LINE
  5
468
330
1F
100
AcDbEntity
  8
0
  6
Continuous
 62
     7
370
    15
100
AcDbLine
 10
-1129.858679471
 20
2157.2642034757
 30
0.0
 11
-1129.858679471
 21
2177.2642030287
 31
0.0
  0
LINE
  5
469
330
1F
100
AcDbEntity
  8
0
  6
Continuous
 62
     7
370
    15
100
AcDbLine
 10
-1129.858679471
 20
2137.2642029914
 30
0.0
 11
-1129.858679471
 21
2157.2642034757
 31
0.0
  0
LINE
  5
46A
330
1F
100
AcDbEntity
  8
0
  6
Continuous
 62
     7
370
    15
100
AcDbLine
 10
-1176.7586761689
 20
2157.2642034757
 30
0.0
 11
-1176.7586761689
 21
2137.2642029914
 31
0.0
  0
LINE
  5
46B
330
1F
100
AcDbEntity
  8
0
  6
Continuous
 62
     7
370
    15
100
AcDbLine
 10
-1176.7586761689
 20
2177.2642030287
 30
0.0
 11
-1176.7586761689
 21
2157.2642034757
 31
0.0
  0
SPLINE
  5
46C
330
1F
100
AcDbEntity
  8
0
  6
Continuous
 62
     7
370
    15
100
AcDbSpline
210
0.0
220
0.0
230
1.0
 70
    11
 71
     3
 72
    30
 73
    26
 74
     0
 42
0.000000001
 43
0.00000001
 40
0.0
 40
0.0
 40
0.0
 40
0.0
 40
0.0308938992260097
 40
0.0618246093829741
 40
0.1230492043119818
 40
0.160456037736296
 40
0.1978011355509066
 40
0.2302272270021285
 40
0.2630166336001538
 40
0.2910105618955994
 40
0.3237643707232828
 40
0.3801488706161152
 40
0.419675660065325
 40
0.4591868237427918
 40
0.5212143966861011
 40
0.5725871580443355
 40
0.6241650221123138
 40
0.6710340229501739
 40
0.7175556226322082
 40
0.765415927121136
 40
0.813885906153965
 40
0.8623874711409611
 40
0.9104152828963306
 40
0.9570796073055928
 40
1.0
 40
1.0
 40
1.0
 40
1.0
 10
-1158.058679995539
 20
2148.2642029318
 30
0.0
 10
-1158.089080365964
 20
2147.730307205587
 30
0.0
 10
-1158.149917329692
 20
2146.661879601711
 30
0.0
 10
-1158.727661822082
 20
2144.725269634697
 30
0.0
 10
-1159.771986661651
 20
2142.980145151488
 30
0.0
 10
-1161.264518928022
 20
2141.537120844048
 30
0.0
 10
-1162.697550275045
 20
2140.62888677812
 30
0.0
 10
-1164.326686109727
 20
2139.998485927242
 30
0.0
 10
-1166.111233356716
 20
2139.709828790799
 30
0.0
 10
-1167.981534355792
 20
2139.822334828518
 30
0.0
 10
-1170.02327393261
 20
2140.387795174761
 30
0.0
 10
-1171.784214657564
 20
2141.440588096147
 30
0.0
 10
-1173.245869272904
 20
2142.912167736615
 30
0.0
 10
-1174.423005415877
 20
2144.752227336658
 30
0.0
 10
-1175.160254486905
 20
2147.183347476561
 30
0.0
 10
-1175.010550529404
 20
2150.162999592611
 30
0.0
 10
-1173.908438515948
 20
2152.851305350056
 30
0.0
 10
-1171.990429784268
 20
2154.996173881512
 30
0.0
 10
-1169.541489085147
 20
2156.387689160848
 30
0.0
 10
-1166.739692766671
 20
2156.922520165111
 30
0.0
 10
-1163.878358104177
 20
2156.501510849866
 30
0.0
 10
-1161.310551457687
 20
2155.155074480404
 30
0.0
 10
-1159.37679777397
 20
2153.077116891566
 30
0.0
 10
-1158.239584863669
 20
2150.636768289912
 30
0.0
 10
-1158.117277795973
 20
2149.032712440743
 30
0.0
 10
-1158.058679995539
 20
2148.2642029318
 30
0.0
  0
LINE
  5
46D
330
1F
100
AcDbEntity
  8
0
  6
Continuous
 62
     7
370
    15
100
AcDbLine
 10
-1129.5586799806
 20
2157.2642034757
 30
0.0
 11
-1129.5586799806
 21
2137.5642024818
 31
0.0
  0
LINE
  5
46E
330
1F
100
AcDbEntity
  8
0
  6
Continuous
 62
     7
370
    15
100
AcDbLine
 10
-1129.5586799806
 20
2176.9642035383
 30
0.0
 11
-1129.5586799806
 21
2157.2642034757
 31
0.0
  0
CIRCLE
  5
46F
330
1F
100
AcDbEntity
  8
0
  6
Continuous
 62
     7
370
    15
100
AcDbCircle
 10
-1152.0586795783
 20
2147.2642033639
 30
0.0
 40
2.524999999999864
  0
CIRCLE
  5
470
330
1F
100
AcDbEntity
  8
0
  6
Continuous
 62
     7
370
    15
100
AcDbCircle
 10
-1152.0586795783
 20
2147.2642033639
 30
0.0
 40
2.099999999999909
  0
LINE
  5
471
330
1F
100
AcDbEntity
  8
0
  6
Continuous
 62
     7
370
    15
100
AcDbLine
 10
-1131.0586792952
 20
2213.6356734577
 30
0.0
 11
-1131.0586792952
 21
2187.6356747839
 31
0.0
  0
LINE
  5
472
330
1F
100
AcDbEntity
  8
0
  6
Continuous
 62
     7
370
    15
100
AcDbLine
 10
-1133.058679623
 20
2185.635674456
 30
0.0
 11
-1133.058679623
 21
2215.6356737855
 31
0.0
  0
LINE
  5
473
330
1F
100
AcDbEntity
  8
0
  6
Continuous
 62
     7
370
    15
100
AcDbLine
 10
-1134.0586797869
 20
2203.4268730226
 30
0.0
 11
-1134.0586797869
 21
2185.635674456
 31
0.0
  0
LINE
  5
474
330
1F
100
AcDbEntity
  8
0
  6
Continuous
 62
     7
370
    15
100
AcDbLine
 10
-1134.0586797869
 20
2215.6356737855
 30
0.0
 11
-1134.0586797869
 21
2203.4268730226
 31
0.0
  0
LINE
  5
475
330
1F
100
AcDbEntity
  8
0
  6
Continuous
 62
     7
370
    15
100
AcDbLine
 10
-1154.0586793399
 20
2215.3356724325
 30
0.0
 11
-1154.0586793399
 21
2185.9356739464
 31
0.0
  0
LINE
  5
476
330
1F
100
AcDbEntity
  8
0
  6
Continuous
 62
     7
370
    15
100
AcDbLine
 10
-1154.3586806929
 20
2185.635674456
 30
0.0
 11
-1154.3586806929
 21
2215.6356737855
 31
0.0
  0
LINE
  5
477
330
1F
100
AcDbEntity
  8
0
  6
Continuous
 62
     7
370
    15
100
AcDbLine
 10
-1160.7586809969
 20
2215.6356737855
 30
0.0
 11
-1160.7586809969
 21
2185.635674456
 31
0.0
  0
LINE
  5
478
330
1F
100
AcDbEntity
  8
0
  6
Continuous
 62
     7
370
    15
100
AcDbLine
 10
-1153.1886787689
 20
2229.5856752339
 30
0.0
 11
-1153.1886787689
 21
2177.2642030287
 31
0.0
  0
LINE
  5
479
330
1F
100
AcDbEntity
  8
0
  6
Continuous
 62
     7
370
    15
100
AcDbLine
 10
-1153.6886797822
 20
2229.5856752339
 30
0.0
 11
-1153.6886797822
 21
2177.2642030287
 31
0.0
  0
LINE
  5
47A
330
1F
100
AcDbEntity
  8
0
  6
Continuous
 62
     7
370
    15
100
AcDbLine
 10
-1134.4286793447
 20
2177.2642030287
 30
0.0
 11
-1134.4286793447
 21
2229.5856752339
 31
0.0
  0
LINE
  5
47B
330
1F
100
AcDbEntity
  8
0
  6
Continuous
 62
     7
370
    15
100
AcDbLine
 10
-1134.9286803579
 20
2177.2642030287
 30
0.0
 11
-1134.9286803579
 21
2229.5856752339
 31
0.0
  0
LINE
  5
47C
330
1F
100
AcDbEntity
  8
0
  6
Continuous
 62
     7
370
    15
100
AcDbLine
 10
-1136.0586801147
 20
2137.2642029914
 30
0.0
 11
-1136.0586801147
 21
2133.6356733832
 31
0.0
  0
LINE
  5
47D
330
1F
100
AcDbEntity
  8
0
  6
Continuous
 62
     7
370
    15
100
AcDbLine
 10
-1148.0586783564
 20
2133.6356733832
 30
0.0
 11
-1148.0586783564
 21
2137.2642029914
 31
0.0
  0
LINE
  5
47E
330
1F
100
AcDbEntity
  8
0
  6
Continuous
 62
     7
370
    15
100
AcDbLine
 10
-1158.5586810088
 20
2137.2642029914
 30
0.0
 11
-1158.5586810088
 21
2135.5356738809
 31
0.0
  0
LINE
  5
47F
330
1F
100
AcDbEntity
  8
0
  6
Continuous
 62
     7
370
    15
100
AcDbLine
 10
-1148.5586793697
 20
2137.2642029914
 30
0.0
 11
-1148.5586793697
 21
2135.5356738809
 31
0.0
  0
LINE
  5
480
330
1F
100
AcDbEntity
  8
0
  6
Continuous
 62
     7
370
    15
100
AcDbLine
 10
-1159.0586782968
 20
2137.2642029914
 30
0.0
 11
-1159.0586782968
 21
2133.6356733832
 31
0.0
  0
LINE
  5
481
330
1F
100
AcDbEntity
  8
0
  6
Continuous
 62
     7
370
    15
100
AcDbLine
 10
-1173.0586805916
 20
2137.2642029914
 30
0.0
 11
-1173.0586805916
 21
2125.6356739345
 31
0.0
  0
LINE
  5
482
330
1F
100
AcDbEntity
  8
0
  6
Continuous
 62
     7
370
    15
100
AcDbLine
 10
-1175.0586771941
 20
2127.6356742623
 30
0.0
 11
-1175.0586771941
 21
2137.2642029914
 31
0.0
  0
LINE
  5
483
330
1F
100
AcDbEntity
  8
0
  6
Continuous
 62
     7
370
    15
100
AcDbLine
 10
-1165.0586792803
 20
75.6357663217
 30
0.0
 11
-1165.0586792803
 21
2125.6356925609
 31
0.0
  0
LINE
  5
484
330
1F
100
AcDbEntity
  8
0
  6
Continuous
 62
     7
370
    15
100
AcDbLine
 10
-1165.0586792803
 20
2125.6356925609
 30
0.0
 11
-1125.058679243
 21
2125.6356925609
 31
0.0
  0
LINE
  5
485
330
1F
100
AcDbEntity
  8
0
  6
Continuous
 62
     7
370
    15
100
AcDbLine
 10
-1125.058679243
 20
75.6357663217
 30
0.0
 11
-1125.058679243
 21
2125.6356925609
 31
0.0
  0
LINE
  5
486
330
1F
100
AcDbEntity
  8
0
  6
Continuous
 62
     7
370
    15
100
AcDbLine
 10
-1141.5586800849
 20
95.6357472482
 30
0.0
 11
-1141.5586800849
 21
75.6357663217
 31
0.0
  0
LINE
  5
487
330
1F
100
AcDbEntity
  8
0
  6
Continuous
 62
     7
370
    15
100
AcDbLine
 10
-1141.5586800849
 20
95.6357472482
 30
0.0
 11
-1148.5586793697
 21
95.6357472482
 31
0.0
  0
LINE
  5
488
330
1F
100
AcDbEntity
  8
0
  6
Continuous
 62
     7
370
    15
100
AcDbLine
 10
-1148.5586793697
 20
95.6357472482
 30
0.0
 11
-1148.5586793697
 21
75.6357663217
 31
0.0
  0
LINE
  5
489
330
1F
100
AcDbEntity
  8
0
  6
Continuous
 62
     7
370
    15
100
AcDbLine
 10
-1165.0586792803
 20
75.6357663217
 30
0.0
 11
-1148.5586793697
 21
75.6357663217
 31
0.0
  0
LINE
  5
48A
330
1F
100
AcDbEntity
  8
0
  6
Continuous
 62
     7
370
    15
100
AcDbLine
 10
-1141.5586800849
 20
75.6357663217
 30
0.0
 11
-1125.058679243
 21
75.6357663217
 31
0.0
  0
LINE
  5
48B
330
1F
100
AcDbEntity
  8
0
  6
Continuous
 62
     7
370
    15
100
AcDbLine
 10
-1173.0586805916
 20
2215.6356737855
 30
0.0
 11
-1173.0586805916
 21
2185.635674456
 31
0.0
  0
LINE
  5
48C
330
1F
100
AcDbEntity
  8
0
  6
Continuous
 62
     7
370
    15
100
AcDbLine
 10
-1175.0586771941
 20
2187.6356747839
 30
0.0
 11
-1175.0586771941
 21
2213.6356734577
 31
0.0
  0
LINE
  5
48D
330
1F
100
AcDbEntity
  8
0
  6
Continuous
 62
     7
370
    15
100
AcDbLine
 10
-1171.0586802638
 20
2215.6356737855
 30
0.0
 11
-1171.0586802638
 21
2200.6356731894
 31
0.0
  0
LINE
  5
48E
330
1F
100
AcDbEntity
  8
0
  6
Continuous
 62
     7
370
    15
100
AcDbLine
 10
-1164.85867962
 20
2215.6356737855
 30
0.0
 11
-1164.85867962
 21
2185.635674456
 31
0.0
  0
LINE
  5
48F
330
1F
100
AcDbEntity
  8
0
  6
Continuous
 62
     7
370
    15
100
AcDbLine
 10
-1161.2586782849
 20
2185.635674456
 30
0.0
 11
-1161.2586782849
 21
2215.6356737855
 31
0.0
  0
LINE
  5
490
330
1F
100
AcDbEntity
  8
0
  6
Continuous
 62
     7
370
    15
100
AcDbLine
 10
-1161.0586786246
 20
2215.4356741252
 30
0.0
 11
-1161.0586786246
 21
2185.8356741163
 31
0.0
  0
LINE
  5
491
330
1F
100
AcDbEntity
  8
0
  6
Continuous
 62
     7
370
    15
100
AcDbLine
 10
-1152.0903551555
 20
2172.2403687331
 30
0.0
 11
-1152.0903551555
 21
2172.289086217
 31
0.0
  0
LINE
  5
492
330
1F
100
AcDbEntity
  8
0
  6
Continuous
 62
     7
370
    15
100
AcDbLine
 10
-1152.0903551555
 20
2177.2642030287
 30
0.0
 11
-1152.0903551555
 21
2229.6356760803
 31
0.0
  0
LINE
  5
493
330
1F
100
AcDbEntity
  8
0
  6
Continuous
 62
     7
370
    15
100
AcDbLine
 10
-1136.0791077441
 20
2219.1593476477
 30
0.0
 11
-1136.0791077441
 21
2177.2642030287
 31
0.0
  0
LINE
  5
494
330
1F
100
AcDbEntity
  8
0
  6
Continuous
 62
     7
370
    15
100
AcDbLine
 10
-1136.0791077441
 20
2229.6356760803
 30
0.0
 11
-1136.0791077441
 21
2219.1593476477
 31
0.0
  0
LINE
  5
495
330
1F
100
AcDbEntity
  8
0
  6
Continuous
 62
     7
370
    15
100
AcDbLine
 10
-1135.0586799508
 20
2229.6356760803
 30
0.0
 11
-1135.0586799508
 21
2177.2642030287
 31
0.0
  0
LINE
  5
496
330
1F
100
AcDbEntity
  8
0
  6
Continuous
 62
     7
370
    15
100
AcDbLine
 10
-1153.0586810386
 20
2229.6356760803
 30
0.0
 11
-1153.0586810386
 21
2177.2642030287
 31
0.0
  0
LINE
  5
497
330
1F
100
AcDbEntity
  8
0
  6
Continuous
 62
     7
370
    15
100
AcDbLine
 10
-1171.0586802638
 20
2071.8594171944
 30
0.0
 11
-1171.0586802638
 21
2069.4119685235
 31
0.0
  0
LINE
  5
498
330
1F
100
AcDbEntity
  8
0
  6
Continuous
 62
     7
370
    15
100
AcDbLine
 10
-1173.0586805916
 20
2085.6356897297
 30
0.0
 11
-1173.0586805916
 21
2055.6356885376
 31
0.0
  0
LINE
  5
499
330
1F
100
AcDbEntity
  8
0
  6
Continuous
 62
     7
370
    15
100
AcDbLine
 10
-1175.0586771941
 20
2057.6356925908
 30
0.0
 11
-1175.0586771941
 21
2083.6356931272
 31
0.0
  0
LINE
  5
49A
330
1F
100
AcDbEntity
  8
0
  6
Continuous
 62
     7
370
    15
100
AcDbLine
 10
-1171.0586802638
 20
2016.8594174924
 30
0.0
 11
-1171.0586802638
 21
2014.411961371
 31
0.0
  0
LINE
  5
49B
330
1F
100
AcDbEntity
  8
0
  6
Continuous
 62
     7
370
    15
100
AcDbLine
 10
-1173.0586805916
 20
2030.6356900278
 30
0.0
 11
-1173.0586805916
 21
2000.6356888357
 31
0.0
  0
LINE
  5
49C
330
1F
100
AcDbEntity
  8
0
  6
Continuous
 62
     7
370
    15
100
AcDbLine
 10
-1175.0586771941
 20
2002.6356928888
 30
0.0
 11
-1175.0586771941
 21
2028.6356859746
 31
0.0
  0
LINE
  5
49D
330
1F
100
AcDbEntity
  8
0
  6
Continuous
 62
     7
370
    15
100
AcDbLine
 10
-1165.0586792803
 20
2200.6356731894
 30
0.0
 11
-1171.0586802638
 21
2200.6356731894
 31
0.0
  0
LINE
  5
49E
330
1F
100
AcDbEntity
  8
0
  6
Continuous
 62
     7
370
    15
100
AcDbLine
 10
-1165.0586792803
 20
2011.6356813255
 30
0.0
 11
-1171.0586802638
 21
2011.6356813255
 31
0.0
  0
LINE
  5
49F
330
1F
100
AcDbEntity
  8
0
  6
Continuous
 62
     7
370
    15
100
AcDbLine
 10
-1165.0586792803
 20
2200.6356731894
 30
0.0
 11
-1165.0586792803
 21
2177.2642030287
 31
0.0
  0
LINE
  5
4A0
330
1F
100
AcDbEntity
  8
0
  6
Continuous
 62
     7
370
    15
100
AcDbLine
 10
-1165.0586792803
 20
2137.2642029914
 30
0.0
 11
-1165.0586792803
 21
2125.6356925609
 31
0.0
  0
LINE
  5
4A1
330
1F
100
AcDbEntity
  8
0
  6
Continuous
 62
     7
370
    15
100
AcDbLine
 10
-1171.0586802638
 20
2200.6356731894
 30
0.0
 11
-1171.0586802638
 21
2177.2642030287
 31
0.0
  0
LINE
  5
4A2
330
1F
100
AcDbEntity
  8
0
  6
Continuous
 62
     7
370
    15
100
AcDbLine
 10
-1171.0586802638
 20
2137.2642029914
 30
0.0
 11
-1171.0586802638
 21
2071.8594171944
 31
0.0
  0
LINE
  5
4A3
330
1F
100
AcDbEntity
  8
0
  6
Continuous
 62
     7
370
    15
100
AcDbLine
 10
-1171.0586802638
 20
2069.4119685235
 30
0.0
 11
-1171.0586802638
 21
2016.8594174924
 31
0.0
  0
LINE
  5
4A4
330
1F
100
AcDbEntity
  8
0
  6
Continuous
 62
     7
370
    15
100
AcDbLine
 10
-1171.0586802638
 20
2014.411961371
 30
0.0
 11
-1171.0586802638
 21
2011.6356813255
 31
0.0
  0
LINE
  5
4A5
330
1F
100
AcDbEntity
  8
0
  6
Continuous
 62
     7
370
    15
100
AcDbLine
 10
-1165.0586792803
 20
2215.6356737855
 30
0.0
 11
-1165.0586792803
 21
2200.6356731894
 31
0.0
  0
SPLINE
  5
4A6
330
1F
100
AcDbEntity
  8
0
  6
Continuous
 62
     7
370
    15
100
AcDbSpline
210
0.0
220
0.0
230
1.0
 70
     8
 71
     3
 72
    17
 73
    13
 74
     0
 42
0.000000001
 43
0.00000001
 40
0.0
 40
0.0
 40
0.0
 40
0.0
 40
0.1069331801662957
 40
0.2138500385054762
 40
0.321165273210036
 40
0.4287541500990384
 40
0.5359040699722951
 40
0.6425865569674525
 40
0.7495040811534673
 40
0.8569865764445839
 40
0.9644936399791364
 40
1.0
 40
1.0
 40
1.0
 40
1.0
 10
-1169.708679763081
 20
1996.635680729428
 30
0.0
 10
-1169.690548331218
 20
1996.637723750959
 30
0.0
 10
-1169.654288234999
 20
1996.641809482185
 30
0.0
 10
-1169.371788662549
 20
1996.670382398877
 30
0.0
 10
-1168.954835007885
 20
1996.702301981578
 30
0.0
 10
-1168.432569372195
 20
1996.72546373611
 30
0.0
 10
-1167.869488204738
 20
1996.729000927081
 30
0.0
 10
-1167.329860693136
 20
1996.711793367991
 30
0.0
 10
-1166.868339299506
 20
1996.680947972086
 30
0.0
 10
-1166.551919275626
 20
1996.651420030579
 30
0.0
 10
-1166.400494075422
 20
1996.634805596394
 30
0.0
 10
-1166.423573093007
 20
1996.637297284844
 30
0.0
 10
-1166.429302988055
 20
1996.637915903607
 30
0.0
  0
LINE
  5
4A7
330
1F
100
AcDbEntity
  8
0
  6
Continuous
 62
     7
370
    15
100
AcDbLine
 10
-1171.0586802638
 20
2011.6356813255
 30
0.0
 11
-1171.0586802638
 21
1996.6356807294
 31
0.0
  0
LINE
  5
4A8
330
1F
100
AcDbEntity
  8
0
  6
Continuous
 62
     7
370
    15
100
AcDbLine
 10
-1133.5586787736
 20
67.6356308999
 30
0.0
 11
-1133.5586787736
 21
71.6355794015
 31
0.0
  0
LINE
  5
4A9
330
1F
100
AcDbEntity
  8
0
  6
Continuous
 62
     7
370
    15
100
AcDbLine
 10
-1156.558680681
 20
67.6356308999
 30
0.0
 11
-1133.5586787736
 21
67.6356308999
 31
0.0
  0
LINE
  5
4AA
330
1F
100
AcDbEntity
  8
0
  6
Continuous
 62
     7
370
    15
100
AcDbLine
 10
-1156.558680681
 20
71.6355794015
 30
0.0
 11
-1156.558680681
 21
67.6356308999
 31
0.0
  0
LINE
  5
4AB
330
1F
100
AcDbEntity
  8
0
  6
Continuous
 62
     7
370
    15
100
AcDbLine
 10
-1156.558680681
 20
71.6355794015
 30
0.0
 11
-1133.5586787736
 21
71.6355794015
 31
0.0
  0
LINE
  5
4AC
330
1F
100
AcDbEntity
  8
0
  6
Continuous
 62
     7
370
    15
100
AcDbLine
 10
-1156.558680681
 20
67.6356308999
 30
0.0
 11
-1159.0586782968
 21
67.6356308999
 31
0.0
  0
LINE
  5
4AD
330
1F
100
AcDbEntity
  8
0
  6
Continuous
 62
     7
370
    15
100
AcDbLine
 10
-1159.0586782968
 20
67.6356308999
 30
0.0
 11
-1159.0586782968
 21
71.6355794015
 31
0.0
  0
LINE
  5
4AE
330
1F
100
AcDbEntity
  8
0
  6
Continuous
 62
     7
370
    15
100
AcDbLine
 10
-1159.0586782968
 20
71.6355794015
 30
0.0
 11
-1156.558680681
 21
71.6355794015
 31
0.0
  0
LINE
  5
4AF
330
1F
100
AcDbEntity
  8
0
  6
Continuous
 62
     7
370
    15
100
AcDbLine
 10
-1131.0586792952
 20
71.6355794015
 30
0.0
 11
-1131.0586792952
 21
67.6356308999
 31
0.0
  0
LINE
  5
4B0
330
1F
100
AcDbEntity
  8
0
  6
Continuous
 62
     7
370
    15
100
AcDbLine
 10
-1131.0586792952
 20
67.6356308999
 30
0.0
 11
-1133.5586787736
 21
67.6356308999
 31
0.0
  0
LINE
  5
4B1
330
1F
100
AcDbEntity
  8
0
  6
Continuous
 62
     7
370
    15
100
AcDbLine
 10
-1133.5586787736
 20
71.6355794015
 30
0.0
 11
-1131.0586792952
 21
71.6355794015
 31
0.0
  0
LINE
  5
4B2
330
1F
100
AcDbEntity
  8
0
  6
Continuous
 62
     7
370
    15
100
AcDbLine
 10
-1146.0042999661
 20
73.1094830575
 30
0.0
 11
-1144.1130594885
 21
73.1094830575
 31
0.0
  0
ARC
  5
4B3
330
1F
100
AcDbEntity
  8
0
  6
Continuous
 62
     7
370
    15
100
AcDbCircle
 10
-1142.6352623723
 20
73.113215487
 30
0.0
 40
1.477801829656611
100
AcDbArc
 50
180.1447099855
 51
269.1418706041
  0
ARC
  5
4B4
330
1F
100
AcDbEntity
  8
0
  6
Continuous
 62
     7
370
    15
100
AcDbCircle
 10
-1147.4820971787
 20
73.1132155262
 30
0.0
 40
1.477801926159615
100
AcDbArc
 50
270.8582775272
 51
359.8552885016
  0
LINE
  5
4B5
330
1F
100
AcDbEntity
  8
0
  6
Continuous
 62
     7
370
    15
100
AcDbLine
 10
-1145.7831704593
 20
86.161946589
 30
0.0
 11
-1146.0042999661
 21
73.1094830575
 31
0.0
  0
SPLINE
  5
4B6
330
1F
100
AcDbEntity
  8
0
  6
Continuous
 62
     7
370
    15
100
AcDbSpline
210
0.0
220
0.0
230
1.0
 70
     8
 71
     3
 72
    15
 73
    11
 74
     0
 42
0.000000001
 43
0.00000001
 40
0.0
 40
0.0
 40
0.0
 40
0.0
 40
0.1416494495298136
 40
0.272183735083346
 40
0.3916187006460293
 40
0.5000023219355014
 40
0.6083766032001805
 40
0.7278098664760286
 40
0.8583481829632152
 40
1.0
 40
1.0
 40
1.0
 40
1.0
 10
-1144.334188995364
 20
86.16194658903153
 30
0.0
 10
-1144.366721770964
 20
86.16817245453467
 30
0.0
 10
-1144.429234490956
 20
86.18013564487659
 30
0.0
 10
-1144.621556964152
 20
86.1931185174638
 30
0.0
 10
-1144.836575255545
 20
86.20087753670869
 30
0.0
 10
-1145.058673584064
 20
86.20394274286691
 30
0.0
 10
-1145.280770620357
 20
86.20087740608918
 30
0.0
 10
-1145.495781782858
 20
86.19311821683584
 30
0.0
 10
-1145.688113459498
 20
86.1801358093326
 30
0.0
 10
-1145.750633891334
 20
86.16817248300524
 30
0.0
 10
-1145.783170459273
 20
86.16194658903153
 30
0.0
  0
LINE
  5
4B7
330
1F
100
AcDbEntity
  8
0
  6
Continuous
 62
     7
370
    15
100
AcDbLine
 10
-1144.3341889954
 20
86.161946589
 30
0.0
 11
-1144.1130594885
 21
73.1094830575
 31
0.0
  0
SPLINE
  5
4B8
330
1F
100
AcDbEntity
  8
0
  6
Continuous
 62
     7
370
    15
100
AcDbSpline
210
0.0
220
0.0
230
1.0
 70
     8
 71
     3
 72
    12
 73
     8
 74
     0
 42
0.000000001
 43
0.00000001
 40
0.0
 40
0.0
 40
0.0
 40
0.0
 40
0.0631756655239048
 40
0.1343773362772125
 40
0.2518919371238068
 40
0.4992458265685845
 40
1.0
 40
1.0
 40
1.0
 40
1.0
 10
-1144.334188995364
 20
86.16194658903153
 30
0.0
 10
-1144.338367822444
 20
86.25527869385219
 30
0.0
 10
-1144.347256365954
 20
86.45380006328973
 30
0.0
 10
-1144.399801055843
 20
86.76448292641336
 30
0.0
 10
-1144.515420497944
 20
87.15281798827435
 30
0.0
 10
-1144.76470387939
 20
87.5690087451988
 30
0.0
 10
-1144.940804730014
 20
87.60890610189142
 30
0.0
 10
-1145.058679727318
 20
87.63561182645829
 30
0.0
  0
SPLINE
  5
4B9
330
1F
100
AcDbEntity
  8
0
  6
Continuous
 62
     7
370
    15
100
AcDbSpline
210
0.0
220
0.0
230
1.0
 70
     8
 71
     3
 72
    13
 73
     9
 74
     0
 42
0.000000001
 43
0.00000001
 40
0.0
 40
0.0
 40
0.0
 40
0.0
 40
0.5005441579654757
 40
0.7471628653476863
 40
0.8581029049025103
 40
0.9218263637925899
 40
0.9619416701467608
 40
1.0
 40
1.0
 40
1.0
 40
1.0
 10
-1145.058679727318
 20
87.63561182645829
 30
0.0
 10
-1145.176667782548
 20
87.60899622004969
 30
0.0
 10
-1145.352788694198
 20
87.5692670724193
 30
0.0
 10
-1145.599297963198
 20
87.15629122907065
 30
0.0
 10
-1145.712156886958
 20
86.78542789997911
 30
0.0
 10
-1145.757239936725
 20
86.52896590279613
 30
0.0
 10
-1145.777514599323
 20
86.33344380996877
 30
0.0
 10
-1145.781318536855
 20
86.21810065769719
 30
0.0
 10
-1145.783170459273
 20
86.16194658903153
 30
0.0
  0
LINE
  5
4BA
330
1F
100
AcDbEntity
  8
0
  6
Continuous
 62
     7
370
    15
100
AcDbLine
 10
-1145.8935210085
 20
87.6356118265
 30
0.0
 11
-1145.0586797273
 21
87.6356118265
 31
0.0
  0
LINE
  5
4BB
330
1F
100
AcDbEntity
  8
0
  6
Continuous
 62
     7
370
    15
100
AcDbLine
 10
-1145.0586797273
 20
87.6356118265
 30
0.0
 11
-1144.2238384461
 21
87.6356118265
 31
0.0
  0
LINE
  5
4BC
330
1F
100
AcDbEntity
  8
0
  6
Continuous
 62
     7
370
    15
100
AcDbLine
 10
-1123.0586798465
 20
2055.6356885376
 30
0.0
 11
-1123.0586798465
 21
2085.6356897297
 31
0.0
  0
LINE
  5
4BD
330
1F
100
AcDbEntity
  8
0
  6
Continuous
 62
     7
370
    15
100
AcDbLine
 10
-1121.0586795187
 20
2083.6356931272
 30
0.0
 11
-1121.0586795187
 21
2057.6356925908
 31
0.0
  0
LINE
  5
4BE
330
1F
100
AcDbEntity
  8
0
  6
Continuous
 62
     7
370
    15
100
AcDbLine
 10
-1123.0586798465
 20
2028.3195280376
 30
0.0
 11
-1123.0586798465
 21
2030.6356900278
 31
0.0
  0
LINE
  5
4BF
330
1F
100
AcDbEntity
  8
0
  6
Continuous
 62
     7
370
    15
100
AcDbLine
 10
-1123.0586798465
 20
2000.6356888357
 30
0.0
 11
-1123.0586798465
 21
2028.3195280376
 31
0.0
  0
LINE
  5
4C0
330
1F
100
AcDbEntity
  8
0
  6
Continuous
 62
     7
370
    15
100
AcDbLine
 10
-1121.0586795187
 20
2026.6283505502
 30
0.0
 11
-1121.0586795187
 21
2002.6356928888
 31
0.0
  0
LINE
  5
4C1
330
1F
100
AcDbEntity
  8
0
  6
Continuous
 62
     7
370
    15
100
AcDbLine
 10
-1121.0586795187
 20
2028.6356859746
 30
0.0
 11
-1121.0586795187
 21
2026.6283505502
 31
0.0
  0
LINE
  5
4C2
330
1F
100
AcDbEntity
  8
0
  6
Continuous
 62
     7
370
    15
100
AcDbLine
 10
-1110.0586795783
 20
2132.2642040345
 30
0.0
 11
-1110.0586795783
 21
2192.2642026934
 31
0.0
  0
LINE
  5
4C3
330
1F
100
AcDbEntity
  8
0
  6
Continuous
 62
     7
370
    15
100
AcDbLine
 10
-1112.0586796733
 20
2192.2642026934
 30
0.0
 11
-1112.0586796733
 21
2132.2642040345
 31
0.0
  0
LINE
  5
4C4
330
1F
100
AcDbEntity
  8
0
  6
Continuous
 62
     7
370
    15
100
AcDbLine
 10
-1114.0586797683
 20
2147.2642036992
 30
0.0
 11
-1114.0586797683
 21
2177.2642030287
 31
0.0
  0
LINE
  5
4C5
330
1F
100
AcDbEntity
  8
0
  6
Continuous
 62
     8
370
    15
100
AcDbLine
 10
-1137.0586802787
 20
2132.6356732192
 30
0.0
 11
-1137.0586802787
 21
2137.2642029914
 31
0.0
  0
LINE
  5
4C6
330
1F
100
AcDbEntity
  8
0
  6
Continuous
 62
     8
370
    15
100
AcDbLine
 10
-1147.0586800551
 20
2137.2642029914
 30
0.0
 11
-1147.0586800551
 21
2132.6356732192
 31
0.0
  0
LINE
  5
4C7
330
1F
100
AcDbEntity
  8
0
  6
Continuous
 62
     8
370
    15
100
AcDbLine
 10
-1160.0586803234
 20
2132.6356732192
 30
0.0
 11
-1160.0586803234
 21
2137.2642029914
 31
0.0
  0
LINE
  5
4C8
330
1F
100
AcDbEntity
  8
0
  6
Continuous
 62
     8
370
    15
100
AcDbLine
 10
-1144.1130594885
 20
73.1094830575
 30
0.0
 11
-1142.4962350702
 21
73.1094830575
 31
0.0
  0
LINE
  5
4C9
330
1F
100
AcDbEntity
  8
0
  6
Continuous
 62
     8
370
    15
100
AcDbLine
 10
-1147.6211243844
 20
73.1094830575
 30
0.0
 11
-1146.0042999661
 21
73.1094830575
 31
0.0
  0
LINE
  5
4CA
330
1F
100
AcDbEntity
  8
0
  6
Continuous
 62
     8
370
    15
100
AcDbLine
 10
-1145.7831704593
 20
86.161946589
 30
0.0
 11
-1147.3932930803
 21
86.161946589
 31
0.0
  0
LINE
  5
4CB
330
1F
100
AcDbEntity
  8
0
  6
Continuous
 62
     8
370
    15
100
AcDbLine
 10
-1142.7240663743
 20
86.161946589
 30
0.0
 11
-1144.3341889954
 21
86.161946589
 31
0.0
  0
ENDSEC
  0
SECTION
  2
OBJECTS
  0
DICTIONARY
  5
C
330
0
100
AcDbDictionary
281
     1
  3
ACAD_GROUP
350
D
  3
ACAD_LAYOUT
350
1A
  3
ACAD_MLINESTYLE
350
17
  3
ACAD_PLOTSETTINGS
350
19
  3
ACAD_PLOTSTYLENAME
350
E
  3
ACAD_SCALELIST
350
47
  0
DICTIONARY
  5
D
102
{ACAD_REACTORS
330
C
102
}
330
C
100
AcDbDictionary
281
     1
  0
DICTIONARY
  5
1A
102
{ACAD_REACTORS
330
C
102
}
330
C
100
AcDbDictionary
281
     1
  3
Layout1
350
1E
  3
Layout2
350
26
  3
Model
350
22
  0
DICTIONARY
  5
17
102
{ACAD_REACTORS
330
C
102
}
330
C
100
AcDbDictionary
281
     1
  3
Standard
350
18
  0
DICTIONARY
  5
19
102
{ACAD_REACTORS
330
C
102
}
330
C
100
AcDbDictionary
281
     1
  0
ACDBDICTIONARYWDFLT
  5
E
102
{ACAD_REACTORS
330
C
102
}
330
C
100
AcDbDictionary
281
     1
  3
Normal
350
F
100
AcDbDictionaryWithDefault
340
F
  0
DICTIONARY
  5
47
102
{ACAD_REACTORS
330
C
102
}
330
C
100
AcDbDictionary
281
     1
  3
A0
350
48
  3
A1
350
49
  3
A2
350
4A
  3
A3
350
4B
  3
A4
350
4C
  3
A5
350
4D
  3
A6
350
4E
  3
A7
350
4F
  3
A8
350
50
  3
A9
350
51
  3
B0
350
52
  3
B1
350
53
  3
B2
350
54
  3
B3
350
55
  3
B4
350
56
  3
B5
350
57
  3
B6
350
58
  3
B7
350
59
  3
B8
350
5A
  3
B9
350
5B
  3
C0
350
5C
  3
C1
350
5D
  3
C2
350
5E
  3
C3
350
5F
  3
C4
350
60
  3
C5
350
61
  3
C6
350
62
  3
C7
350
63
  3
C8
350
64
  3
C9
350
65
  3
D0
350
66
  3
D1
350
67
  3
D2
350
68
  0
LAYOUT
  5
1E
102
{ACAD_REACTORS
330
1A
102
}
330
1A
100
AcDbPlotSettings
  1

  2
none_device
  4

  6

 40
0.0
 41
0.0
 42
0.0
 43
0.0
 44
0.0
 45
0.0
 46
0.0
 47
0.0
 48
0.0
 49
0.0
140
0.0
141
0.0
142
1.0
143
1.0
 70
   688
 72
     1
 73
     0
 74
     5
  7

 75
    16
147
1.0
148
0.0
149
0.0
100
AcDbLayout
  1
Layout1
 70
     1
 71
     1
 10
0.0
 20
0.0
 11
420.0
 21
297.0
 12
0.0
 22
0.0
 32
0.0
 14
1.0000000000E+20
 24
1.0000000000E+20
 34
1.0000000000E+20
 15
-1.0000000000E+20
 25
-1.0000000000E+20
 35
-1.0000000000E+20
146
0.0
 13
0.0
 23
0.0
 33
0.0
 16
1.0
 26
0.0
 36
0.0
 17
0.0
 27
1.0
 37
0.0
 76
     0
330
1B
  0
LAYOUT
  5
26
102
{ACAD_REACTORS
330
1A
102
}
330
1A
100
AcDbPlotSettings
  1

  2
none_device
  4

  6

 40
0.0
 41
0.0
 42
0.0
 43
0.0
 44
0.0
 45
0.0
 46
0.0
 47
0.0
 48
0.0
 49
0.0
140
0.0
141
0.0
142
1.0
143
1.0
 70
   688
 72
     1
 73
     0
 74
     5
  7

 75
    16
147
1.0
148
0.0
149
0.0
100
AcDbLayout
  1
Layout2
 70
     1
 71
     2
 10
0.0
 20
0.0
 11
0.0
 21
0.0
 12
0.0
 22
0.0
 32
0.0
 14
0.0
 24
0.0
 34
0.0
 15
0.0
 25
0.0
 35
0.0
146
0.0
 13
0.0
 23
0.0
 33
0.0
 16
1.0
 26
0.0
 36
0.0
 17
0.0
 27
1.0
 37
0.0
 76
     0
330
23
  0
LAYOUT
  5
22
102
{ACAD_REACTORS
330
1A
102
}
330
1A
100
AcDbPlotSettings
  1

  2
none_device
  4
Letter_(8.50_x_11.00_Inches)
  6

 40
6.35
 41
6.35
 42
6.35000508
 43
6.35000508
 44
215.9
 45
279.4
 46
0.0
 47
0.0
 48
0.0
 49
0.0
140
0.0
141
0.0
142
1.0
143
1.0
 70
  1712
 72
     1
 73
     0
 74
     0
  7

 75
     0
147
1.0
148
0.0
149
0.0
100
AcDbLayout
  1
Model
 70
     1
 71
     0
 10
0.0
 20
0.0
 11
431.8
 21
279.4
 12
0.0
 22
0.0
 32
0.0
 14
0.0
 24
0.0
 34
0.0
 15
431.8
 25
279.4
 35
0.0
146
0.0
 13
0.0
 23
0.0
 33
0.0
 16
1.0
 26
0.0
 36
0.0
 17
0.0
 27
1.0
 37
0.0
 76
     0
330
1F
331
29
  0
MLINESTYLE
  5
18
102
{ACAD_REACTORS
330
17
102
}
330
17
100
AcDbMlineStyle
  2
Standard
 70
     0
  3

 62
   256
 51
90.0
 52
90.0
 71
     2
 49
0.5
 62
   256
  6
BYLAYER
 49
-0.5
 62
   256
  6
BYLAYER
  0
ACDBPLACEHOLDER
  5
F
102
{ACAD_REACTORS
330
E
102
}
330
E
  0
SCALE
  5
48
102
{ACAD_REACTORS
330
47
102
}
330
47
100
AcDbScale
 70
     0
300
1:1
140
1.0
141
1.0
290
     1
  0
SCALE
  5
49
102
{ACAD_REACTORS
330
47
102
}
330
47
100
AcDbScale
 70
     0
300
1:2
140
1.0
141
2.0
290
     0
  0
SCALE
  5
4A
102
{ACAD_REACTORS
330
47
102
}
330
47
100
AcDbScale
 70
     0
300
1:4
140
1.0
141
4.0
290
     0
  0
SCALE
  5
4B
102
{ACAD_REACTORS
330
47
102
}
330
47
100
AcDbScale
 70
     0
300
1:5
140
1.0
141
5.0
290
     0
  0
SCALE
  5
4C
102
{ACAD_REACTORS
330
47
102
}
330
47
100
AcDbScale
 70
     0
300
1:8
140
1.0
141
8.0
290
     0
  0
SCALE
  5
4D
102
{ACAD_REACTORS
330
47
102
}
330
47
100
AcDbScale
 70
     0
300
1:10
140
1.0
141
10.0
290
     0
  0
SCALE
  5
4E
102
{ACAD_REACTORS
330
47
102
}
330
47
100
AcDbScale
 70
     0
300
1:16
140
1.0
141
16.0
290
     0
  0
SCALE
  5
4F
102
{ACAD_REACTORS
330
47
102
}
330
47
100
AcDbScale
 70
     0
300
1:20
140
1.0
141
20.0
290
     0
  0
SCALE
  5
50
102
{ACAD_REACTORS
330
47
102
}
330
47
100
AcDbScale
 70
     0
300
1:30
140
1.0
141
30.0
290
     0
  0
SCALE
  5
51
102
{ACAD_REACTORS
330
47
102
}
330
47
100
AcDbScale
 70
     0
300
1:40
140
1.0
141
40.0
290
     0
  0
SCALE
  5
52
102
{ACAD_REACTORS
330
47
102
}
330
47
100
AcDbScale
 70
     0
300
1:50
140
1.0
141
50.0
290
     0
  0
SCALE
  5
53
102
{ACAD_REACTORS
330
47
102
}
330
47
100
AcDbScale
 70
     0
300
1:100
140
1.0
141
100.0
290
     0
  0
SCALE
  5
54
102
{ACAD_REACTORS
330
47
102
}
330
47
100
AcDbScale
 70
     0
300
2:1
140
2.0
141
1.0
290
     0
  0
SCALE
  5
55
102
{ACAD_REACTORS
330
47
102
}
330
47
100
AcDbScale
 70
     0
300
4:1
140
4.0
141
1.0
290
     0
  0
SCALE
  5
56
102
{ACAD_REACTORS
330
47
102
}
330
47
100
AcDbScale
 70
     0
300
8:1
140
8.0
141
1.0
290
     0
  0
SCALE
  5
57
102
{ACAD_REACTORS
330
47
102
}
330
47
100
AcDbScale
 70
     0
300
10:1
140
10.0
141
1.0
290
     0
  0
SCALE
  5
58
102
{ACAD_REACTORS
330
47
102
}
330
47
100
AcDbScale
 70
     0
300
100:1
140
100.0
141
1.0
290
     0
  0
SCALE
  5
59
102
{ACAD_REACTORS
330
47
102
}
330
47
100
AcDbScale
 70
     0
300
1/128" = 1'-0"
140
0.0078125
141
12.0
290
     0
  0
SCALE
  5
5A
102
{ACAD_REACTORS
330
47
102
}
330
47
100
AcDbScale
 70
     0
300
1/64" = 1'-0"
140
0.015625
141
12.0
290
     0
  0
SCALE
  5
5B
102
{ACAD_REACTORS
330
47
102
}
330
47
100
AcDbScale
 70
     0
300
1/32" = 1'-0"
140
0.03125
141
12.0
290
     0
  0
SCALE
  5
5C
102
{ACAD_REACTORS
330
47
102
}
330
47
100
AcDbScale
 70
     0
300
1/16" = 1'-0"
140
0.0625
141
12.0
290
     0
  0
SCALE
  5
5D
102
{ACAD_REACTORS
330
47
102
}
330
47
100
AcDbScale
 70
     0
300
3/32" = 1'-0"
140
0.09375
141
12.0
290
     0
  0
SCALE
  5
5E
102
{ACAD_REACTORS
330
47
102
}
330
47
100
AcDbScale
 70
     0
300
1/8" = 1'-0"
140
0.125
141
12.0
290
     0
  0
SCALE
  5
5F
102
{ACAD_REACTORS
330
47
102
}
330
47
100
AcDbScale
 70
     0
300
3/16" = 1'-0"
140
0.1875
141
12.0
290
     0
  0
SCALE
  5
60
102
{ACAD_REACTORS
330
47
102
}
330
47
100
AcDbScale
 70
     0
300
1/4" = 1'-0"
140
0.25
141
12.0
290
     0
  0
SCALE
  5
61
102
{ACAD_REACTORS
330
47
102
}
330
47
100
AcDbScale
 70
     0
300
3/8" = 1'-0"
140
0.375
141
12.0
290
     0
  0
SCALE
  5
62
102
{ACAD_REACTORS
330
47
102
}
330
47
100
AcDbScale
 70
     0
300
1/2" = 1'-0"
140
0.5
141
12.0
290
     0
  0
SCALE
  5
63
102
{ACAD_REACTORS
330
47
102
}
330
47
100
AcDbScale
 70
     0
300
3/4" = 1'-0"
140
0.75
141
12.0
290
     0
  0
SCALE
  5
64
102
{ACAD_REACTORS
330
47
102
}
330
47
100
AcDbScale
 70
     0
300
1" = 1'-0"
140
1.0
141
12.0
290
     0
  0
SCALE
  5
65
102
{ACAD_REACTORS
330
47
102
}
330
47
100
AcDbScale
 70
     0
300
1-1/2" = 1'-0"
140
1.5
141
12.0
290
     0
  0
SCALE
  5
66
102
{ACAD_REACTORS
330
47
102
}
330
47
100
AcDbScale
 70
     0
300
3" = 1'-0"
140
3.0
141
12.0
290
     0
  0
SCALE
  5
67
102
{ACAD_REACTORS
330
47
102
}
330
47
100
AcDbScale
 70
     0
300
6" = 1'-0"
140
6.0
141
12.0
290
     0
  0
SCALE
  5
68
102
{ACAD_REACTORS
330
47
102
}
330
47
100
AcDbScale
 70
     0
300
1'-0" = 1'-0"
140
12.0
141
12.0
290
     0
  0
ENDSEC
  0
EOF
