  0
SECTION
  2
HEADER
  9
$ACADVER
  1
AC1015
  9
$ACADMAINTVER
 70
     6
  9
$DWGCODEPAGE
  3
ANSI_1252
  9
$INSBASE
 10
0.0
 20
0.0
 30
0.0
  9
$EXTMIN
 10
0.0
 20
0.0
 30
0.0
  9
$EXTMAX
 10
431.8
 20
279.4
 30
0.0
  9
$LIMMIN
 10
0.0
 20
0.0
  9
$LIMMAX
 10
431.8
 20
279.4
  9
$ORTHOMODE
 70
     0
  9
$REGENMODE
 70
     1
  9
$FILLMODE
 70
     1
  9
$QTEXTMODE
 70
     0
  9
$MIRRTEXT
 70
     1
  9
$LTSCALE
 40
1.0
  9
$ATTMODE
 70
     1
  9
$TEXTSIZE
 40
2.5
  9
$TRACEWID
 40
1.0
  9
$TEXTSTYLE
  7
Standard
  9
$CLAYER
  8
0
  9
$CELTYPE
  6
ByLayer
  9
$CECOLOR
 62
   256
  9
$CELTSCALE
 40
1.0
  9
$DISPSILH
 70
     0
  9
$DIMSCALE
 40
1.0
  9
$DIMASZ
 40
3.0
  9
$DIMEXO
 40
1.0
  9
$DIMDLI
 40
3.75
  9
$DIMRND
 40
0.0
  9
$DIMDLE
 40
0.0
  9
$DIMEXE
 40
1.0
  9
$DIMTP
 40
0.0
  9
$DIMTM
 40
0.0
  9
$DIMTXT
 40
2.5
  9
$DIMCEN
 40
2.5
  9
$DIMTSZ
 40
0.0
  9
$DIMTOL
 70
     0
  9
$DIMLIM
 70
     0
  9
$DIMTIH
 70
     1
  9
$DIMTOH
 70
     1
  9
$DIMSE1
 70
     0
  9
$DIMSE2
 70
     0
  9
$DIMTAD
 70
     1
  9
$DIMZIN
 70
     0
  9
$DIMBLK
  1

  9
$DIMASO
 70
     1
  9
$DIMSHO
 70
     1
  9
$DIMPOST
  1

  9
$DIMAPOST
  1

  9
$DIMALT
 70
     0
  9
$DIMALTD
 70
     3
  9
$DIMALTF
 40
0.0393700787
  9
$DIMLFAC
 40
1.0
  9
$DIMTOFL
 70
     1
  9
$DIMTVP
 40
0.0
  9
$DIMTIX
 70
     0
  9
$DIMSOXD
 70
     0
  9
$DIMSAH
 70
     0
  9
$DIMBLK1
  1

  9
$DIMBLK2
  1

  9
$DIMSTYLE
  2
ISO-25
  9
$DIMCLRD
 70
     0
  9
$DIMCLRE
 70
     0
  9
$DIMCLRT
 70
     0
  9
$DIMTFAC
 40
1.0
  9
$DIMGAP
 40
1.524
  9
$DIMJUST
 70
     0
  9
$DIMSD1
 70
     0
  9
$DIMSD2
 70
     0
  9
$DIMTOLJ
 70
     0
  9
$DIMTZIN
 70
     0
  9
$DIMALTZ
 70
     0
  9
$DIMALTTZ
 70
     0
  9
$DIMUPT
 70
     0
  9
$DIMDEC
 70
     3
  9
$DIMTDEC
 70
     3
  9
$DIMALTU
 70
     2
  9
$DIMALTTD
 70
     3
  9
$DIMTXSTY
  7
Standard
  9
$DIMAUNIT
 70
     0
  9
$DIMADEC
 70
     2
  9
$DIMALTRND
 40
0.0
  9
$DIMAZIN
 70
     0
  9
$DIMDSEP
 70
    44
  9
$DIMATFIT
 70
     3
  9
$DIMFRAC
 70
     0
  9
$DIMLDRBLK
  1

  9
$DIMLUNIT
 70
     2
  9
$DIMLWD
 70
    -2
  9
$DIMLWE
 70
    -2
  9
$DIMTMOVE
 70
     0
  9
$LUNITS
 70
     2
  9
$LUPREC
 70
     2
  9
$SKETCHINC
 40
1.0
  9
$FILLETRAD
 40
10.0
  9
$AUNITS
 70
     0
  9
$AUPREC
 70
     2
  9
$MENU
  1
.
  9
$ELEVATION
 40
0.0
  9
$PELEVATION
 40
0.0
  9
$THICKNESS
 40
0.0
  9
$LIMCHECK
 70
     0
  9
$CHAMFERA
 40
10.0
  9
$CHAMFERB
 40
10.0
  9
$CHAMFERC
 40
20.0
  9
$CHAMFERD
 40
0.0
  9
$SKPOLY
 70
     0
  9
$TDCREATE
 40
2457303.570208577
  9
$TDUCREATE
 40
2457303.486875243
  9
$TDUPDATE
 40
2457303.570208588
  9
$TDUUPDATE
 40
2457303.486875255
  9
$TDINDWG
 40
0.0000000116
  9
$TDUSRTIMER
 40
0.0000000116
  9
$USRTIMER
 70
     1
  9
$ANGBASE
 50
0.0
  9
$ANGDIR
 70
     0
  9
$PDMODE
 70
     0
  9
$PDSIZE
 40
-1.0
  9
$PLINEWID
 40
0.0
  9
$SPLFRAME
 70
     0
  9
$SPLINETYPE
 70
     6
  9
$SPLINESEGS
 70
     8
  9
$HANDSEED
  5
B7
  9
$SURFTAB1
 70
     6
  9
$SURFTAB2
 70
     6
  9
$SURFTYPE
 70
     6
  9
$SURFU
 70
     6
  9
$SURFV
 70
     6
  9
$UCSBASE
  2

  9
$UCSNAME
  2

  9
$UCSORG
 10
0.0
 20
0.0
 30
0.0
  9
$UCSXDIR
 10
1.0
 20
0.0
 30
0.0
  9
$UCSYDIR
 10
0.0
 20
1.0
 30
0.0
  9
$UCSORTHOREF
  2

  9
$UCSORTHOVIEW
 70
     0
  9
$UCSORGTOP
 10
0.0
 20
0.0
 30
0.0
  9
$UCSORGBOTTOM
 10
0.0
 20
0.0
 30
0.0
  9
$UCSORGLEFT
 10
0.0
 20
0.0
 30
0.0
  9
$UCSORGRIGHT
 10
0.0
 20
0.0
 30
0.0
  9
$UCSORGFRONT
 10
0.0
 20
0.0
 30
0.0
  9
$UCSORGBACK
 10
0.0
 20
0.0
 30
0.0
  9
$PUCSBASE
  2

  9
$PUCSNAME
  2

  9
$PUCSORG
 10
0.0
 20
0.0
 30
0.0
  9
$PUCSXDIR
 10
1.0
 20
0.0
 30
0.0
  9
$PUCSYDIR
 10
0.0
 20
1.0
 30
0.0
  9
$PUCSORTHOREF
  2

  9
$PUCSORTHOVIEW
 70
     0
  9
$PUCSORGTOP
 10
0.0
 20
0.0
 30
0.0
  9
$PUCSORGBOTTOM
 10
0.0
 20
0.0
 30
0.0
  9
$PUCSORGLEFT
 10
0.0
 20
0.0
 30
0.0
  9
$PUCSORGRIGHT
 10
0.0
 20
0.0
 30
0.0
  9
$PUCSORGFRONT
 10
0.0
 20
0.0
 30
0.0
  9
$PUCSORGBACK
 10
0.0
 20
0.0
 30
0.0
  9
$USERI1
 70
     0
  9
$USERI2
 70
     0
  9
$USERI3
 70
     0
  9
$USERI4
 70
     0
  9
$USERI5
 70
     0
  9
$USERR1
 40
0.0
  9
$USERR2
 40
0.0
  9
$USERR3
 40
0.0
  9
$USERR4
 40
0.0
  9
$USERR5
 40
0.0
  9
$WORLDVIEW
 70
     1
  9
$SHADEDGE
 70
     3
  9
$SHADEDIF
 70
    70
  9
$TILEMODE
 70
     1
  9
$MAXACTVP
 70
    64
  9
$PINSBASE
 10
0.0
 20
0.0
 30
0.0
  9
$PLIMCHECK
 70
     0
  9
$PEXTMIN
 10
1.0000000000E+20
 20
1.0000000000E+20
 30
1.0000000000E+20
  9
$PEXTMAX
 10
-1.0000000000E+20
 20
-1.0000000000E+20
 30
-1.0000000000E+20
  9
$PLIMMIN
 10
0.0
 20
0.0
  9
$PLIMMAX
 10
420.0
 20
297.0
  9
$UNITMODE
 70
     0
  9
$VISRETAIN
 70
     1
  9
$PLINEGEN
 70
     0
  9
$PSLTSCALE
 70
     1
  9
$TREEDEPTH
 70
  3020
  9
$CMLSTYLE
  2
Standard
  9
$CMLJUST
 70
     0
  9
$CMLSCALE
 40
20.0
  9
$PROXYGRAPHICS
 70
     1
  9
$MEASUREMENT
 70
     1
  9
$CELWEIGHT
370
    -1
  9
$ENDCAPS
280
     0
  9
$JOINSTYLE
280
     0
  9
$LWDISPLAY
290
     1
  9
$INSUNITS
 70
     4
  9
$HYPERLINKBASE
  1

  9
$STYLESHEET
  1

  9
$XEDIT
290
     1
  9
$CEPSNTYPE
380
     0
  9
$PSTYLEMODE
290
     1
  9
$FINGERPRINTGUID
  2
{A44A7E97-E07C-4183-AF67-1FAA4AF9D0FE}
  9
$VERSIONGUID
  2
{FAEB1C32-E019-11D5-929B-00C0DF256EC4}
  9
$EXTNAMES
290
     1
  9
$PSVPSCALE
 40
0.0
  9
$OLESTARTUP
290
     0
  0
ENDSEC
  0
SECTION
  2
CLASSES
  0
CLASS
  1
ACDBDICTIONARYWDFLT
  2
AcDbDictionaryWithDefault
  3
ObjectDBX Classes
 90
        0
280
     0
281
     0
  0
CLASS
  1
VISUALSTYLE
  2
AcDbVisualStyle
  3
ObjectDBX Classes
 90
     4095
280
     0
281
     0
  0
CLASS
  1
MATERIAL
  2
AcDbMaterial
  3
ObjectDBX Classes
 90
     1153
280
     0
281
     0
  0
CLASS
  1
DICTIONARYVAR
  2
AcDbDictionaryVar
  3
ObjectDBX Classes
 90
        0
280
     0
281
     0
  0
CLASS
  1
ACDBPLACEHOLDER
  2
AcDbPlaceHolder
  3
ObjectDBX Classes
 90
        0
280
     0
281
     0
  0
CLASS
  1
LAYOUT
  2
AcDbLayout
  3
ObjectDBX Classes
 90
        0
280
     0
281
     0
  0
ENDSEC
  0
SECTION
  2
TABLES
  0
TABLE
  2
VPORT
  5
8
330
0
100
AcDbSymbolTable
 70
     1
  0
VPORT
  5
29
330
8
100
AcDbSymbolTableRecord
100
AcDbViewportTableRecord
  2
*Active
 70
     0
 10
0.0
 20
0.0
 11
1.0
 21
1.0
 12
215.9
 22
139.7
 13
0.0
 23
0.0
 14
10.0
 24
10.0
 15
10.0
 25
10.0
 16
0.0
 26
0.0
 36
1.0
 17
0.0
 27
0.0
 37
0.0
 40
279.4
 41
1.5454545455
 42
50.0
 43
0.0
 44
0.0
 50
0.0
 51
0.0
 71
     0
 72
  2000
 73
     1
 74
     3
 75
     0
 76
     0
 77
     0
 78
     0
281
     0
 65
     1
110
0.0
120
0.0
130
0.0
111
1.0
121
0.0
131
0.0
112
0.0
122
1.0
132
0.0
 79
     0
146
0.0
  0
ENDTAB
  0
TABLE
  2
LTYPE
  5
5
330
0
100
AcDbSymbolTable
 70
     6
  0
LTYPE
  5
14
330
5
100
AcDbSymbolTableRecord
100
AcDbLinetypeTableRecord
  2
ByBlock
 70
     0
  3

 72
    65
 73
     0
 40
0.0
  0
LTYPE
  5
15
330
5
100
AcDbSymbolTableRecord
100
AcDbLinetypeTableRecord
  2
ByLayer
 70
     0
  3

 72
    65
 73
     0
 40
0.0
  0
LTYPE
  5
16
330
5
100
AcDbSymbolTableRecord
100
AcDbLinetypeTableRecord
  2
Continuous
 70
     0
  3
Solid line
 72
    65
 73
     0
 40
0.0
  0
LTYPE
  5
3F
330
5
100
AcDbSymbolTableRecord
100
AcDbLinetypeTableRecord
  2
HIDDEN
 70
     0
  3
Hidden __ __ __ __ __ __ __ __ __ __ __ __ __ __
 72
    65
 73
     2
 40
1.905
 49
1.27
 74
     0
 49
-0.635
 74
     0
  0
LTYPE
  5
40
330
5
100
AcDbSymbolTableRecord
100
AcDbLinetypeTableRecord
  2
PHANTOM
 70
     0
  3
Phantom ______  __  __  ______  __  __  ______
 72
    65
 73
     6
 40
12.7
 49
6.35
 74
     0
 49
-1.27
 74
     0
 49
1.27
 74
     0
 49
-1.27
 74
     0
 49
1.27
 74
     0
 49
-1.27
 74
     0
  0
LTYPE
  5
41
330
5
100
AcDbSymbolTableRecord
100
AcDbLinetypeTableRecord
  2
CENTER
 70
     0
  3
Center ____ _ ____ _ ____ _ ____ _ ____ _ ____
 72
    65
 73
     4
 40
10.16
 49
6.35
 74
     0
 49
-1.27
 74
     0
 49
1.27
 74
     0
 49
-1.27
 74
     0
  0
LTYPE
  5
42
330
5
100
AcDbSymbolTableRecord
100
AcDbLinetypeTableRecord
  2
CENTERX2
 70
     0
  3
Center (2x) ________  __  ________  __  _____
 72
    65
 73
     4
 40
20.32
 49
12.7
 74
     0
 49
-2.54
 74
     0
 49
2.54
 74
     0
 49
-2.54
 74
     0
  0
LTYPE
  5
43
330
5
100
AcDbSymbolTableRecord
100
AcDbLinetypeTableRecord
  2
DOT2
 70
     0
  3
Dot (.5x) ........................................
 72
    65
 73
     2
 40
0.635
 49
0.0
 74
     0
 49
-0.635
 74
     0
  0
ENDTAB
  0
TABLE
  2
LAYER
  5
2
330
0
100
AcDbSymbolTable
 70
     1
  0
LAYER
  5
10
330
2
100
AcDbSymbolTableRecord
100
AcDbLayerTableRecord
  2
0
 70
     0
 62
     7
  6
Continuous
370
    -3
390
F
  0
ENDTAB
  0
TABLE
  2
STYLE
  5
3
330
0
100
AcDbSymbolTable
 70
     1
  0
STYLE
  5
11
330
3
100
AcDbSymbolTableRecord
100
AcDbTextStyleTableRecord
  2
Standard
 70
     0
 40
0.0
 41
1.0
 50
0.0
 71
     0
 42
2.5
  3
txt
  4

  0
ENDTAB
  0
TABLE
  2
VIEW
  5
6
330
0
100
AcDbSymbolTable
 70
     0
  0
ENDTAB
  0
TABLE
  2
UCS
  5
7
330
0
100
AcDbSymbolTable
 70
     0
  0
ENDTAB
  0
TABLE
  2
APPID
  5
9
330
0
100
AcDbSymbolTable
 70
     1
  0
APPID
  5
12
330
9
100
AcDbSymbolTableRecord
100
AcDbRegAppTableRecord
  2
ACAD
 70
     0
  0
ENDTAB
  0
TABLE
  2
DIMSTYLE
  5
A
330
0
100
AcDbSymbolTable
 70
     1
100
AcDbDimStyleTable
  0
DIMSTYLE
105
27
330
A
100
AcDbSymbolTableRecord
100
AcDbDimStyleTableRecord
  2
ISO-25
 70
     0
 41
2.5
 42
0.625
 43
3.75
 44
1.25
 73
     0
 74
     0
 77
     1
 78
     8
140
2.5
141
2.5
143
0.0393700787
147
0.625
171
     3
172
     1
271
     2
272
     2
274
     3
278
    44
283
     0
284
     8
340
11
  0
ENDTAB
  0
TABLE
  2
BLOCK_RECORD
  5
1
330
0
100
AcDbSymbolTable
 70
     1
  0
BLOCK_RECORD
  5
1F
330
1
100
AcDbSymbolTableRecord
100
AcDbBlockTableRecord
  2
*Model_Space
340
22
  0
BLOCK_RECORD
  5
1B
330
1
100
AcDbSymbolTableRecord
100
AcDbBlockTableRecord
  2
*Paper_Space
340
1E
  0
BLOCK_RECORD
  5
23
330
1
100
AcDbSymbolTableRecord
100
AcDbBlockTableRecord
  2
*Paper_Space0
340
26
  0
ENDTAB
  0
ENDSEC
  0
SECTION
  2
BLOCKS
  0
BLOCK
  5
20
330
1F
100
AcDbEntity
  8
0
100
AcDbBlockBegin
  2
*Model_Space
 70
     0
 10
0.0
 20
0.0
 30
0.0
  3
*Model_Space
  1

  0
ENDBLK
  5
21
330
1F
100
AcDbEntity
  8
0
100
AcDbBlockEnd
  0
BLOCK
  5
1C
330
1B
100
AcDbEntity
 67
     1
  8
0
100
AcDbBlockBegin
  2
*Paper_Space
 70
     0
 10
0.0
 20
0.0
 30
0.0
  3
*Paper_Space
  1

  0
ENDBLK
  5
1D
330
1B
100
AcDbEntity
 67
     1
  8
0
100
AcDbBlockEnd
  0
BLOCK
  5
24
330
23
100
AcDbEntity
  8
0
100
AcDbBlockBegin
  2
*Paper_Space0
 70
     0
 10
0.0
 20
0.0
 30
0.0
  3
*Paper_Space0
  1

  0
ENDBLK
  5
25
330
23
100
AcDbEntity
  8
0
100
AcDbBlockEnd
  0
ENDSEC
  0
SECTION
  2
ENTITIES
  0
SPLINE
  5
44
330
1F
100
AcDbEntity
  8
0
  6
Continuous
 62
     7
370
    15
100
AcDbSpline
210
0.0
220
0.0
230
1.0
 70
     8
 71
     3
 72
    13
 73
     9
 74
     0
 42
0.00000001
 43
0.00000001
 40
0.0
 40
0.0
 40
0.0
 40
0.0
 40
0.1452760449798599
 40
0.3098346806020586
 40
0.4171582452608784
 40
0.563268233815049
 40
0.7604893437138446
 40
0.9999999999999999
 40
0.9999999999999999
 40
0.9999999999999999
 40
0.9999999999999999
 10
219.7588808683717
 20
165.4542462956318
 30
0.0
 10
219.7504623587945
 20
165.5177364303866
 30
0.0
 10
219.732507945
 20
165.6531437897064
 30
0.0
 10
219.6543268059087
 20
165.8188411631358
 30
0.0
 10
219.5667224702892
 20
165.9770844394188
 30
0.0
 10
219.4574370681173
 20
166.1421602040758
 30
0.0
 10
219.304594741819
 20
166.3470708325618
 30
0.0
 10
219.1714711166042
 20
166.4824066879614
 30
0.0
 10
219.098464000312
 20
166.5566270265207
 30
0.0
  0
SPLINE
  5
45
330
1F
100
AcDbEntity
  8
0
  6
Continuous
 62
     7
370
    15
100
AcDbSpline
210
0.0
220
0.0
230
1.0
 70
     8
 71
     3
 72
    24
 73
    20
 74
     0
 42
0.00000001
 43
0.00000001
 40
0.0
 40
0.0
 40
0.0
 40
0.0
 40
0.0037934998444857
 40
0.0673591565658797
 40
0.1309479400204689
 40
0.1945694013170236
 40
0.2582157052977509
 40
0.3218799252782877
 40
0.3855560226578906
 40
0.4492388095583185
 40
0.5129235291572193
 40
0.5766058122949917
 40
0.6402828599502064
 40
0.7039524353532571
 40
0.767612794816558
 40
0.8312626228415618
 40
0.8949009725719548
 40
0.9585272120601392
 40
1.0
 40
1.0
 40
1.0
 40
1.0
 10
219.0963423739453
 20
166.5578836759417
 30
0.0
 10
219.0797540543101
 20
166.5736267458764
 30
0.0
 10
218.7852040964138
 20
166.8531680549659
 30
0.0
 10
218.1877635784195
 20
167.3865950299441
 30
0.0
 10
217.2882883411413
 20
168.1510342285811
 30
0.0
 10
216.3497862087054
 20
168.898448127025
 30
0.0
 10
215.3757847635305
 20
169.6293865831343
 30
0.0
 10
214.3664212355237
 20
170.3429537274221
 30
0.0
 10
213.3227958549585
 20
171.0386531540138
 30
0.0
 10
212.2457813872907
 20
171.7159104228532
 30
0.0
 10
211.136342567307
 20
172.3741977745906
 30
0.0
 10
209.995447293554
 20
173.0130049568234
 30
0.0
 10
208.8240762321401
 20
173.6318388404012
 30
0.0
 10
207.6232509888304
 20
174.2302563667853
 30
0.0
 10
206.3939006316986
 20
174.8077284161631
 30
0.0
 10
205.1373836633046
 20
175.3641348658787
 30
0.0
 10
203.8535372224957
 20
175.8979143793318
 30
0.0
 10
202.6993957754878
 20
176.3532223949683
 30
0.0
 10
201.9633398635528
 20
176.620883880661
 30
0.0
 10
201.6728872162297
 20
176.7265049154836
 30
0.0
  0
LINE
  5
46
330
1F
100
AcDbEntity
  8
0
  6
Continuous
 62
     7
370
    15
100
AcDbLine
 10
219.9872677503
 20
154.7777594638
 30
0.0
 11
219.7590392917
 21
165.4533806028
 31
0.0
  0
LINE
  5
47
330
1F
100
AcDbEntity
  8
0
  6
Continuous
 62
     7
370
    15
100
AcDbLine
 10
245.2011447572
 20
146.0150775155
 30
0.0
 11
245.2011447572
 21
149.281240763
 31
0.0
  0
SPLINE
  5
48
330
1F
100
AcDbEntity
  8
0
  6
Continuous
 62
     7
370
    15
100
AcDbSpline
210
0.0
220
0.0
230
1.0
 70
     8
 71
     3
 72
    12
 73
     8
 74
     0
 42
0.00000001
 43
0.00000001
 40
0.0
 40
0.0
 40
0.0
 40
0.0
 40
0.0780773776434239
 40
0.2954101738995278
 40
0.5339404328651983
 40
0.8032451379632062
 40
1.0
 40
1.0
 40
1.0
 40
1.0
 10
220.0939031308207
 20
154.4468024303115
 30
0.0
 10
220.0938696639957
 20
154.4468208032175
 30
0.0
 10
220.0937430403709
 20
154.4468903181461
 30
0.0
 10
220.069373512194
 20
154.47599591748
 30
0.0
 10
220.0291069509391
 20
154.5534689608904
 30
0.0
 10
219.9932981818044
 20
154.6622500943867
 30
0.0
 10
219.9920325329153
 20
154.744375012737
 30
0.0
 10
219.9914982180119
 20
154.7790454242451
 30
0.0
  0
SPLINE
  5
49
330
1F
100
AcDbEntity
  8
0
  6
Continuous
 62
     7
370
    15
100
AcDbSpline
210
0.0
220
0.0
230
1.0
 70
     8
 71
     3
 72
    19
 73
    15
 74
     0
 42
0.00000001
 43
0.00000001
 40
0.0
 40
0.0
 40
0.0
 40
0.0
 40
0.1422136672722689
 40
0.2076304751681516
 40
0.3231959332405526
 40
0.4424147757499944
 40
0.5458204996360202
 40
0.6399969125424952
 40
0.7138464761290011
 40
0.7477580611010723
 40
0.7972534327639392
 40
0.8798551442223504
 40
0.9345696456568401
 40
1.0
 40
1.0
 40
1.0
 40
1.0
 10
201.669078086953
 20
176.7314141209992
 30
0.0
 10
201.5693654457471
 20
176.7668025440759
 30
0.0
 10
201.423786026617
 20
176.8184692737214
 30
0.0
 10
201.2050184034962
 20
176.8643570949866
 30
0.0
 10
201.0435742814899
 20
176.8245720900783
 30
0.0
 10
200.8709196986105
 20
176.7704801460163
 30
0.0
 10
200.6736313860179
 20
176.7314799500466
 30
0.0
 10
200.4823051326966
 20
176.6885519950524
 30
0.0
 10
200.3210500141932
 20
176.6312658205919
 30
0.0
 10
200.200590686137
 20
176.5695841351203
 30
0.0
 10
200.0828188462279
 20
176.4911499347814
 30
0.0
 10
199.9725306379939
 20
176.3732944016665
 30
0.0
 10
199.8970583988497
 20
176.2189518591679
 30
0.0
 10
199.8876011750349
 20
176.1212790224606
 30
0.0
 10
199.8824508129883
 20
176.0680868298021
 30
0.0
  0
LINE
  5
4A
330
1F
100
AcDbEntity
  8
0
  6
Continuous
 62
     7
370
    15
100
AcDbLine
 10
199.8823356308
 20
176.0674372109
 30
0.0
 11
199.6540911136
 21
165.3910649175
 31
0.0
  0
SPLINE
  5
4B
330
1F
100
AcDbEntity
  8
0
  6
Continuous
 62
     7
370
    15
100
AcDbSpline
210
0.0
220
0.0
230
1.0
 70
     8
 71
     3
 72
    12
 73
     8
 74
     0
 42
0.00000001
 43
0.00000001
 40
0.0
 40
0.0
 40
0.0
 40
0.0
 40
0.052474009868982
 40
0.3760011084982335
 40
0.623386265443496
 40
0.8394267304692253
 40
0.9999999999999999
 40
0.9999999999999999
 40
0.9999999999999999
 40
0.9999999999999999
 10
199.6514194404116
 20
165.3901956196378
 30
0.0
 10
199.652057120383
 20
165.3811344217553
 30
0.0
 10
199.6566263990927
 20
165.3162066516718
 30
0.0
 10
199.6280487121429
 20
165.2099417170032
 30
0.0
 10
199.5866381893096
 20
165.1125340835064
 30
0.0
 10
199.5518298988009
 20
165.0644767565379
 30
0.0
 10
199.5498852530791
 20
165.0627416662341
 30
0.0
 10
199.549056132702
 20
165.0620018920372
 30
0.0
  0
LINE
  5
4C
330
1F
100
AcDbEntity
  8
0
  6
Continuous
 62
     7
370
    15
100
AcDbLine
 10
181.8648353093
 20
164.1806888038
 30
0.0
 11
181.8648353093
 21
160.9145255563
 31
0.0
  0
ARC
  5
4D
330
1F
100
AcDbEntity
  8
0
  6
Continuous
 62
     7
370
    15
100
AcDbCircle
 10
244.0716824483
 20
149.281240763
 30
0.0
 40
1.095094531010637
100
AcDbArc
 50
291.2682653033
 51
68.7317346967
  0
LINE
  5
4E
330
1F
100
AcDbEntity
  8
0
  6
Continuous
 62
     7
370
    15
100
AcDbLine
 10
228.2054557428
 20
138.8720373373
 30
0.0
 11
244.4689117101
 21
148.2607306233
 31
0.0
  0
ARC
  5
4F
330
1F
100
AcDbEntity
  8
0
  6
Continuous
 62
     7
370
    15
100
AcDbCircle
 10
226.4376887899
 20
142.2666456303
 30
0.0
 40
3.827318312185796
100
AcDbArc
 50
242.4914255688
 51
297.5085744312
  0
LINE
  5
50
330
1F
100
AcDbEntity
  8
0
  6
Continuous
 62
     7
370
    15
100
AcDbLine
 10
182.5970683563
 20
163.160178664
 30
0.0
 11
224.6699218369
 21
138.8720373373
 31
0.0
  0
ARC
  5
51
330
1F
100
AcDbEntity
  8
0
  6
Continuous
 62
     7
370
    15
100
AcDbCircle
 10
182.9942976181
 20
164.1806888038
 30
0.0
 40
1.095094531010617
100
AcDbArc
 50
111.2682653033
 51
248.7317346967
  0
LINE
  5
52
330
1F
100
AcDbEntity
  8
0
  6
Continuous
 62
     7
370
    15
100
AcDbLine
 10
198.8605243236
 20
174.5898922296
 30
0.0
 11
182.5970683563
 21
165.2011989436
 31
0.0
  0
ARC
  5
53
330
1F
100
AcDbEntity
  8
0
  6
Continuous
 62
     7
370
    15
100
AcDbCircle
 10
200.4206573935
 20
171.762669351
 30
0.0
 40
3.229118207884103
100
AcDbArc
 50
100.0295854076
 51
118.8910244512
  0
LINE
  5
54
330
1F
100
AcDbEntity
  8
0
  6
Continuous
 62
     7
370
    15
100
AcDbLine
 10
244.4689117101
 20
150.3017509028
 30
0.0
 11
219.7782373034
 21
164.555373841
 31
0.0
  0
LWPOLYLINE
  5
55
330
1F
100
AcDbEntity
  8
0
  6
Continuous
 62
     7
370
    15
100
AcDbPolyline
 90
       57
 70
   128
 43
0.0
 10
228.5590091334
 20
144.790996148
 10
228.8934770507
 20
144.6184455407
 10
229.2593079521
 20
144.4685984687
 10
229.6519013017
 20
144.343339346
 10
230.0663200104
 20
144.2442433788
 10
230.4973525224
 20
144.1725567562
 10
230.9395783538
 20
144.1291809792
 10
231.3874362582
 20
144.1146615233
 10
231.8352941626
 20
144.1291809792
 10
232.277519994
 20
144.1725567562
 10
232.708552506
 20
144.2442433788
 10
233.1229712147
 20
144.343339346
 10
233.5155645642
 20
144.4685984687
 10
233.8813954656
 20
144.6184455407
 10
234.2158633829
 20
144.790996148
 10
234.5147621881
 20
144.9840803668
 10
234.7743330551
 20
145.1952700508
 10
234.9913117298
 20
145.4219093674
 10
235.1629695794
 20
145.6611481956
 10
235.2871479069
 20
145.9099779682
 10
235.3622850978
 20
146.1652695067
 10
235.3874362582
 20
146.4238123717
 10
235.3622850978
 20
146.6823552366
 10
235.2871479069
 20
146.9376467751
 10
235.1629695794
 20
147.1864765478
 10
234.9913117298
 20
147.4257153759
 10
234.7743330551
 20
147.6523546925
 10
234.5147621881
 20
147.8635443766
 10
234.2158633829
 20
148.0566285953
 10
233.8813954656
 20
148.2291792027
 10
233.5155645642
 20
148.3790262746
 10
233.1229712147
 20
148.5042853973
 10
232.708552506
 20
148.6033813646
 10
232.277519994
 20
148.6750679872
 10
231.8352941626
 20
148.7184437642
 10
231.3874362582
 20
148.73296322
 10
230.9395783538
 20
148.7184437642
 10
230.4973525224
 20
148.6750679872
 10
230.0663200104
 20
148.6033813646
 10
229.6519013017
 20
148.5042853973
 10
229.2593079521
 20
148.3790262746
 10
228.8934770507
 20
148.2291792027
 10
228.5590091334
 20
148.0566285953
 10
228.2601103283
 20
147.8635443766
 10
228.0005394613
 20
147.6523546925
 10
227.7835607866
 20
147.4257153759
 10
227.6119029369
 20
147.1864765478
 10
227.4877246095
 20
146.9376467751
 10
227.4125874186
 20
146.6823552366
 10
227.3874362582
 20
146.4238123717
 10
227.4125874186
 20
146.1652695067
 10
227.4877246095
 20
145.9099779682
 10
227.6119029369
 20
145.6611481956
 10
227.7835607866
 20
145.4219093674
 10
228.0005394613
 20
145.1952700508
 10
228.2601103283
 20
144.9840803668
 10
228.5590091334
 20
144.790996148
  0
LWPOLYLINE
  5
56
330
1F
100
AcDbEntity
  8
0
  6
Continuous
 62
     7
370
    15
100
AcDbPolyline
 90
       57
 70
   128
 43
0.0
 10
196.3856505894
 20
156.8330157974
 10
196.7201185068
 20
156.6604651901
 10
197.0859494081
 20
156.5106181181
 10
197.4785427577
 20
156.3853589954
 10
197.8929614664
 20
156.2862630281
 10
198.3239939784
 20
156.2145764056
 10
198.7662198098
 20
156.1712006286
 10
199.2140777142
 20
156.1566811727
 10
199.6619356186
 20
156.1712006286
 10
200.10416145
 20
156.2145764056
 10
200.535193962
 20
156.2862630281
 10
200.9496126707
 20
156.3853589954
 10
201.3422060203
 20
156.5106181181
 10
201.7080369216
 20
156.6604651901
 10
202.0425048389
 20
156.8330157974
 10
202.3414036441
 20
157.0261000162
 10
202.6009745111
 20
157.2372897002
 10
202.8179531858
 20
157.4639290168
 10
202.9896110354
 20
157.7031678449
 10
203.1137893629
 20
157.9519976176
 10
203.1889265538
 20
158.2072891561
 10
203.2140777142
 20
158.4658320211
 10
203.1889265538
 20
158.724374886
 10
203.1137893629
 20
158.9796664245
 10
202.9896110354
 20
159.2284961972
 10
202.8179531858
 20
159.4677350253
 10
202.6009745111
 20
159.6943743419
 10
202.3414036441
 20
159.9055640259
 10
202.0425048389
 20
160.0986482447
 10
201.7080369216
 20
160.2711988521
 10
201.3422060203
 20
160.421045924
 10
200.9496126707
 20
160.5463050467
 10
200.535193962
 20
160.645401014
 10
200.10416145
 20
160.7170876365
 10
199.6619356186
 20
160.7604634135
 10
199.2140777142
 20
160.7749828694
 10
198.7662198098
 20
160.7604634135
 10
198.3239939784
 20
160.7170876365
 10
197.8929614664
 20
160.645401014
 10
197.4785427577
 20
160.5463050467
 10
197.0859494081
 20
160.421045924
 10
196.7201185068
 20
160.2711988521
 10
196.3856505894
 20
160.0986482447
 10
196.0867517843
 20
159.9055640259
 10
195.8271809173
 20
159.6943743419
 10
195.6102022426
 20
159.4677350253
 10
195.438544393
 20
159.2284961972
 10
195.3143660655
 20
158.9796664245
 10
195.2392288746
 20
158.724374886
 10
195.2140777142
 20
158.4658320211
 10
195.2392288746
 20
158.2072891561
 10
195.3143660655
 20
157.9519976176
 10
195.438544393
 20
157.7031678449
 10
195.6102022426
 20
157.4639290168
 10
195.8271809173
 20
157.2372897002
 10
196.0867517843
 20
157.0261000162
 10
196.3856505894
 20
156.8330157974
  0
LWPOLYLINE
  5
57
330
1F
100
AcDbEntity
  8
0
  6
Continuous
 62
     7
370
    15
100
AcDbPolyline
 90
       57
 70
   128
 43
0.0
 10
221.8414947122
 20
155.2001995738
 10
222.1759626295
 20
155.0276489664
 10
222.5417935308
 20
154.8778018944
 10
222.9343868804
 20
154.7525427718
 10
223.3488055891
 20
154.6534468045
 10
223.7798381011
 20
154.5817601819
 10
224.2220639325
 20
154.5383844049
 10
224.6699218369
 20
154.5238649491
 10
225.1177797413
 20
154.5383844049
 10
225.5600055727
 20
154.5817601819
 10
225.9910380847
 20
154.6534468045
 10
226.4054567934
 20
154.7525427718
 10
226.798050143
 20
154.8778018944
 10
227.1638810443
 20
155.0276489664
 10
227.4983489617
 20
155.2001995738
 10
227.7972477668
 20
155.3932837925
 10
228.0568186338
 20
155.6044734766
 10
228.2737973085
 20
155.8311127931
 10
228.4454551581
 20
156.0703516213
 10
228.5696334856
 20
156.319181394
 10
228.6447706765
 20
156.5744729324
 10
228.6699218369
 20
156.8330157974
 10
228.6447706765
 20
157.0915586624
 10
228.5696334856
 20
157.3468502008
 10
228.4454551581
 20
157.5956799735
 10
228.2737973085
 20
157.8349188017
 10
228.0568186338
 20
158.0615581182
 10
227.7972477668
 20
158.2727478023
 10
227.4983489617
 20
158.4658320211
 10
227.1638810443
 20
158.6383826284
 10
226.798050143
 20
158.7882297004
 10
226.4054567934
 20
158.9134888231
 10
225.9910380847
 20
159.0125847903
 10
225.5600055727
 20
159.0842714129
 10
225.1177797413
 20
159.1276471899
 10
224.6699218369
 20
159.1421666458
 10
224.2220639325
 20
159.1276471899
 10
223.7798381011
 20
159.0842714129
 10
223.3488055891
 20
159.0125847903
 10
222.9343868804
 20
158.9134888231
 10
222.5417935308
 20
158.7882297004
 10
222.1759626295
 20
158.6383826284
 10
221.8414947122
 20
158.4658320211
 10
221.542595907
 20
158.2727478023
 10
221.28302504
 20
158.0615581182
 10
221.0660463653
 20
157.8349188017
 10
220.8943885157
 20
157.5956799735
 10
220.7702101882
 20
157.3468502008
 10
220.6950729973
 20
157.0915586624
 10
220.6699218369
 20
156.8330157974
 10
220.6950729973
 20
156.5744729324
 10
220.7702101882
 20
156.319181394
 10
220.8943885157
 20
156.0703516213
 10
221.0660463653
 20
155.8311127931
 10
221.28302504
 20
155.6044734766
 10
221.542595907
 20
155.3932837925
 10
221.8414947122
 20
155.2001995738
  0
LINE
  5
58
330
1F
100
AcDbEntity
  8
0
  6
Continuous
 62
     7
370
    15
100
AcDbLine
 10
189.9509788807
 20
167.0789376008
 30
0.0
 11
195.6078331301
 21
170.3445700481
 31
0.0
  0
LWPOLYLINE
  5
59
330
1F
100
AcDbEntity
  8
0
  6
Continuous
 62
     7
370
    15
100
AcDbPolyline
 90
       29
 70
   128
 43
0.0
 10
195.7492544864
 20
163.7316643423
 10
195.4064248711
 20
163.5547999698
 10
195.0314481972
 20
163.401206721
 10
194.6290400139
 20
163.2728161203
 10
194.2042608375
 20
163.1712427538
 10
193.7624525127
 20
163.0977639657
 10
193.3091710355
 20
163.0533037943
 10
192.8501166835
 20
163.038421352
 10
192.3910623315
 20
163.0533037943
 10
191.9377808543
 20
163.0977639657
 10
191.4959725295
 20
163.1712427538
 10
191.0711933531
 20
163.2728161203
 10
190.6687851698
 20
163.401206721
 10
190.2938084959
 20
163.5547999698
 10
189.9509788807
 20
163.7316643423
 10
189.6446076054
 20
163.9295756665
 10
189.3785474667
 20
164.1460450927
 10
189.1561443251
 20
164.3783503922
 10
188.9801950293
 20
164.623570191
 10
188.8529122436
 20
164.878620708
 10
188.775896623
 20
165.1402945349
 10
188.7501166835
 20
165.4053009715
 10
188.775896623
 20
165.6703074081
 10
188.8529122436
 20
165.9319812351
 10
188.9801950293
 20
166.1870317521
 10
189.1561443251
 20
166.4322515509
 10
189.3785474667
 20
166.6645568504
 10
189.6446076054
 20
166.8810262766
 10
189.9509788807
 20
167.0789376008
  0
LINE
  5
5A
330
1F
100
AcDbEntity
  8
0
  6
Continuous
 62
     7
370
    15
100
AcDbLine
 10
199.6669662181
 20
165.9933111845
 30
0.0
 11
195.7492544864
 21
163.7316643423
 31
0.0
  0
ARC
  5
5B
330
1F
100
AcDbEntity
  8
0
  6
Continuous
 62
     7
370
    15
100
AcDbCircle
 10
198.5100644591
 20
164.7223838747
 30
0.0
 40
6.327078635142575
100
AcDbArc
 50
78.492063952
 51
117.3032563049
  0
LWPOLYLINE
  5
5C
330
1F
100
AcDbEntity
  8
0
  6
Continuous
 62
     7
370
    15
100
AcDbPolyline
 90
       19
 70
   128
 43
0.0
 10
221.1321863575
 20
154.3044689324
 10
221.2968408121
 20
154.1166515843
 10
221.4118864589
 20
153.9169028667
 10
221.474824242
 20
153.7095617812
 10
221.4842870077
 20
153.4991322531
 10
221.4400692032
 20
153.2901852959
 10
221.3431313409
 20
153.0872597181
 10
221.1955791341
 20
152.8947635299
 10
221.0006177561
 20
152.7168781914
 10
220.7624822165
 20
152.5574677814
 10
220.4863453671
 20
152.4199950606
 10
220.1782055354
 20
152.3074462528
 10
219.8447562273
 20
152.2222661769
 10
219.4932407288
 20
152.1663051401
 10
219.1312947652
 20
152.1407787449
 10
218.7667806353
 20
152.1462414833
 10
218.4076164246
 20
152.1825746921
 10
218.0616040058
 20
152.2489891303
 10
217.7362595646
 20
152.3440421237
  0
ARC
  5
5D
330
1F
100
AcDbEntity
  8
0
  6
Continuous
 62
     7
370
    15
100
AcDbCircle
 10
233.9604657931
 20
202.6509675359
 30
0.0
 40
52.85841098796414
100
AcDbArc
 50
227.880117729
 51
252.1252588037
  0
LINE
  5
5E
330
1F
100
AcDbEntity
  8
0
  6
Continuous
 62
     7
370
    15
100
AcDbLine
 10
228.2054557428
 20
138.8720373373
 30
0.0
 11
228.2054557428
 21
135.6058740898
 31
0.0
  0
ARC
  5
5F
330
1F
100
AcDbEntity
  8
0
  6
Continuous
 62
     7
370
    15
100
AcDbCircle
 10
226.4376887899
 20
139.0004823827
 30
0.0
 40
3.827318312185997
100
AcDbArc
 50
242.4914255688
 51
297.5085744312
  0
LINE
  5
60
330
1F
100
AcDbEntity
  8
0
  6
Continuous
 62
     7
370
    15
100
AcDbLine
 10
224.6699218369
 20
135.6058740898
 30
0.0
 11
224.6699218369
 21
138.8720373373
 31
0.0
  0
LINE
  5
61
330
1F
100
AcDbEntity
  8
0
  6
Continuous
 62
     7
370
    15
100
AcDbLine
 10
244.4689117101
 20
144.9945673757
 30
0.0
 11
244.4689117101
 21
148.2607306233
 31
0.0
  0
LINE
  5
62
330
1F
100
AcDbEntity
  8
0
  6
Continuous
 62
     7
370
    15
100
AcDbLine
 10
228.2054557428
 20
135.6058740898
 30
0.0
 11
244.4689117101
 21
144.9945673757
 31
0.0
  0
LINE
  5
63
330
1F
100
AcDbEntity
  8
0
  6
Continuous
 62
     7
370
    15
100
AcDbLine
 10
182.5970683563
 20
159.8940154165
 30
0.0
 11
224.6699218369
 21
135.6058740898
 31
0.0
  0
LINE
  5
64
330
1F
100
AcDbEntity
  8
0
  6
Continuous
 62
     7
370
    15
100
AcDbLine
 10
182.5970683563
 20
163.160178664
 30
0.0
 11
182.5970683563
 21
159.8940154165
 31
0.0
  0
LWPOLYLINE
  5
65
330
1F
100
AcDbEntity
  8
0
  6
Continuous
 62
     7
370
    15
100
AcDbPolyline
 90
       27
 70
   128
 43
0.0
 10
233.3238439762
 20
144.4032785646
 10
233.3846549424
 20
144.4977622304
 10
233.4615817734
 20
144.6827386708
 10
233.4874362582
 20
144.8723848291
 10
233.4615817734
 20
145.0620309874
 10
233.3846549424
 20
145.2470074278
 10
233.258549959
 20
145.4227594166
 10
233.0863719464
 20
145.5849593564
 10
232.8723604987
 20
145.7296133465
 10
232.621785288
 20
145.8531595255
 10
232.3408163076
 20
145.9525557765
 10
232.0363719464
 20
146.0253546338
 10
231.7159486348
 20
146.0697635481
 10
231.3874362582
 20
146.0846890245
 10
231.0589238816
 20
146.0697635481
 10
230.73850057
 20
146.0253546338
 10
230.4340562087
 20
145.9525557765
 10
230.1530872284
 20
145.8531595255
 10
229.9025120177
 20
145.7296133465
 10
229.68850057
 20
145.5849593564
 10
229.5163225574
 20
145.4227594166
 10
229.390217574
 20
145.2470074278
 10
229.3132907429
 20
145.0620309874
 10
229.2874362582
 20
144.8723848291
 10
229.3132907429
 20
144.6827386708
 10
229.390217574
 20
144.4977622304
 10
229.4510285402
 20
144.4032785646
  0
ARC
  5
66
330
1F
100
AcDbEntity
  8
0
  6
Continuous
 62
     7
370
    15
100
AcDbCircle
 10
231.3874362582
 20
140.9423891153
 30
0.0
 40
3.429532096449179
100
AcDbArc
 50
71.7515194204
 51
108.2484805796
  0
ARC
  5
67
330
1F
100
AcDbEntity
  8
0
  6
Continuous
 62
     7
370
    15
100
AcDbCircle
 10
234.7282013366
 20
215.0844574304
 30
0.0
 40
50.40579580935605
100
AcDbArc
 50
231.2522697834
 51
248.7531067493
  0
SPLINE
  5
68
330
1F
100
AcDbEntity
  8
0
  6
Continuous
 62
     7
370
    15
100
AcDbSpline
210
0.0
220
0.0
230
1.0
 70
     8
 71
     3
 72
    48
 73
    44
 74
     0
 42
0.00000001
 43
0.00000001
 40
0.0
 40
0.0
 40
0.0
 40
0.0
 40
0.019121905708263
 40
0.019121905708263
 40
0.038243811416526
 40
0.038243811416526
 40
0.076487622833052
 40
0.076487622833052
 40
0.1147314342495779
 40
0.1147314342495779
 40
0.1529752456661039
 40
0.1529752456661039
 40
0.2294628684991559
 40
0.2294628684991559
 40
0.2677066799156819
 40
0.2677066799156819
 40
0.3059504913322078
 40
0.3059504913322078
 40
0.3659095714612249
 40
0.3659095714612249
 40
0.425868651590242
 40
0.425868651590242
 40
0.4858277317192591
 40
0.4858277317192591
 40
0.5158072717837677
 40
0.5158072717837677
 40
0.5457868118482763
 40
0.5457868118482763
 40
0.6031054303305063
 40
0.6031054303305063
 40
0.6604240488127365
 40
0.6604240488127365
 40
0.7177426672949667
 40
0.7177426672949667
 40
0.7750612857771968
 40
0.7750612857771968
 40
0.8312959643328977
 40
0.8312959643328977
 40
0.8875306428885984
 40
0.8875306428885984
 40
0.9437653214442991
 40
0.9437653214442991
 40
1.0
 40
1.0
 40
1.0
 40
1.0
 10
218.6278417241244
 20
165.0595066342783
 30
0.0
 10
218.6282040472681
 20
165.0926988256123
 30
0.0
 10
218.6264525730709
 20
165.1270733070565
 30
0.0
 10
218.6198128200912
 20
165.1957665271277
 30
0.0
 10
218.6149245413087
 20
165.2300852657546
 30
0.0
 10
218.5971906832282
 20
165.3293273828523
 30
0.0
 10
218.5816782707105
 20
165.3908861977982
 30
0.0
 10
218.5480658891443
 20
165.5058043398001
 30
0.0
 10
218.5301528427141
 20
165.5590525890957
 30
0.0
 10
218.4926779981809
 20
165.6600318715675
 30
0.0
 10
218.473116200078
 20
165.7077629047437
 30
0.0
 10
218.4128051176928
 20
165.8470368210297
 30
0.0
 10
218.3702639018887
 20
165.9336835562889
 30
0.0
 10
218.3025265638044
 20
166.0605946562594
 30
0.0
 10
218.2792718506045
 20
166.1023831586092
 30
0.0
 10
218.2312413748866
 20
166.1854314403011
 30
0.0
 10
218.2064656123685
 20
166.2266912196432
 30
0.0
 10
218.140675176101
 20
166.3326038171517
 30
0.0
 10
218.0977717330816
 20
166.3980818503743
 30
0.0
 10
218.0081461853006
 20
166.52848456251
 30
0.0
 10
217.961424080539
 20
166.5934092414232
 30
0.0
 10
217.8658109836975
 20
166.7205285112529
 30
0.0
 10
217.8169221504393
 20
166.7827772561799
 30
0.0
 10
217.7433005341811
 20
166.8731764575786
 30
0.0
 10
217.7187119343665
 20
166.9028138720462
 30
0.0
 10
217.6696611227613
 20
166.9609294654825
 30
0.0
 10
217.6451989109706
 20
166.9894076444511
 30
0.0
 10
217.574474778619
 20
167.0704016496322
 30
0.0
 10
217.5274776641793
 20
167.1225816449726
 30
0.0
 10
217.4326217809722
 20
167.2249480824902
 30
0.0
 10
217.3847630122047
 20
167.2751345246674
 30
0.0
 10
217.2884436556005
 20
167.3735191301068
 30
0.0
 10
217.2399830677638
 20
167.4217172933691
 30
0.0
 10
217.1427199082795
 20
167.5161306152265
 30
0.0
 10
217.0939173366319
 20
167.5623457738218
 30
0.0
 10
216.9971537163482
 20
167.6519430959967
 30
0.0
 10
216.9489288633206
 20
167.6956044915953
 30
0.0
 10
216.8520684971363
 20
167.7814738454512
 30
0.0
 10
216.8034329839797
 20
167.8236818037086
 30
0.0
 10
216.705950394744
 20
167.9066101119214
 30
0.0
 10
216.657103318665
 20
167.9473304618769
 30
0.0
 10
216.559396700791
 20
168.0272493825256
 30
0.0
 10
216.5105371589962
 20
168.0664479532188
 30
0.0
 10
216.4617709329466
 20
168.1048685488005
 30
0.0
  0
ARC
  5
69
330
1F
100
AcDbEntity
  8
0
  6
Continuous
 62
     7
370
    15
100
AcDbCircle
 10
234.3557321833
 20
213.8274895529
 30
0.0
 40
51.24141582985799
100
AcDbArc
 50
227.880117729
 51
252.1252588037
  0
SPLINE
  5
6A
330
1F
100
AcDbEntity
  8
0
  6
Continuous
 62
     7
370
    15
100
AcDbSpline
210
0.0
220
0.0
230
1.0
 70
     8
 71
     3
 72
    21
 73
    17
 74
     0
 42
0.00000001
 43
0.00000001
 40
0.0
 40
0.0
 40
0.0
 40
0.0
 40
0.0889815661412125
 40
0.1723458729375595
 40
0.2500797443146877
 40
0.3826438435415255
 40
0.5004557028670752
 40
0.6065594118678651
 40
0.6996753911758812
 40
0.7705633932824157
 40
0.8333910339462951
 40
0.8715731546975621
 40
0.9066935056118655
 40
0.9393129421961993
 40
0.9701361050738054
 40
1.0
 40
1.0
 40
1.0
 40
1.0
 10
203.1795879310398
 20
175.7725095854728
 30
0.0
 10
203.0734953055774
 20
175.8164028875115
 30
0.0
 10
202.8680075069189
 20
175.9014185799073
 30
0.0
 10
202.568721313759
 20
176.0123717403119
 30
0.0
 10
202.2167382336621
 20
176.1309403662767
 30
0.0
 10
201.822760973132
 20
176.2423367635259
 30
0.0
 10
201.3963908269564
 20
176.3284252503327
 30
0.0
 10
201.0219619372692
 20
176.3675035953543
 30
0.0
 10
200.7118421817964
 20
176.3623125725628
 30
0.0
 10
200.4647356489041
 20
176.3203945431202
 30
0.0
 10
200.2924934125557
 20
176.2574764928783
 30
0.0
 10
200.1725544785701
 20
176.1830914326932
 30
0.0
 10
200.0925319663882
 20
176.1085242777644
 30
0.0
 10
200.0347980200553
 20
176.0226676456129
 30
0.0
 10
199.99752597542
 20
175.9270450575254
 30
0.0
 10
199.9917661516874
 20
175.8549822062962
 30
0.0
 10
199.988931762001
 20
175.8195203220811
 30
0.0
  0
ARC
  5
6B
330
1F
100
AcDbEntity
  8
0
  6
Continuous
 62
     7
370
    15
100
AcDbCircle
 10
234.3036058965
 20
203.2600023528
 30
0.0
 40
51.45465924080299
100
AcDbArc
 50
227.880117729
 51
252.1252588037
  0
LINE
  5
6C
330
1F
100
AcDbEntity
  8
0
  6
Continuous
 62
     7
370
    15
100
AcDbLine
 10
199.988931762
 20
175.8195203221
 30
0.0
 11
199.7937865203
 21
165.0938612824
 31
0.0
  0
LINE
  5
6D
330
1F
100
AcDbEntity
  8
0
  6
Continuous
 62
     7
370
    15
100
AcDbLine
 10
218.6278417241
 20
165.0595066343
 30
0.0
 11
218.5102631279
 21
154.2890693233
 31
0.0
  0
ARC
  5
6E
330
1F
100
AcDbEntity
  8
0
  6
Continuous
 62
     7
370
    15
100
AcDbCircle
 10
184.9131575274
 20
128.7929207039
 30
0.0
 40
50.40579580935389
100
AcDbArc
 50
51.2522697834
 51
68.7531067493
  0
LINE
  5
6F
330
1F
100
AcDbEntity
  8
0
  6
Continuous
 62
     7
370
    15
100
AcDbLine
 10
201.6422812969
 20
176.73940921
 30
0.0
 11
201.6734359997
 21
176.7279953218
 31
0.0
  0
ARC
  5
70
330
1F
100
AcDbEntity
  8
0
  6
Continuous
 62
     7
370
    15
100
AcDbCircle
 10
243.9608442829
 20
146.1320640114
 30
0.0
 40
1.245805404816485
100
AcDbArc
 50
294.0681184713
 51
354.6117405711
  0
ARC
  5
71
330
1F
100
AcDbEntity
  8
0
  6
Continuous
 62
     7
370
    15
100
AcDbCircle
 10
215.4815619649
 20
154.3677928139
 30
0.0
 40
3.029724100068825
100
AcDbArc
 50
318.0897776227
 51
358.5110751611
  0
ARC
  5
72
330
1F
100
AcDbEntity
  8
0
  6
Continuous
 62
     7
370
    15
100
AcDbCircle
 10
197.8663229363
 20
165.2691395144
 30
0.0
 40
1.935416835248656
100
AcDbArc
 50
289.3993510519
 51
354.8039710957
  0
LWPOLYLINE
  5
73
330
1F
100
AcDbEntity
  8
0
  6
Continuous
 62
     7
370
    15
100
AcDbPolyline
 90
       27
 70
   128
 43
0.0
 10
226.6063295549
 20
154.8124819903
 10
226.6671405211
 20
154.9069656561
 10
226.7440673522
 20
155.0919420966
 10
226.7699218369
 20
155.2815882548
 10
226.7440673522
 20
155.4712344131
 10
226.6671405211
 20
155.6562108535
 10
226.5410355377
 20
155.8319628423
 10
226.3688575251
 20
155.9941627822
 10
226.1548460774
 20
156.1388167722
 10
225.9042708667
 20
156.2623629512
 10
225.6233018864
 20
156.3617592022
 10
225.3188575251
 20
156.4345580596
 10
224.9984342135
 20
156.4789669739
 10
224.6699218369
 20
156.4938924502
 10
224.3414094603
 20
156.4789669739
 10
224.0209861487
 20
156.4345580596
 10
223.7165417875
 20
156.3617592022
 10
223.4355728071
 20
156.2623629512
 10
223.1849975964
 20
156.1388167722
 10
222.9709861487
 20
155.9941627822
 10
222.7988081361
 20
155.8319628423
 10
222.6727031527
 20
155.6562108535
 10
222.5957763217
 20
155.4712344131
 10
222.5699218369
 20
155.2815882548
 10
222.5957763217
 20
155.0919420966
 10
222.6727031527
 20
154.9069656561
 10
222.7335141189
 20
154.8124819903
  0
LWPOLYLINE
  5
74
330
1F
100
AcDbEntity
  8
0
  6
Continuous
 62
     7
370
    15
100
AcDbPolyline
 90
       27
 70
   128
 43
0.0
 10
201.1504854322
 20
156.4452982139
 10
201.2112963984
 20
156.5397818797
 10
201.2882232294
 20
156.7247583202
 10
201.3140777142
 20
156.9144044785
 10
201.2882232294
 20
157.1040506367
 10
201.2112963984
 20
157.2890270772
 10
201.085191415
 20
157.464779066
 10
200.9130134024
 20
157.6269790058
 10
200.6990019547
 20
157.7716329959
 10
200.448426744
 20
157.8951791749
 10
200.1674577636
 20
157.9945754259
 10
199.8630134024
 20
158.0673742832
 10
199.5425900908
 20
158.1117831975
 10
199.2140777142
 20
158.1267086739
 10
198.8855653376
 20
158.1117831975
 10
198.565142026
 20
158.0673742832
 10
198.2606976647
 20
157.9945754259
 10
197.9797286844
 20
157.8951791749
 10
197.7291534737
 20
157.7716329959
 10
197.515142026
 20
157.6269790058
 10
197.3429640134
 20
157.464779066
 10
197.21685903
 20
157.2890270772
 10
197.1399321989
 20
157.1040506367
 10
197.1140777142
 20
156.9144044785
 10
197.1399321989
 20
156.7247583202
 10
197.21685903
 20
156.5397818797
 10
197.2776699962
 20
156.4452982139
  0
ARC
  5
75
330
1F
100
AcDbEntity
  8
0
  6
Continuous
 62
     7
370
    15
100
AcDbCircle
 10
224.6699218369
 20
151.3515925411
 30
0.0
 40
3.429532096448531
100
AcDbArc
 50
71.7515194204
 51
108.2484805796
  0
ARC
  5
76
330
1F
100
AcDbEntity
  8
0
  6
Continuous
 62
     7
370
    15
100
AcDbCircle
 10
199.2140777142
 20
152.9844087647
 30
0.0
 40
3.429532096449036
100
AcDbArc
 50
71.7515194204
 51
108.2484805796
  0
LWPOLYLINE
  5
77
330
1F
100
AcDbEntity
  8
0
  6
Continuous
 62
     7
370
    15
100
AcDbPolyline
 90
        9
 70
   128
 43
0.0
 10
191.365192443
 20
164.6294478652
 10
191.1511809953
 20
164.4847938751
 10
190.9790029827
 20
164.3225939353
 10
190.8528979993
 20
164.1468419465
 10
190.7759711683
 20
163.961865506
 10
190.7501166835
 20
163.7722193478
 10
190.7759711683
 20
163.5825731895
 10
190.8528979993
 20
163.3975967491
 10
190.8992421557
 20
163.323533238
  0
LINE
  5
78
330
1F
100
AcDbEntity
  8
0
  6
Continuous
 62
     7
370
    15
100
AcDbLine
 10
191.365192443
 20
164.6294478652
 30
0.0
 11
189.9509788807
 21
167.0789376008
 31
0.0
  0
ARC
  5
79
330
1F
100
AcDbEntity
  8
0
  6
Continuous
 62
     7
370
    15
100
AcDbCircle
 10
183.1051357835
 20
161.0315120521
 30
0.0
 40
1.245805404817008
100
AcDbArc
 50
185.3882594289
 51
245.9318815287
  0
LINE
  5
7A
330
1F
100
AcDbEntity
  8
0
  6
Continuous
 62
     7
370
    15
100
AcDbLine
 10
197.0220466925
 20
167.8950803125
 30
0.0
 11
191.365192443
 21
164.6294478652
 31
0.0
  0
LINE
  5
7B
330
1F
100
AcDbEntity
  8
0
  6
Continuous
 62
     7
370
    15
100
AcDbLine
 10
195.6078331301
 20
170.3445700481
 30
0.0
 11
197.0220466925
 21
167.8950803125
 31
0.0
  0
ARC
  5
7C
330
1F
100
AcDbEntity
  8
0
  6
Continuous
 62
     7
370
    15
100
AcDbCircle
 10
198.5170477096
 20
164.9876918803
 30
0.0
 40
3.269240819589095
100
AcDbArc
 50
68.5883775354
 51
117.2125686922
  0
LINE
  5
7D
330
1F
100
AcDbEntity
  8
0
  6
Continuous
 62
     7
370
    15
100
AcDbLine
 10
197.0220466925
 20
166.2619986887
 30
0.0
 11
197.0220466925
 21
167.8950803125
 31
0.0
  0
LINE
  5
7E
330
1F
100
AcDbEntity
  8
0
  6
Continuous
 62
     7
370
    15
100
AcDbLine
 10
197.0220466925
 20
166.2619986887
 30
0.0
 11
191.6252732634
 21
163.1465077032
 31
0.0
  0
ARC
  5
7F
330
1F
100
AcDbEntity
  8
0
  6
Continuous
 62
     7
370
    15
100
AcDbCircle
 10
198.5176316818
 20
163.3510658092
 30
0.0
 40
3.272660185418035
100
AcDbArc
 50
69.2722945728
 51
117.193284022
  0
LWPOLYLINE
  5
80
330
1F
100
AcDbEntity
  8
0
  6
Continuous
 62
     8
370
    15
100
AcDbPolyline
 90
        3
 70
   128
 43
0.0
 10
219.974676965
 20
155.3667064131
 10
220.2242309122
 20
155.145232278
 10
221.1321863575
 20
154.3044689324
  0
LWPOLYLINE
  5
81
330
1F
100
AcDbEntity
  8
0
  6
Continuous
 62
     8
370
    15
100
AcDbPolyline
 90
       13
 70
   128
 43
0.0
 10
198.5091725064
 20
163.4436032216
 10
198.3445180519
 20
163.6314205696
 10
198.229472405
 20
163.8311692872
 10
198.166534622
 20
164.0385103727
 10
198.1570718562
 20
164.2489399008
 10
198.2012896607
 20
164.457886858
 10
198.2982275231
 20
164.6608124359
 10
198.4457797299
 20
164.853308624
 10
198.6407411079
 20
165.0311939625
 10
198.8788766475
 20
165.1906043725
 10
199.1550134969
 20
165.3280770933
 10
199.4631533286
 20
165.4406259012
 10
199.6562934522
 20
165.4940815721
  0
SPLINE
  5
82
330
1F
100
AcDbEntity
  8
0
  6
Continuous
 62
     8
370
    15
100
AcDbSpline
210
0.0
220
0.0
230
1.0
 70
     8
 71
     3
 72
    13
 73
     9
 74
     0
 42
0.00000001
 43
0.00000001
 40
0.0
 40
0.0
 40
0.0
 40
0.0
 40
0.1545119460179728
 40
0.3294416986979856
 40
0.487301258294321
 40
0.6649277757345982
 40
0.8239859953872213
 40
1.0
 40
1.0
 40
1.0
 40
1.0
 10
219.1052880509786
 20
166.549693499285
 30
0.0
 10
218.9776286536822
 20
166.6606821718947
 30
0.0
 10
218.7054404521617
 20
166.8973259899497
 30
0.0
 10
218.2736338152378
 20
167.1839576608936
 30
0.0
 10
217.8187557912114
 20
167.4538899676814
 30
0.0
 10
217.3754288035346
 20
167.686942691237
 30
0.0
 10
216.9168093969978
 20
167.9078871470623
 30
0.0
 10
216.6184825361653
 20
168.0370297314051
 30
0.0
 10
216.4617709329466
 20
168.1048685488005
 30
0.0
  0
SPLINE
  5
83
330
1F
100
AcDbEntity
  8
0
  6
Continuous
 62
     8
370
    15
100
AcDbSpline
210
0.0
220
0.0
230
1.0
 70
     8
 71
     3
 72
    14
 73
    10
 74
     0
 42
0.00000001
 43
0.00000001
 40
0.0
 40
0.0
 40
0.0
 40
0.0
 40
0.0912710713262049
 40
0.2403976075210821
 40
0.3757176821791385
 40
0.5110249023783879
 40
0.6601471532303899
 40
0.8231278657481661
 40
1.0
 40
1.0
 40
1.0
 40
1.0
 10
219.7480150916177
 20
165.4537917652582
 30
0.0
 10
219.7502670858443
 20
165.4279630264637
 30
0.0
 10
219.75619858217
 20
165.3599330699695
 30
0.0
 10
219.6798160574668
 20
165.2554598805229
 30
0.0
 10
219.5482599592533
 20
165.1542985226731
 30
0.0
 10
219.3678287405694
 20
165.0742758137016
 30
0.0
 10
219.1427769256468
 20
165.0223360655923
 30
0.0
 10
218.8774277783847
 20
165.00796392269
 30
0.0
 10
218.7132736651335
 20
165.0418638460668
 30
0.0
 10
218.6278417241244
 20
165.0595066342783
 30
0.0
  0
SPLINE
  5
84
330
1F
100
AcDbEntity
  8
0
  6
Continuous
 62
     8
370
    15
100
AcDbSpline
210
0.0
220
0.0
230
1.0
 70
     8
 71
     3
 72
    13
 73
     9
 74
     0
 42
0.00000001
 43
0.00000001
 40
0.0
 40
0.0
 40
0.0
 40
0.0
 40
0.0522024643807886
 40
0.1657770183200628
 40
0.3621522438288263
 40
0.5831459412987343
 40
0.7810178622709224
 40
1.0
 40
1.0
 40
1.0
 40
1.0
 10
201.6734359997026
 20
176.727995321774
 30
0.0
 10
201.6975033816902
 20
176.7194977906824
 30
0.0
 10
201.7739330842337
 20
176.6925125633725
 30
0.0
 10
201.9475379952565
 20
176.6099904273526
 30
0.0
 10
202.2084645836926
 20
176.4655280457063
 30
0.0
 10
202.5195446886351
 20
176.2630613141091
 30
0.0
 10
202.8476116316252
 20
176.0298628719644
 30
0.0
 10
203.0652552143286
 20
175.8611421187321
 30
0.0
 10
203.1795879310398
 20
175.7725095854728
 30
0.0
  0
LWPOLYLINE
  5
85
330
1F
100
AcDbEntity
  8
0
  6
Continuous
 62
     8
370
    15
100
AcDbPolyline
 90
       10
 70
   128
 43
0.0
 10
218.5102631279
 20
154.2890693233
 10
218.7243354019
 20
154.2336481096
 10
218.9551508754
 20
154.2093767095
 10
219.1893248628
 20
154.2176625895
 10
219.4132779228
 20
154.2580252623
 10
219.6140233121
 20
154.3281241497
 10
219.7799200698
 20
154.4238943094
 10
219.9013480613
 20
154.5397821559
 10
219.9712658371
 20
154.6690675055
 10
219.9872677503
 20
154.7777594638
  0
ARC
  5
86
330
1F
100
AcDbEntity
  8
0
  6
Continuous
 62
     8
370
    15
100
AcDbCircle
 10
220.7305339886
 20
155.2245094002
 30
0.0
 40
1.003891970250651
100
AcDbArc
 50
229.8427258816
 51
293.5841306667
  0
SPLINE
  5
87
330
1F
100
AcDbEntity
  8
0
  6
Continuous
 62
     8
370
    15
100
AcDbSpline
210
0.0
220
0.0
230
1.0
 70
     8
 71
     3
 72
     9
 73
     5
 74
     0
 42
0.00000001
 43
0.00000001
 40
0.0
 40
0.0
 40
0.0
 40
0.0
 40
0.673916984931804
 40
1.0
 40
1.0
 40
1.0
 40
1.0
 10
199.9889317620009
 20
175.8195203220811
 30
0.0
 10
199.9456832817892
 20
175.8740182093869
 30
0.0
 10
199.8815084929373
 20
175.9548855692017
 30
0.0
 10
199.8905645646312
 20
176.0407760053868
 30
0.0
 10
199.8935175957938
 20
176.0687834177836
 30
0.0
  0
ARC
  5
88
330
1F
100
AcDbEntity
  8
0
  6
Continuous
 62
     8
370
    15
100
AcDbCircle
 10
200.0459540862
 20
165.3938207842
 30
0.0
 40
0.3918726630723211
100
AcDbArc
 50
180.4029391444
 51
229.9471725768
  0
LINE
  5
89
330
1F
100
AcDbEntity
  8
0
  6
Continuous
 62
     8
370
    15
100
AcDbLine
 10
191.365192443
 20
163.1991100455
 30
0.0
 11
191.365192443
 21
164.6294478652
 31
0.0
  0
ENDSEC
  0
SECTION
  2
OBJECTS
  0
DICTIONARY
  5
C
330
0
100
AcDbDictionary
281
     1
  3
ACAD_GROUP
350
D
  3
ACAD_LAYOUT
350
1A
  3
ACAD_MATERIAL
350
3B
  3
ACAD_MLEADERSTYLE
350
8C
  3
ACAD_MLINESTYLE
350
17
  3
ACAD_PLOTSETTINGS
350
19
  3
ACAD_PLOTSTYLENAME
350
E
  3
ACAD_VISUALSTYLE
350
2A
  3
AcDbVariableDictionary
350
8A
  0
DICTIONARY
  5
D
102
{ACAD_REACTORS
330
C
102
}
330
C
100
AcDbDictionary
281
     1
  0
DICTIONARY
  5
1A
102
{ACAD_REACTORS
330
C
102
}
330
C
100
AcDbDictionary
281
     1
  3
Layout1
350
1E
  3
Layout2
350
26
  3
Model
350
22
  0
DICTIONARY
  5
3B
102
{ACAD_REACTORS
330
C
102
}
330
C
100
AcDbDictionary
281
     1
  3
ByBlock
350
3D
  3
ByLayer
350
3C
  3
Global
350
3E
  0
DICTIONARY
  5
8C
102
{ACAD_REACTORS
330
C
102
}
330
C
100
AcDbDictionary
281
     1
  0
DICTIONARY
  5
17
102
{ACAD_REACTORS
330
C
102
}
330
C
100
AcDbDictionary
281
     1
  3
Standard
350
18
  0
DICTIONARY
  5
19
102
{ACAD_REACTORS
330
C
102
}
330
C
100
AcDbDictionary
281
     1
  0
ACDBDICTIONARYWDFLT
  5
E
102
{ACAD_REACTORS
330
C
102
}
330
C
100
AcDbDictionary
281
     1
  3
Normal
350
F
100
AcDbDictionaryWithDefault
340
F
  0
DICTIONARY
  5
2A
102
{ACAD_REACTORS
330
C
102
}
330
C
100
AcDbDictionary
281
     1
  3
2dWireframe
350
2F
  3
3D Hidden
350
31
  3
3dWireframe
350
30
  3
Basic
350
32
  3
Brighten
350
36
  3
ColorChange
350
3A
  3
Conceptual
350
34
  3
Dim
350
35
  3
Facepattern
350
39
  3
Flat
350
2B
  3
FlatWithEdges
350
2C
  3
Gouraud
350
2D
  3
GouraudWithEdges
350
2E
  3
Linepattern
350
38
  3
Realistic
350
33
  3
Thicken
350
37
  0
DICTIONARY
  5
8A
102
{ACAD_REACTORS
330
C
102
}
330
C
100
AcDbDictionary
281
     1
  3
DIMASSOC
350
8F
  3
HIDETEXT
350
90
  3
PSOLHEIGHT
350
8E
  3
PSOLWIDTH
350
8D
  0
LAYOUT
  5
1E
102
{ACAD_REACTORS
330
1A
102
}
330
1A
100
AcDbPlotSettings
  1

  2
none_device
  4

  6

 40
0.0
 41
0.0
 42
0.0
 43
0.0
 44
0.0
 45
0.0
 46
0.0
 47
0.0
 48
0.0
 49
0.0
140
0.0
141
0.0
142
1.0
143
1.0
 70
   688
 72
     0
 73
     0
 74
     5
  7

 75
    16
147
1.0
148
0.0
149
0.0
100
AcDbLayout
  1
Layout1
 70
     1
 71
     1
 10
0.0
 20
0.0
 11
420.0
 21
297.0
 12
0.0
 22
0.0
 32
0.0
 14
1.0000000000E+20
 24
1.0000000000E+20
 34
1.0000000000E+20
 15
-1.0000000000E+20
 25
-1.0000000000E+20
 35
-1.0000000000E+20
146
0.0
 13
0.0
 23
0.0
 33
0.0
 16
1.0
 26
0.0
 36
0.0
 17
0.0
 27
1.0
 37
0.0
 76
     0
330
1B
  0
LAYOUT
  5
26
102
{ACAD_REACTORS
330
1A
102
}
330
1A
100
AcDbPlotSettings
  1

  2
none_device
  4

  6

 40
0.0
 41
0.0
 42
0.0
 43
0.0
 44
0.0
 45
0.0
 46
0.0
 47
0.0
 48
0.0
 49
0.0
140
0.0
141
0.0
142
1.0
143
1.0
 70
   688
 72
     0
 73
     0
 74
     5
  7

 75
    16
147
1.0
148
0.0
149
0.0
100
AcDbLayout
  1
Layout2
 70
     1
 71
     2
 10
0.0
 20
0.0
 11
0.0
 21
0.0
 12
0.0
 22
0.0
 32
0.0
 14
0.0
 24
0.0
 34
0.0
 15
0.0
 25
0.0
 35
0.0
146
0.0
 13
0.0
 23
0.0
 33
0.0
 16
1.0
 26
0.0
 36
0.0
 17
0.0
 27
1.0
 37
0.0
 76
     0
330
23
  0
LAYOUT
  5
22
102
{ACAD_REACTORS
330
1A
102
}
330
1A
100
AcDbPlotSettings
  1

  2
none_device
  4

  6

 40
0.0
 41
0.0
 42
0.0
 43
0.0
 44
0.0
 45
0.0
 46
0.0
 47
0.0
 48
0.0
 49
0.0
140
0.0
141
0.0
142
1.0
143
1.0
 70
  1712
 72
     0
 73
     0
 74
     0
  7

 75
     0
147
1.0
148
0.0
149
0.0
100
AcDbLayout
  1
Model
 70
     1
 71
     0
 10
0.0
 20
0.0
 11
431.8
 21
279.4
 12
0.0
 22
0.0
 32
0.0
 14
0.0
 24
0.0
 34
0.0
 15
431.8
 25
279.4
 35
0.0
146
0.0
 13
0.0
 23
0.0
 33
0.0
 16
1.0
 26
0.0
 36
0.0
 17
0.0
 27
1.0
 37
0.0
 76
     0
330
1F
331
29
  0
MATERIAL
  5
3D
102
{ACAD_REACTORS
330
3B
102
}
102
{ACAD_XDICTIONARY
360
B3
102
}
330
3B
100
AcDbMaterial
  1
ByBlock
  0
MATERIAL
  5
3C
102
{ACAD_REACTORS
330
3B
102
}
102
{ACAD_XDICTIONARY
360
B1
102
}
330
3B
100
AcDbMaterial
  1
ByLayer
  0
MATERIAL
  5
3E
102
{ACAD_REACTORS
330
3B
102
}
102
{ACAD_XDICTIONARY
360
B5
102
}
330
3B
100
AcDbMaterial
  1
Global
  0
MLINESTYLE
  5
18
102
{ACAD_REACTORS
330
17
102
}
330
17
100
AcDbMlineStyle
  2
Standard
 70
     0
  3

 62
   256
 51
90.0
 52
90.0
 71
     2
 49
0.5
 62
   256
  6
BYLAYER
 49
-0.5
 62
   256
  6
BYLAYER
  0
ACDBPLACEHOLDER
  5
F
102
{ACAD_REACTORS
330
E
102
}
330
E
  0
VISUALSTYLE
  5
2F
102
{ACAD_REACTORS
330
2A
102
}
102
{ACAD_XDICTIONARY
360
99
102
}
330
2A
100
AcDbVisualStyle
  2
2dWireframe
 70
     4
 71
     0
 72
     2
 73
     0
 90
        0
 40
-0.6
 41
-30.0
 62
     5
 63
     7
 74
     1
 91
        4
 64
     7
 65
   257
 75
     1
175
     1
 42
1.0
 92
        0
 66
   257
 43
1.0
 76
     1
 77
     6
 78
     2
 67
     7
 79
     5
170
     0
171
     0
290
     0
174
     0
 93
        1
 44
0.0
173
     0
291
     0
 45
0.0
1001
ACAD
1000
AcDbSavedByObjectVersion
1070
     0
  0
VISUALSTYLE
  5
31
102
{ACAD_REACTORS
330
2A
102
}
102
{ACAD_XDICTIONARY
360
9D
102
}
330
2A
100
AcDbVisualStyle
  2
3D Hidden
 70
     6
 71
     1
 72
     2
 73
     2
 90
        0
 40
-0.6
 41
-30.0
 62
     5
 63
     7
 74
     2
 91
        2
 64
     7
 65
   257
 75
     2
175
     1
 42
40.0
 92
        0
 66
   257
 43
1.0
 76
     1
 77
     6
 78
     2
 67
     7
 79
     3
170
     0
171
     0
290
     0
174
     0
 93
        1
 44
0.0
173
     0
291
     0
 45
0.0
1001
ACAD
1000
AcDbSavedByObjectVersion
1070
     0
  0
VISUALSTYLE
  5
30
102
{ACAD_REACTORS
330
2A
102
}
102
{ACAD_XDICTIONARY
360
9B
102
}
330
2A
100
AcDbVisualStyle
  2
3dWireframe
 70
     5
 71
     0
 72
     2
 73
     0
 90
        0
 40
-0.6
 41
-30.0
 62
     5
 63
     7
 74
     1
 91
        4
 64
     7
 65
   257
 75
     1
175
     1
 42
1.0
 92
        0
 66
   257
 43
1.0
 76
     1
 77
     6
 78
     2
 67
     7
 79
     5
170
     0
171
     0
290
     0
174
     0
 93
        1
 44
0.0
173
     0
291
     0
 45
0.0
1001
ACAD
1000
AcDbSavedByObjectVersion
1070
     0
  0
VISUALSTYLE
  5
32
102
{ACAD_REACTORS
330
2A
102
}
102
{ACAD_XDICTIONARY
360
9F
102
}
330
2A
100
AcDbVisualStyle
  2
Basic
 70
     7
 71
     1
 72
     0
 73
     1
 90
        0
 40
-0.6
 41
-30.0
 62
     5
 63
     7
 74
     0
 91
        4
 64
     7
 65
   257
 75
     1
175
     1
 42
1.0
 92
        8
 66
     7
 43
1.0
 76
     1
 77
     6
 78
     2
 67
     7
 79
     5
170
     0
171
     0
290
     0
174
     0
 93
        1
 44
0.0
173
     0
291
     1
 45
0.0
1001
ACAD
1000
AcDbSavedByObjectVersion
1070
     0
  0
VISUALSTYLE
  5
36
102
{ACAD_REACTORS
330
2A
102
}
102
{ACAD_XDICTIONARY
360
A7
102
}
330
2A
100
AcDbVisualStyle
  2
Brighten
 70
    12
 71
     2
 72
     2
 73
     0
 90
        0
 40
-0.6
 41
-30.0
 62
     5
 63
     7
 74
     1
 91
        4
 64
     7
 65
   257
 75
     1
175
     1
 42
1.0
 92
        8
 66
     7
 43
1.0
 76
     1
 77
     6
 78
     2
 67
     7
 79
     5
170
     0
171
     0
290
     0
174
     0
 93
        1
 44
50.0
173
     0
291
     1
 45
0.0
1001
ACAD
1000
AcDbSavedByObjectVersion
1070
     0
  0
VISUALSTYLE
  5
3A
102
{ACAD_REACTORS
330
2A
102
}
102
{ACAD_XDICTIONARY
360
AF
102
}
330
2A
100
AcDbVisualStyle
  2
ColorChange
 70
    16
 71
     2
 72
     2
 73
     3
 90
        0
 40
-0.6
 41
-30.0
 62
     5
 63
     8
 74
     1
 91
        4
 64
     7
 65
   257
 75
     1
175
     1
 42
1.0
 92
        8
 66
     8
 43
1.0
 76
     1
 77
     6
 78
     2
 67
     7
 79
     5
170
     0
171
     0
290
     0
174
     0
 93
        1
 44
0.0
173
     0
291
     1
 45
0.0
1001
ACAD
1000
AcDbSavedByObjectVersion
1070
     0
  0
VISUALSTYLE
  5
34
102
{ACAD_REACTORS
330
2A
102
}
102
{ACAD_XDICTIONARY
360
A3
102
}
330
2A
100
AcDbVisualStyle
  2
Conceptual
 70
     9
 71
     3
 72
     2
 73
     0
 90
        0
 40
-0.6
 41
-30.0
 62
     5
 63
     7
 74
     2
 91
        2
 64
     7
 65
   257
 75
     1
175
     1
 42
40.0
 92
        8
 66
     7
 43
1.0
 76
     1
 77
     6
 78
     2
 67
     7
 79
     3
170
     0
171
     0
290
     0
174
     0
 93
        1
 44
0.0
173
     0
291
     0
 45
0.0
1001
ACAD
1000
AcDbSavedByObjectVersion
1070
     0
  0
VISUALSTYLE
  5
35
102
{ACAD_REACTORS
330
2A
102
}
102
{ACAD_XDICTIONARY
360
A5
102
}
330
2A
100
AcDbVisualStyle
  2
Dim
 70
    11
 71
     2
 72
     2
 73
     0
 90
        0
 40
-0.6
 41
-30.0
 62
     5
 63
     7
 74
     1
 91
        4
 64
     7
 65
   257
 75
     1
175
     1
 42
1.0
 92
        8
 66
     7
 43
1.0
 76
     1
 77
     6
 78
     2
 67
     7
 79
     5
170
     0
171
     0
290
     0
174
     0
 93
        1
 44
-50.0
173
     0
291
     1
 45
0.0
1001
ACAD
1000
AcDbSavedByObjectVersion
1070
     0
  0
VISUALSTYLE
  5
39
102
{ACAD_REACTORS
330
2A
102
}
102
{ACAD_XDICTIONARY
360
AD
102
}
330
2A
100
AcDbVisualStyle
  2
Facepattern
 70
    15
 71
     2
 72
     2
 73
     0
 90
        0
 40
-0.6
 41
-30.0
 62
     5
 63
     7
 74
     1
 91
        4
 64
     7
 65
   257
 75
     1
175
     1
 42
1.0
 92
        8
 66
     7
 43
1.0
 76
     1
 77
     6
 78
     2
 67
     7
 79
     5
170
     0
171
     0
290
     0
174
     0
 93
        1
 44
0.0
173
     0
291
     1
 45
0.0
1001
ACAD
1000
AcDbSavedByObjectVersion
1070
     0
  0
VISUALSTYLE
  5
2B
102
{ACAD_REACTORS
330
2A
102
}
102
{ACAD_XDICTIONARY
360
91
102
}
330
2A
100
AcDbVisualStyle
  2
Flat
 70
     0
 71
     2
 72
     1
 73
     1
 90
        2
 40
-0.6
 41
30.0
 62
     5
 63
     7
 74
     0
 91
        4
 64
     7
 65
   257
 75
     1
175
     1
 42
1.0
 92
        8
 66
     7
 43
1.0
 76
     1
 77
     6
 78
     2
 67
     7
 79
     5
170
     0
171
     0
290
     0
174
     0
 93
       13
 44
0.0
173
     0
291
     1
 45
0.0
1001
ACAD
1000
AcDbSavedByObjectVersion
1070
     0
  0
VISUALSTYLE
  5
2C
102
{ACAD_REACTORS
330
2A
102
}
102
{ACAD_XDICTIONARY
360
93
102
}
330
2A
100
AcDbVisualStyle
  2
FlatWithEdges
 70
     1
 71
     2
 72
     1
 73
     1
 90
        2
 40
-0.6
 41
30.0
 62
     5
 63
     7
 74
     1
 91
        4
 64
     7
 65
   257
 75
     1
175
     1
 42
1.0
 92
        0
 66
   257
 43
1.0
 76
     1
 77
     6
 78
     2
 67
     7
 79
     5
170
     0
171
     0
290
     0
174
     0
 93
       13
 44
0.0
173
     0
291
     1
 45
0.0
1001
ACAD
1000
AcDbSavedByObjectVersion
1070
     0
  0
VISUALSTYLE
  5
2D
102
{ACAD_REACTORS
330
2A
102
}
102
{ACAD_XDICTIONARY
360
95
102
}
330
2A
100
AcDbVisualStyle
  2
Gouraud
 70
     2
 71
     2
 72
     2
 73
     1
 90
        2
 40
-0.6
 41
30.0
 62
     5
 63
     7
 74
     0
 91
        4
 64
     7
 65
   257
 75
     1
175
     1
 42
1.0
 92
        0
 66
     7
 43
1.0
 76
     1
 77
     6
 78
     2
 67
     7
 79
     5
170
     0
171
     0
290
     0
174
     0
 93
       13
 44
0.0
173
     0
291
     1
 45
0.0
1001
ACAD
1000
AcDbSavedByObjectVersion
1070
     0
  0
VISUALSTYLE
  5
2E
102
{ACAD_REACTORS
330
2A
102
}
102
{ACAD_XDICTIONARY
360
97
102
}
330
2A
100
AcDbVisualStyle
  2
GouraudWithEdges
 70
     3
 71
     2
 72
     2
 73
     1
 90
        2
 40
-0.6
 41
30.0
 62
     5
 63
     7
 74
     1
 91
        4
 64
     7
 65
   257
 75
     1
175
     1
 42
1.0
 92
        0
 66
   257
 43
1.0
 76
     1
 77
     6
 78
     2
 67
     7
 79
     5
170
     0
171
     0
290
     0
174
     0
 93
       13
 44
0.0
173
     0
291
     1
 45
0.0
1001
ACAD
1000
AcDbSavedByObjectVersion
1070
     0
  0
VISUALSTYLE
  5
38
102
{ACAD_REACTORS
330
2A
102
}
102
{ACAD_XDICTIONARY
360
AB
102
}
330
2A
100
AcDbVisualStyle
  2
Linepattern
 70
    14
 71
     2
 72
     2
 73
     0
 90
        0
 40
-0.6
 41
-30.0
 62
     5
 63
     7
 74
     1
 91
        4
 64
     7
 65
   257
 75
     7
175
     7
 42
1.0
 92
        8
 66
     7
 43
1.0
 76
     1
 77
     6
 78
     2
 67
     7
 79
     5
170
     0
171
     0
290
     0
174
     0
 93
        1
 44
0.0
173
     0
291
     1
 45
0.0
1001
ACAD
1000
AcDbSavedByObjectVersion
1070
     0
  0
VISUALSTYLE
  5
33
102
{ACAD_REACTORS
330
2A
102
}
102
{ACAD_XDICTIONARY
360
A1
102
}
330
2A
100
AcDbVisualStyle
  2
Realistic
 70
     8
 71
     2
 72
     2
 73
     0
 90
        0
 40
-0.6
 41
-30.0
 62
     5
 63
     7
 74
     1
 91
        0
 64
     7
 65
   257
 75
     1
175
     1
 42
1.0
 92
        8
 66
     8
 43
1.0
 76
     1
 77
     6
 78
     2
 67
     7
 79
     5
170
     0
171
     0
290
     0
174
     0
 93
       13
 44
0.0
173
     0
291
     0
 45
0.0
1001
ACAD
1000
AcDbSavedByObjectVersion
1070
     0
  0
VISUALSTYLE
  5
37
102
{ACAD_REACTORS
330
2A
102
}
102
{ACAD_XDICTIONARY
360
A9
102
}
330
2A
100
AcDbVisualStyle
  2
Thicken
 70
    13
 71
     2
 72
     2
 73
     0
 90
        0
 40
-0.6
 41
-30.0
 62
     5
 63
     7
 74
     1
 91
        4
 64
     7
 65
   257
 75
     1
175
     1
 42
1.0
 92
       12
 66
     7
 43
1.0
 76
     1
 77
     6
 78
     2
 67
     7
 79
     5
170
     0
171
     0
290
     0
174
     0
 93
        1
 44
0.0
173
     0
291
     1
 45
0.0
1001
ACAD
1000
AcDbSavedByObjectVersion
1070
     0
  0
DICTIONARYVAR
  5
8F
102
{ACAD_REACTORS
330
8A
102
}
330
8A
100
DictionaryVariables
280
     0
  1
2
  0
DICTIONARYVAR
  5
90
102
{ACAD_REACTORS
330
8A
102
}
330
8A
100
DictionaryVariables
280
     0
  1
1
  0
DICTIONARYVAR
  5
8E
102
{ACAD_REACTORS
330
8A
102
}
330
8A
100
DictionaryVariables
280
     0
  1
80.000000
  0
DICTIONARYVAR
  5
8D
102
{ACAD_REACTORS
330
8A
102
}
330
8A
100
DictionaryVariables
280
     0
  1
5.000000
  0
DICTIONARY
  5
B3
330
3D
100
AcDbDictionary
280
     1
281
     1
  3
ACAD_XREC_ROUNDTRIP
360
B4
  0
DICTIONARY
  5
B1
330
3C
100
AcDbDictionary
280
     1
281
     1
  3
ACAD_XREC_ROUNDTRIP
360
B2
  0
DICTIONARY
  5
B5
330
3E
100
AcDbDictionary
280
     1
281
     1
  3
ACAD_XREC_ROUNDTRIP
360
B6
  0
DICTIONARY
  5
99
330
2F
100
AcDbDictionary
280
     1
281
     1
  3
ACAD_XREC_ROUNDTRIP
360
9A
  0
DICTIONARY
  5
9D
330
31
100
AcDbDictionary
280
     1
281
     1
  3
ACAD_XREC_ROUNDTRIP
360
9E
  0
DICTIONARY
  5
9B
330
30
100
AcDbDictionary
280
     1
281
     1
  3
ACAD_XREC_ROUNDTRIP
360
9C
  0
DICTIONARY
  5
9F
330
32
100
AcDbDictionary
280
     1
281
     1
  3
ACAD_XREC_ROUNDTRIP
360
A0
  0
DICTIONARY
  5
A7
330
36
100
AcDbDictionary
280
     1
281
     1
  3
ACAD_XREC_ROUNDTRIP
360
A8
  0
DICTIONARY
  5
AF
330
3A
100
AcDbDictionary
280
     1
281
     1
  3
ACAD_XREC_ROUNDTRIP
360
B0
  0
DICTIONARY
  5
A3
330
34
100
AcDbDictionary
280
     1
281
     1
  3
ACAD_XREC_ROUNDTRIP
360
A4
  0
DICTIONARY
  5
A5
330
35
100
AcDbDictionary
280
     1
281
     1
  3
ACAD_XREC_ROUNDTRIP
360
A6
  0
DICTIONARY
  5
AD
330
39
100
AcDbDictionary
280
     1
281
     1
  3
ACAD_XREC_ROUNDTRIP
360
AE
  0
DICTIONARY
  5
91
330
2B
100
AcDbDictionary
280
     1
281
     1
  3
ACAD_XREC_ROUNDTRIP
360
92
  0
DICTIONARY
  5
93
330
2C
100
AcDbDictionary
280
     1
281
     1
  3
ACAD_XREC_ROUNDTRIP
360
94
  0
DICTIONARY
  5
95
330
2D
100
AcDbDictionary
280
     1
281
     1
  3
ACAD_XREC_ROUNDTRIP
360
96
  0
DICTIONARY
  5
97
330
2E
100
AcDbDictionary
280
     1
281
     1
  3
ACAD_XREC_ROUNDTRIP
360
98
  0
DICTIONARY
  5
AB
330
38
100
AcDbDictionary
280
     1
281
     1
  3
ACAD_XREC_ROUNDTRIP
360
AC
  0
DICTIONARY
  5
A1
330
33
100
AcDbDictionary
280
     1
281
     1
  3
ACAD_XREC_ROUNDTRIP
360
A2
  0
DICTIONARY
  5
A9
330
37
100
AcDbDictionary
280
     1
281
     1
  3
ACAD_XREC_ROUNDTRIP
360
AA
  0
XRECORD
  5
B4
102
{ACAD_REACTORS
330
B3
102
}
330
B3
100
AcDbXrecord
280
     1
102
MATERIAL
148
0.0
149
0.0
149
0.0
 93
        0
 94
      127
282
     0
 72
     1
 77
     1
171
     1
175
     1
179
     1
273
     0
  0
XRECORD
  5
B2
102
{ACAD_REACTORS
330
B1
102
}
330
B1
100
AcDbXrecord
280
     1
102
MATERIAL
148
0.0
149
0.0
149
0.0
 93
        0
 94
      127
282
     0
 72
     1
 77
     1
171
     1
175
     1
179
     1
273
     0
  0
XRECORD
  5
B6
102
{ACAD_REACTORS
330
B5
102
}
330
B5
100
AcDbXrecord
280
     1
102
MATERIAL
148
0.0
149
0.0
149
0.0
 93
        0
 94
      127
282
     0
 72
     1
 77
     1
171
     1
175
     1
179
     1
273
     0
  0
XRECORD
  5
9A
102
{ACAD_REACTORS
330
99
102
}
330
99
100
AcDbXrecord
280
     1
102
RTVSPropertyOp0
 70
     1
102
RTVSPropertyOp1
 70
     1
102
RTVSPropertyOp2
 70
     1
102
RTVSPropertyOp3
 70
     1
102
RTVSPropertyOp4
 70
     1
102
RTVSPropertyOp5
 70
     1
102
RTVSPropertyOp6
 70
     1
102
RTVSPropertyOp7
 70
     1
102
RTVSPropertyOp8
 70
     1
102
RTVSPropertyOp9
 70
     1
102
RTVSPropertyOp10
 70
     1
102
RTVSPropertyOp11
 70
     1
102
RTVSPropertyOp12
 70
     1
102
RTVSPropertyOp13
 70
     1
102
RTVSPropertyOp14
 70
     1
102
RTVSPropertyOp15
 70
     1
102
RTVSPropertyOp16
 70
     1
102
RTVSPropertyOp17
 70
     1
102
RTVSPropertyOp18
 70
     1
102
RTVSPropertyOp19
 70
     1
102
RTVSPropertyOp20
 70
     1
102
RTVSPropertyOp21
 70
     1
102
RTVSPropertyOp22
 70
     1
102
RTVSPropertyOp23
 70
     1
102
RTVSPropertyOp24
 70
     1
102
RTVSPropertyOp25
 70
     1
102
RTVSPropertyOp26
 70
     1
102
RTVSPropertyOp27
 70
     1
  0
XRECORD
  5
9E
102
{ACAD_REACTORS
330
9D
102
}
330
9D
100
AcDbXrecord
280
     1
102
RTVSPropertyOp0
 70
     1
102
RTVSPropertyOp1
 70
     1
102
RTVSPropertyOp2
 70
     1
102
RTVSPropertyOp3
 70
     1
102
RTVSPropertyOp4
 70
     1
102
RTVSPropertyOp5
 70
     1
102
RTVSPropertyOp6
 70
     1
102
RTVSPropertyOp7
 70
     1
102
RTVSPropertyOp8
 70
     1
102
RTVSPropertyOp9
 70
     1
102
RTVSPropertyOp10
 70
     1
102
RTVSPropertyOp11
 70
     1
102
RTVSPropertyOp12
 70
     1
102
RTVSPropertyOp13
 70
     1
102
RTVSPropertyOp14
 70
     1
102
RTVSPropertyOp15
 70
     1
102
RTVSPropertyOp16
 70
     1
102
RTVSPropertyOp17
 70
     1
102
RTVSPropertyOp18
 70
     1
102
RTVSPropertyOp19
 70
     1
102
RTVSPropertyOp20
 70
     1
102
RTVSPropertyOp21
 70
     1
102
RTVSPropertyOp22
 70
     1
102
RTVSPropertyOp23
 70
     1
102
RTVSPropertyOp24
 70
     1
102
RTVSPropertyOp25
 70
     1
102
RTVSPropertyOp26
 70
     1
102
RTVSPropertyOp27
 70
     1
  0
XRECORD
  5
9C
102
{ACAD_REACTORS
330
9B
102
}
330
9B
100
AcDbXrecord
280
     1
102
RTVSPropertyOp0
 70
     1
102
RTVSPropertyOp1
 70
     1
102
RTVSPropertyOp2
 70
     1
102
RTVSPropertyOp3
 70
     1
102
RTVSPropertyOp4
 70
     1
102
RTVSPropertyOp5
 70
     1
102
RTVSPropertyOp6
 70
     1
102
RTVSPropertyOp7
 70
     1
102
RTVSPropertyOp8
 70
     1
102
RTVSPropertyOp9
 70
     1
102
RTVSPropertyOp10
 70
     1
102
RTVSPropertyOp11
 70
     1
102
RTVSPropertyOp12
 70
     1
102
RTVSPropertyOp13
 70
     1
102
RTVSPropertyOp14
 70
     1
102
RTVSPropertyOp15
 70
     1
102
RTVSPropertyOp16
 70
     1
102
RTVSPropertyOp17
 70
     1
102
RTVSPropertyOp18
 70
     1
102
RTVSPropertyOp19
 70
     1
102
RTVSPropertyOp20
 70
     1
102
RTVSPropertyOp21
 70
     1
102
RTVSPropertyOp22
 70
     1
102
RTVSPropertyOp23
 70
     1
102
RTVSPropertyOp24
 70
     1
102
RTVSPropertyOp25
 70
     1
102
RTVSPropertyOp26
 70
     1
102
RTVSPropertyOp27
 70
     1
  0
XRECORD
  5
A0
102
{ACAD_REACTORS
330
9F
102
}
330
9F
100
AcDbXrecord
280
     1
102
RTVSPropertyOp0
 70
     1
102
RTVSPropertyOp1
 70
     1
102
RTVSPropertyOp2
 70
     1
102
RTVSPropertyOp3
 70
     1
102
RTVSPropertyOp4
 70
     1
102
RTVSPropertyOp5
 70
     1
102
RTVSPropertyOp6
 70
     1
102
RTVSPropertyOp7
 70
     1
102
RTVSPropertyOp8
 70
     1
102
RTVSPropertyOp9
 70
     1
102
RTVSPropertyOp10
 70
     1
102
RTVSPropertyOp11
 70
     1
102
RTVSPropertyOp12
 70
     1
102
RTVSPropertyOp13
 70
     1
102
RTVSPropertyOp14
 70
     1
102
RTVSPropertyOp15
 70
     1
102
RTVSPropertyOp16
 70
     1
102
RTVSPropertyOp17
 70
     1
102
RTVSPropertyOp18
 70
     1
102
RTVSPropertyOp19
 70
     1
102
RTVSPropertyOp20
 70
     1
102
RTVSPropertyOp21
 70
     1
102
RTVSPropertyOp22
 70
     1
102
RTVSPropertyOp23
 70
     1
102
RTVSPropertyOp24
 70
     1
102
RTVSPropertyOp25
 70
     1
102
RTVSPropertyOp26
 70
     1
102
RTVSPropertyOp27
 70
     1
  0
XRECORD
  5
A8
102
{ACAD_REACTORS
330
A7
102
}
330
A7
100
AcDbXrecord
280
     1
102
RTVSPropertyOp0
 70
     1
102
RTVSPropertyOp1
 70
     1
102
RTVSPropertyOp2
 70
     1
102
RTVSPropertyOp3
 70
     1
102
RTVSPropertyOp4
 70
     1
102
RTVSPropertyOp5
 70
     1
102
RTVSPropertyOp6
 70
     1
102
RTVSPropertyOp7
 70
     1
102
RTVSPropertyOp8
 70
     1
102
RTVSPropertyOp9
 70
     1
102
RTVSPropertyOp10
 70
     1
102
RTVSPropertyOp11
 70
     1
102
RTVSPropertyOp12
 70
     1
102
RTVSPropertyOp13
 70
     1
102
RTVSPropertyOp14
 70
     1
102
RTVSPropertyOp15
 70
     1
102
RTVSPropertyOp16
 70
     1
102
RTVSPropertyOp17
 70
     1
102
RTVSPropertyOp18
 70
     1
102
RTVSPropertyOp19
 70
     1
102
RTVSPropertyOp20
 70
     1
102
RTVSPropertyOp21
 70
     1
102
RTVSPropertyOp22
 70
     1
102
RTVSPropertyOp23
 70
     1
102
RTVSPropertyOp24
 70
     1
102
RTVSPropertyOp25
 70
     1
102
RTVSPropertyOp26
 70
     1
102
RTVSPropertyOp27
 70
     1
  0
XRECORD
  5
B0
102
{ACAD_REACTORS
330
AF
102
}
330
AF
100
AcDbXrecord
280
     1
102
RTVSPropertyOp0
 70
     1
102
RTVSPropertyOp1
 70
     1
102
RTVSPropertyOp2
 70
     1
102
RTVSPropertyOp3
 70
     1
102
RTVSPropertyOp4
 70
     1
102
RTVSPropertyOp5
 70
     1
102
RTVSPropertyOp6
 70
     1
102
RTVSPropertyOp7
 70
     1
102
RTVSPropertyOp8
 70
     1
102
RTVSPropertyOp9
 70
     1
102
RTVSPropertyOp10
 70
     1
102
RTVSPropertyOp11
 70
     1
102
RTVSPropertyOp12
 70
     1
102
RTVSPropertyOp13
 70
     1
102
RTVSPropertyOp14
 70
     1
102
RTVSPropertyOp15
 70
     1
102
RTVSPropertyOp16
 70
     1
102
RTVSPropertyOp17
 70
     1
102
RTVSPropertyOp18
 70
     1
102
RTVSPropertyOp19
 70
     1
102
RTVSPropertyOp20
 70
     1
102
RTVSPropertyOp21
 70
     1
102
RTVSPropertyOp22
 70
     1
102
RTVSPropertyOp23
 70
     1
102
RTVSPropertyOp24
 70
     1
102
RTVSPropertyOp25
 70
     1
102
RTVSPropertyOp26
 70
     1
102
RTVSPropertyOp27
 70
     1
  0
XRECORD
  5
A4
102
{ACAD_REACTORS
330
A3
102
}
330
A3
100
AcDbXrecord
280
     1
102
RTVSPropertyOp0
 70
     1
102
RTVSPropertyOp1
 70
     1
102
RTVSPropertyOp2
 70
     1
102
RTVSPropertyOp3
 70
     1
102
RTVSPropertyOp4
 70
     1
102
RTVSPropertyOp5
 70
     1
102
RTVSPropertyOp6
 70
     1
102
RTVSPropertyOp7
 70
     1
102
RTVSPropertyOp8
 70
     1
102
RTVSPropertyOp9
 70
     1
102
RTVSPropertyOp10
 70
     1
102
RTVSPropertyOp11
 70
     1
102
RTVSPropertyOp12
 70
     1
102
RTVSPropertyOp13
 70
     1
102
RTVSPropertyOp14
 70
     1
102
RTVSPropertyOp15
 70
     1
102
RTVSPropertyOp16
 70
     1
102
RTVSPropertyOp17
 70
     1
102
RTVSPropertyOp18
 70
     1
102
RTVSPropertyOp19
 70
     1
102
RTVSPropertyOp20
 70
     1
102
RTVSPropertyOp21
 70
     1
102
RTVSPropertyOp22
 70
     1
102
RTVSPropertyOp23
 70
     1
102
RTVSPropertyOp24
 70
     1
102
RTVSPropertyOp25
 70
     1
102
RTVSPropertyOp26
 70
     1
102
RTVSPropertyOp27
 70
     1
  0
XRECORD
  5
A6
102
{ACAD_REACTORS
330
A5
102
}
330
A5
100
AcDbXrecord
280
     1
102
RTVSPropertyOp0
 70
     1
102
RTVSPropertyOp1
 70
     1
102
RTVSPropertyOp2
 70
     1
102
RTVSPropertyOp3
 70
     1
102
RTVSPropertyOp4
 70
     1
102
RTVSPropertyOp5
 70
     1
102
RTVSPropertyOp6
 70
     1
102
RTVSPropertyOp7
 70
     1
102
RTVSPropertyOp8
 70
     1
102
RTVSPropertyOp9
 70
     1
102
RTVSPropertyOp10
 70
     1
102
RTVSPropertyOp11
 70
     1
102
RTVSPropertyOp12
 70
     1
102
RTVSPropertyOp13
 70
     1
102
RTVSPropertyOp14
 70
     1
102
RTVSPropertyOp15
 70
     1
102
RTVSPropertyOp16
 70
     1
102
RTVSPropertyOp17
 70
     1
102
RTVSPropertyOp18
 70
     1
102
RTVSPropertyOp19
 70
     1
102
RTVSPropertyOp20
 70
     1
102
RTVSPropertyOp21
 70
     1
102
RTVSPropertyOp22
 70
     1
102
RTVSPropertyOp23
 70
     1
102
RTVSPropertyOp24
 70
     1
102
RTVSPropertyOp25
 70
     1
102
RTVSPropertyOp26
 70
     1
102
RTVSPropertyOp27
 70
     1
  0
XRECORD
  5
AE
102
{ACAD_REACTORS
330
AD
102
}
330
AD
100
AcDbXrecord
280
     1
102
RTVSPropertyOp0
 70
     1
102
RTVSPropertyOp1
 70
     1
102
RTVSPropertyOp2
 70
     1
102
RTVSPropertyOp3
 70
     1
102
RTVSPropertyOp4
 70
     1
102
RTVSPropertyOp5
 70
     1
102
RTVSPropertyOp6
 70
     1
102
RTVSPropertyOp7
 70
     1
102
RTVSPropertyOp8
 70
     1
102
RTVSPropertyOp9
 70
     1
102
RTVSPropertyOp10
 70
     1
102
RTVSPropertyOp11
 70
     1
102
RTVSPropertyOp12
 70
     1
102
RTVSPropertyOp13
 70
     1
102
RTVSPropertyOp14
 70
     1
102
RTVSPropertyOp15
 70
     1
102
RTVSPropertyOp16
 70
     1
102
RTVSPropertyOp17
 70
     1
102
RTVSPropertyOp18
 70
     1
102
RTVSPropertyOp19
 70
     1
102
RTVSPropertyOp20
 70
     1
102
RTVSPropertyOp21
 70
     1
102
RTVSPropertyOp22
 70
     1
102
RTVSPropertyOp23
 70
     1
102
RTVSPropertyOp24
 70
     1
102
RTVSPropertyOp25
 70
     1
102
RTVSPropertyOp26
 70
     1
102
RTVSPropertyOp27
 70
     1
  0
XRECORD
  5
92
102
{ACAD_REACTORS
330
91
102
}
330
91
100
AcDbXrecord
280
     1
102
RTVSPropertyOp0
 70
     1
102
RTVSPropertyOp1
 70
     1
102
RTVSPropertyOp2
 70
     1
102
RTVSPropertyOp3
 70
     1
102
RTVSPropertyOp4
 70
     1
102
RTVSPropertyOp5
 70
     1
102
RTVSPropertyOp6
 70
     1
102
RTVSPropertyOp7
 70
     1
102
RTVSPropertyOp8
 70
     1
102
RTVSPropertyOp9
 70
     1
102
RTVSPropertyOp10
 70
     1
102
RTVSPropertyOp11
 70
     1
102
RTVSPropertyOp12
 70
     1
102
RTVSPropertyOp13
 70
     1
102
RTVSPropertyOp14
 70
     1
102
RTVSPropertyOp15
 70
     1
102
RTVSPropertyOp16
 70
     1
102
RTVSPropertyOp17
 70
     1
102
RTVSPropertyOp18
 70
     1
102
RTVSPropertyOp19
 70
     1
102
RTVSPropertyOp20
 70
     1
102
RTVSPropertyOp21
 70
     1
102
RTVSPropertyOp22
 70
     1
102
RTVSPropertyOp23
 70
     1
102
RTVSPropertyOp24
 70
     1
102
RTVSPropertyOp25
 70
     1
102
RTVSPropertyOp26
 70
     1
102
RTVSPropertyOp27
 70
     1
  0
XRECORD
  5
94
102
{ACAD_REACTORS
330
93
102
}
330
93
100
AcDbXrecord
280
     1
102
RTVSPropertyOp0
 70
     1
102
RTVSPropertyOp1
 70
     1
102
RTVSPropertyOp2
 70
     1
102
RTVSPropertyOp3
 70
     1
102
RTVSPropertyOp4
 70
     1
102
RTVSPropertyOp5
 70
     1
102
RTVSPropertyOp6
 70
     1
102
RTVSPropertyOp7
 70
     1
102
RTVSPropertyOp8
 70
     1
102
RTVSPropertyOp9
 70
     1
102
RTVSPropertyOp10
 70
     1
102
RTVSPropertyOp11
 70
     1
102
RTVSPropertyOp12
 70
     1
102
RTVSPropertyOp13
 70
     1
102
RTVSPropertyOp14
 70
     1
102
RTVSPropertyOp15
 70
     1
102
RTVSPropertyOp16
 70
     1
102
RTVSPropertyOp17
 70
     1
102
RTVSPropertyOp18
 70
     1
102
RTVSPropertyOp19
 70
     1
102
RTVSPropertyOp20
 70
     1
102
RTVSPropertyOp21
 70
     1
102
RTVSPropertyOp22
 70
     1
102
RTVSPropertyOp23
 70
     1
102
RTVSPropertyOp24
 70
     1
102
RTVSPropertyOp25
 70
     1
102
RTVSPropertyOp26
 70
     1
102
RTVSPropertyOp27
 70
     1
  0
XRECORD
  5
96
102
{ACAD_REACTORS
330
95
102
}
330
95
100
AcDbXrecord
280
     1
102
RTVSPropertyOp0
 70
     1
102
RTVSPropertyOp1
 70
     1
102
RTVSPropertyOp2
 70
     1
102
RTVSPropertyOp3
 70
     1
102
RTVSPropertyOp4
 70
     1
102
RTVSPropertyOp5
 70
     1
102
RTVSPropertyOp6
 70
     1
102
RTVSPropertyOp7
 70
     1
102
RTVSPropertyOp8
 70
     1
102
RTVSPropertyOp9
 70
     1
102
RTVSPropertyOp10
 70
     1
102
RTVSPropertyOp11
 70
     1
102
RTVSPropertyOp12
 70
     1
102
RTVSPropertyOp13
 70
     1
102
RTVSPropertyOp14
 70
     1
102
RTVSPropertyOp15
 70
     1
102
RTVSPropertyOp16
 70
     1
102
RTVSPropertyOp17
 70
     1
102
RTVSPropertyOp18
 70
     1
102
RTVSPropertyOp19
 70
     1
102
RTVSPropertyOp20
 70
     1
102
RTVSPropertyOp21
 70
     1
102
RTVSPropertyOp22
 70
     1
102
RTVSPropertyOp23
 70
     1
102
RTVSPropertyOp24
 70
     1
102
RTVSPropertyOp25
 70
     1
102
RTVSPropertyOp26
 70
     1
102
RTVSPropertyOp27
 70
     1
  0
XRECORD
  5
98
102
{ACAD_REACTORS
330
97
102
}
330
97
100
AcDbXrecord
280
     1
102
RTVSPropertyOp0
 70
     1
102
RTVSPropertyOp1
 70
     1
102
RTVSPropertyOp2
 70
     1
102
RTVSPropertyOp3
 70
     1
102
RTVSPropertyOp4
 70
     1
102
RTVSPropertyOp5
 70
     1
102
RTVSPropertyOp6
 70
     1
102
RTVSPropertyOp7
 70
     1
102
RTVSPropertyOp8
 70
     1
102
RTVSPropertyOp9
 70
     1
102
RTVSPropertyOp10
 70
     1
102
RTVSPropertyOp11
 70
     1
102
RTVSPropertyOp12
 70
     1
102
RTVSPropertyOp13
 70
     1
102
RTVSPropertyOp14
 70
     1
102
RTVSPropertyOp15
 70
     1
102
RTVSPropertyOp16
 70
     1
102
RTVSPropertyOp17
 70
     1
102
RTVSPropertyOp18
 70
     1
102
RTVSPropertyOp19
 70
     1
102
RTVSPropertyOp20
 70
     1
102
RTVSPropertyOp21
 70
     1
102
RTVSPropertyOp22
 70
     1
102
RTVSPropertyOp23
 70
     1
102
RTVSPropertyOp24
 70
     1
102
RTVSPropertyOp25
 70
     1
102
RTVSPropertyOp26
 70
     1
102
RTVSPropertyOp27
 70
     1
  0
XRECORD
  5
AC
102
{ACAD_REACTORS
330
AB
102
}
330
AB
100
AcDbXrecord
280
     1
102
RTVSPropertyOp0
 70
     1
102
RTVSPropertyOp1
 70
     1
102
RTVSPropertyOp2
 70
     1
102
RTVSPropertyOp3
 70
     1
102
RTVSPropertyOp4
 70
     1
102
RTVSPropertyOp5
 70
     1
102
RTVSPropertyOp6
 70
     1
102
RTVSPropertyOp7
 70
     1
102
RTVSPropertyOp8
 70
     1
102
RTVSPropertyOp9
 70
     1
102
RTVSPropertyOp10
 70
     1
102
RTVSPropertyOp11
 70
     1
102
RTVSPropertyOp12
 70
     1
102
RTVSPropertyOp13
 70
     1
102
RTVSPropertyOp14
 70
     1
102
RTVSPropertyOp15
 70
     1
102
RTVSPropertyOp16
 70
     1
102
RTVSPropertyOp17
 70
     1
102
RTVSPropertyOp18
 70
     1
102
RTVSPropertyOp19
 70
     1
102
RTVSPropertyOp20
 70
     1
102
RTVSPropertyOp21
 70
     1
102
RTVSPropertyOp22
 70
     1
102
RTVSPropertyOp23
 70
     1
102
RTVSPropertyOp24
 70
     1
102
RTVSPropertyOp25
 70
     1
102
RTVSPropertyOp26
 70
     1
102
RTVSPropertyOp27
 70
     1
  0
XRECORD
  5
A2
102
{ACAD_REACTORS
330
A1
102
}
330
A1
100
AcDbXrecord
280
     1
102
RTVSPropertyOp0
 70
     1
102
RTVSPropertyOp1
 70
     1
102
RTVSPropertyOp2
 70
     1
102
RTVSPropertyOp3
 70
     1
102
RTVSPropertyOp4
 70
     1
102
RTVSPropertyOp5
 70
     1
102
RTVSPropertyOp6
 70
     1
102
RTVSPropertyOp7
 70
     1
102
RTVSPropertyOp8
 70
     1
102
RTVSPropertyOp9
 70
     1
102
RTVSPropertyOp10
 70
     1
102
RTVSPropertyOp11
 70
     1
102
RTVSPropertyOp12
 70
     1
102
RTVSPropertyOp13
 70
     1
102
RTVSPropertyOp14
 70
     1
102
RTVSPropertyOp15
 70
     1
102
RTVSPropertyOp16
 70
     1
102
RTVSPropertyOp17
 70
     1
102
RTVSPropertyOp18
 70
     1
102
RTVSPropertyOp19
 70
     1
102
RTVSPropertyOp20
 70
     1
102
RTVSPropertyOp21
 70
     1
102
RTVSPropertyOp22
 70
     1
102
RTVSPropertyOp23
 70
     1
102
RTVSPropertyOp24
 70
     1
102
RTVSPropertyOp25
 70
     1
102
RTVSPropertyOp26
 70
     1
102
RTVSPropertyOp27
 70
     1
  0
XRECORD
  5
AA
102
{ACAD_REACTORS
330
A9
102
}
330
A9
100
AcDbXrecord
280
     1
102
RTVSPropertyOp0
 70
     1
102
RTVSPropertyOp1
 70
     1
102
RTVSPropertyOp2
 70
     1
102
RTVSPropertyOp3
 70
     1
102
RTVSPropertyOp4
 70
     1
102
RTVSPropertyOp5
 70
     1
102
RTVSPropertyOp6
 70
     1
102
RTVSPropertyOp7
 70
     1
102
RTVSPropertyOp8
 70
     1
102
RTVSPropertyOp9
 70
     1
102
RTVSPropertyOp10
 70
     1
102
RTVSPropertyOp11
 70
     1
102
RTVSPropertyOp12
 70
     1
102
RTVSPropertyOp13
 70
     1
102
RTVSPropertyOp14
 70
     1
102
RTVSPropertyOp15
 70
     1
102
RTVSPropertyOp16
 70
     1
102
RTVSPropertyOp17
 70
     1
102
RTVSPropertyOp18
 70
     1
102
RTVSPropertyOp19
 70
     1
102
RTVSPropertyOp20
 70
     1
102
RTVSPropertyOp21
 70
     1
102
RTVSPropertyOp22
 70
     1
102
RTVSPropertyOp23
 70
     1
102
RTVSPropertyOp24
 70
     1
102
RTVSPropertyOp25
 70
     1
102
RTVSPropertyOp26
 70
     1
102
RTVSPropertyOp27
 70
     1
  0
ENDSEC
  0
EOF
